Oops, an error
Loading. Please wait.

In The Shadows Tab

ver2
ver2

Whole song

More versions @911Tabs.com
2,242 views 6 this week
no commentswrite comment
1 2 3 4 5
excellent!
x 1
Autoscroll
+/-
esc
set tempo
stop
WARNING: You are trying to view
                                    content from Ultimate-Guitar.com
                                    in an unauthorized application,
                                    which is prohibited.

                                    Please use an official Ultimate
                                    Guitar Tabs application for iPhone,
                                    iPad or Android to access legitimate
                                    chords, guitar, bass, and drum tabs
                                    from Ultimate-Guitar.com database.

                                    Type "ultimate guitar tabs" in Apple
                                    App Store's or Android Market's
                                    search to find the application.
Band: Story Of The Year
Song: In The Shadows
ultimate-guitar
tabbed by Mike

good luck with this song, it's easy but long,
so I hope you enjoy my tab, I think it's not too bad


INTRO

E------------------|
B------------------|
G-----7-----12-----|
D-----5------9-----|
A-----3------7-----|
D------------------|
      #      #

E----------------------------------------------------------------------|
B----------------------------------------------------------------------|
G-----12-12-12-----------12-12-12-------12-12-12-----------12-12-12-12-|
D-----12-12-12--0-0-0-0--12-12-12--0-0--12-12-12--0-0-0-0--12-12-12-12-|
A-----10-10-10--0-0-0-0--10-10-10--0-0--10-10-10--0-0-0-0--10-10-10-10-|
D-----10-10-10--0-0-0-0--10-10-10--0-0--10-10-10--0-0-0-0--10-10-10-10-|
                * * * *            * *            * * * *


VERSE

E----------------------------------------------------------------------------|
B----------------------------------------------------------------------------|
G----------------------------------------------------------------------------|
D-----0--2--2--0--2--2--5--5--5--5--0--0--0--2--2--0--2--2--5--5--5--5--0--0-|
A-----0--2--2--0--2--2--3--3--5--5--0--0--0--2--2--0--2--2--3--3--5--5--0--0-|
D-----0--2--2--0--2--2--------5--5--0--0--0--2--2--0--2--2--------5--5--0--0-|

E----------------------------------------------------------------------------|
B----------------------------------------------------------------------------|
G----------------------------------------------------------------------------|
D-----0--2--2--0--2--2--5--5--5--5--0--0--0--2--2--0--2--2--5--5--5--5--0--0-|
A-----0--2--2--0--2--2--3--3--5--5--0--0--0--2--2--0--2--2--3--3--5--5--0--0-|
D-----0--2--2--0--2--2--------5--5--0--0--0--2--2--0--2--2--------5--5--0--0-|

E----------------------------------------------------------------------------|
B----------------------------------------------------------------------------|
G----------------------------------------------------------------------------|
D-----0--2--2--0--2--2--5--5--5--5--0--0--0--2--2--0--2--2--5--5--5--5--0--0-|
A-----0--2--2--0--2--2--3--3--5--5--0--0--0--2--2--0--2--2--3--3--5--5--0--0-|
D-----0--2--2--0--2--2--------5--5--0--0--0--2--2--0--2--2--------5--5--0--0-|

E----------------------------------------------------------------------------|
B----------------------------------------------------------------------------|
G----------------------------------------------------------------------------|
D-----0--2--2--0--2--2--5--5--5--5--0--0--0--2--2--0--2--2--5--5--5--5--0--0-|
A-----0--2--2--0--2--2--3--3--5--5--0--0--0--2--2--0--2--2--3--3--5--5--0--0-|
D-----0--2--2--0--2--2--------5--5--0--0--0--2--2--0--2--2--------5--5--0--0-|


PRE-CHORUS

E------------------------------------------------|
B------------------------------------------------|
G-----12-12-12-12-12-12-12--12-12-12-12-12-12-12-|
D-----12-12-12-12-12-12-12--12-12-12-12-12-12-12-|
A-----10-10-10-10-10-10-10--10-10-10-10-10-10-10-|
D-----10-10-10-10-10-10-10--10-10-10-10-10-10-10-|

E--------------------------------------------|
B------------------------------------------8-|
G-----12-12-12-12-12-12-12--12-12-12-------9-|
D-----12-12-12-12-12-12-12--12-12-12-0-0-0-9-|
A-----10-10-10-10-10-10-10--10-10-10-0-0-0-7-|
D-----10-10-10-10-10-10-10--10-10-10-0-0-0---|
                                     * * *

CHORUS

E---------------------------------------------------------------------------|
B---------------------------------------------------------------------------|
G---------------------------------12-12-12-12-12-12-12-12-12-12-12-12-12-12-|
D-----2-2-2-2-2-2-2-0-0-0-0-0-0-0-12-12-12-12-12-12-12-12-12-12-12-12-12-12-|
A-----2-2-2-2-2-2-2-0-0-0-0-0-0-0-10-10-10-10-10-10-10-10-10-10-10-10-10-10-|
D-----2-2-2-2-2-2-2-0-0-0-0-0-0-0-10-10-10-10-10-10-10-10-10-10-10-10-10-10-|

E---------------------------------------------------------------------------|
B---------------------------------------------------------------------------|
G---------------------------------12-12-12-12-12-12-12-12-12-12-12-12-12-12-|
D-----2-2-2-2-2-2-2-0-0-0-0-0-0-0-12-12-12-12-12-12-12-12-12-12-12-12-12-12-|
A-----2-2-2-2-2-2-2-0-0-0-0-0-0-0-10-10-10-10-10-10-10-10-10-10-10-10-10-10-|
D-----2-2-2-2-2-2-2-0-0-0-0-0-0-0-10-10-10-10-10-10-10-10-10-10-10-10-10-10-|

E-------------|
B-------------|
G-------------|
D-----0-0-0-0-|
A-----0-0-0-0-|
D-----0-0-0-0-|
      * * * *

E---------------------------------------------------------------------------|
B---------------------------------------------------------------------------|
G---------------------------------12-12-12-12-12-12-12-12-12-12-12-12-12-12-|
D-----2-2-2-2-2-2-2-0-0-0-0-0-0-0-12-12-12-12-12-12-12-12-12-12-12-12-12-12-|
A-----2-2-2-2-2-2-2-0-0-0-0-0-0-0-10-10-10-10-10-10-10-10-10-10-10-10-10-10-|
D-----2-2-2-2-2-2-2-0-0-0-0-0-0-0-10-10-10-10-10-10-10-10-10-10-10-10-10-10-|

E---------------------------------------------------------------------------|
B---------------------------------------------------------------------------|
G---------------------------------12-12-12-12-12-12-12-12-12-12-12-12-12-12-|
D-----2-2-2-2-2-2-2-0-0-0-0-0-0-0-12-12-12-12-12-12-12-12-12-12-12-12-12-12-|
A-----2-2-2-2-2-2-2-0-0-0-0-0-0-0-10-10-10-10-10-10-10-10-10-10-10-10-10-10-|
D-----2-2-2-2-2-2-2-0-0-0-0-0-0-0-10-10-10-10-10-10-10-10-10-10-10-10-10-10-|

E-----------------------------|
B-----------------------------|
G-----12-12-12-12-14-14-14-14-|
D-----12-12-12-12-14-14-14-14-|
A-----10-10-10-10-12-12-12-12-|
D-----10-10-10-10-12-12-12-12-|


VERSE

E-----0-----0-------------------------0-|
B-------------------------------------3-|
G---------------------------------------|
D---------------------------------------|
A---------------------------------------|
D---------------------------------------|
      ~     ~                         ~
E-------------------------------------0-|
B-----3---------------------------------|
G---------------------------------------|
D---------------------------------------|
A---------------------------------------|
D---------------------------------------|
      ~                               ~
E----------------------------------------------------------------------------|
B----------------------------------------------------------------------------|
G----------------------------------------------------------------------------|
D-----0--2--2--0--2--2--5--5--5--5--0--0--0--2--2--0--2--2--5--5--5--5--0--0-|
A-----0--2--2--0--2--2--3--3--5--5--0--0--0--2--2--0--2--2--3--3--5--5--0--0-|
D-----0--2--2--0--2--2--------5--5--0--0--0--2--2--0--2--2--------5--5--0--0-|

E----------------------------------------------------------------------------|
B----------------------------------------------------------------------------|
G----------------------------------------------------------------------------|
D-----0--2--2--0--2--2--5--5--5--5--0--0--0--2--2--0--2--2--5--5--5--5--0--0-|
A-----0--2--2--0--2--2--3--3--5--5--0--0--0--2--2--0--2--2--3--3--5--5--0--0-|
D-----0--2--2--0--2--2--------5--5--0--0--0--2--2--0--2--2--------5--5--0--0-|


PRE-CHORUS

E------------------------------------------------|
B------------------------------------------------|
G-----12-12-12-12-12-12-12--12-12-12-12-12-12-12-|
D-----12-12-12-12-12-12-12--12-12-12-12-12-12-12-|
A-----10-10-10-10-10-10-10--10-10-10-10-10-10-10-|
D-----10-10-10-10-10-10-10--10-10-10-10-10-10-10-|

E--------------------------------------------|
B------------------------------------------8-|
G-----12-12-12-12-12-12-12--12-12-12-------9-|
D-----12-12-12-12-12-12-12--12-12-12-0-0-0-9-|
A-----10-10-10-10-10-10-10--10-10-10-0-0-0-7-|
D-----10-10-10-10-10-10-10--10-10-10-0-0-0---|
                                     * * *

CHORUS

E---------------------------------------------------------------------------|
B---------------------------------------------------------------------------|
G---------------------------------12-12-12-12-12-12-12-12-12-12-12-12-12-12-|
D-----2-2-2-2-2-2-2-0-0-0-0-0-0-0-12-12-12-12-12-12-12-12-12-12-12-12-12-12-|
A-----2-2-2-2-2-2-2-0-0-0-0-0-0-0-10-10-10-10-10-10-10-10-10-10-10-10-10-10-|
D-----2-2-2-2-2-2-2-0-0-0-0-0-0-0-10-10-10-10-10-10-10-10-10-10-10-10-10-10-|

E---------------------------------------------------------------------------|
B---------------------------------------------------------------------------|
G---------------------------------12-12-12-12-12-12-12-12-12-12-12-12-12-12-|
D-----2-2-2-2-2-2-2-0-0-0-0-0-0-0-12-12-12-12-12-12-12-12-12-12-12-12-12-12-|
A-----2-2-2-2-2-2-2-0-0-0-0-0-0-0-10-10-10-10-10-10-10-10-10-10-10-10-10-10-|
D-----2-2-2-2-2-2-2-0-0-0-0-0-0-0-10-10-10-10-10-10-10-10-10-10-10-10-10-10-|

E-------------|
B-------------|
G-------------|
D-----0-0-0-0-|
A-----0-0-0-0-|
D-----0-0-0-0-|
      * * * *

E---------------------------------------------------------------------------|
B---------------------------------------------------------------------------|
G---------------------------------12-12-12-12-12-12-12-12-12-12-12-12-12-12-|
D-----2-2-2-2-2-2-2-0-0-0-0-0-0-0-12-12-12-12-12-12-12-12-12-12-12-12-12-12-|
A-----2-2-2-2-2-2-2-0-0-0-0-0-0-0-10-10-10-10-10-10-10-10-10-10-10-10-10-10-|
D-----2-2-2-2-2-2-2-0-0-0-0-0-0-0-10-10-10-10-10-10-10-10-10-10-10-10-10-10-|

E---------------------------------------------------------------------------|
B---------------------------------------------------------------------------|
G---------------------------------12-12-12-12-12-12-12-12-12-12-12-12-12-12-|
D-----2-2-2-2-2-2-2-0-0-0-0-0-0-0-12-12-12-12-12-12-12-12-12-12-12-12-12-12-|
A-----2-2-2-2-2-2-2-0-0-0-0-0-0-0-10-10-10-10-10-10-10-10-10-10-10-10-10-10-|
D-----2-2-2-2-2-2-2-0-0-0-0-0-0-0-10-10-10-10-10-10-10-10-10-10-10-10-10-10-|

E-----------------------------|
B-----------------------------|
G-----12-12-12-12-14-14-14-14-|
D-----12-12-12-12-14-14-14-14-|
A-----10-10-10-10-12-12-12-12-|
D-----10-10-10-10-12-12-12-12-|


VERSE

E--------------0---------------------0------------|
B--------------0----------5----------0----------5-|
G--------------0---------------------0------------|
D-----0-0-0-0--2----------5----------2----------5-|
A-----0-0-0-0--2----------3----------2----------3-|
D-----0-0-0-0-------------------------------------|
      * * * *

E-----0--------0---------------------0-------------|
B-----0--------0---------------------0-------------|
G-----0--------0----------12---------0----------12-|
D-----2--------2----------12---------2----------12-|
A-----2--------2----------10---------2----------10-|
D-----2--------2----------10---------2----------10-|


BRIDGE

E------------------------------------------|
B------------------------------------------|
G------------------------------------------|
D------------------------------------------|
A-----10-10-10-10-10-10--10-10-10-10-10-10-|
D-----10-10-10-10-10-10--10-10-10-10-10-10-|
       *  *  *  *  *  *
E--------------------------------------------------------|
B--------------------------------------------------------|
G--------------------------------------------------------|
D-----0--2--2--0--2--2--5--5--5--5--0--0--0--2--2--0--2\-|
A-----0--2--2--0--2--2--3--3--5--5--0--0--0--2--2--0--2\-|
D-----0--2--2--0--2--2--------5--5--0--0--0--2--2--0--2\-|


VERSE

E----------------------------------------------------------------------------|
B----------------------------------------------------------------------------|
G----------------------------------------------------------------------------|
D-----0--2--2--0--2--2--5--5--5--5--0--0--0--2--2--0--2--2--5--5--5--5--0--0-|
A-----0--2--2--0--2--2--3--3--5--5--0--0--0--2--2--0--2--2--3--3--5--5--0--0-|
D-----0--2--2--0--2--2--------5--5--0--0--0--2--2--0--2--2--------5--5--0--0-|


E----------------------------------------------------------------------------|
B----------------------------------------------------------------------------|
G----------------------------------------------------------------------------|
D-----0--2--2--0--2--2--5--5--5--5--0--0--0--2--2--0--2--2--5--5--5--5--0--0-|
A-----0--2--2--0--2--2--3--3--5--5--0--0--0--2--2--0--2--2--3--3--5--5--0--0-|
D-----0--2--2--0--2--2--------5--5--0--0--0--2--2--0--2--2--------5--5--0--0-|

E----------------------------------------------------------------------------|
B----------------------------------------------------------------------------|
G----------------------------------------------------------------------------|
D-----0--2--2--0--2--2--5--5--5--5--0--0--0--2--2--0--2--2--5--5--5--5--0--0-|
A-----0--2--2--0--2--2--3--3--5--5--0--0--0--2--2--0--2--2--3--3--5--5--0--0-|
D-----0--2--2--0--2--2--------5--5--0--0--0--2--2--0--2--2--------5--5--0--0-|


LIGHT CHORUS

E----------------------------------------------------------------------------|
B----------------------------------------------------------------------------|
G----------------------------------------------------------------------------|
D-----2--------------------------------------------------2-----2-----0-----0-|
A-----2--------------------------------------------------2-----2-----0-----0-|
D-----2--------------------------------------------------2-----2-----0-----0-|

E---------------------------------------------|
B---------------------------------------------|
G-----12-12-12-12-12-12-12-12-----------------|
D-----12-12-12-12-12-12-12-12-0-0-0-0-0-0-0-0-|
A-----10-10-10-10-10-10-10-10-0-0-0-0-0-0-0-0-|
D-----10-10-10-10-10-10-10-10-0-0-0-0-0-0-0-0-|
                              * * * * * * * *

CHORUS

E---------------------------------------------------------------------------|
B---------------------------------------------------------------------------|
G---------------------------------12-12-12-12-12-12-12-12-12-12-12-12-12-12-|
D-----2-2-2-2-2-2-2-0-0-0-0-0-0-0-12-12-12-12-12-12-12-12-12-12-12-12-12-12-|
A-----2-2-2-2-2-2-2-0-0-0-0-0-0-0-10-10-10-10-10-10-10-10-10-10-10-10-10-10-|
D-----2-2-2-2-2-2-2-0-0-0-0-0-0-0-10-10-10-10-10-10-10-10-10-10-10-10-10-10-|

E---------------------------------------------------------------------------|
B---------------------------------------------------------------------------|
G---------------------------------12-12-12-12-12-12-12-12-12-12-12-12-12-12-|
D-----2-2-2-2-2-2-2-0-0-0-0-0-0-0-12-12-12-12-12-12-12-12-12-12-12-12-12-12-|
A-----2-2-2-2-2-2-2-0-0-0-0-0-0-0-10-10-10-10-10-10-10-10-10-10-10-10-10-10-|
D-----2-2-2-2-2-2-2-0-0-0-0-0-0-0-10-10-10-10-10-10-10-10-10-10-10-10-10-10-|

E-------------|
B-------------|
G-------------|
D-----0-0-0-0-|
A-----0-0-0-0-|
D-----0-0-0-0-|
      * * * *

E---------------------------------------------------------------------------|
B---------------------------------------------------------------------------|
G---------------------------------12-12-12-12-12-12-12-12-12-12-12-12-12-12-|
D-----2-2-2-2-2-2-2-0-0-0-0-0-0-0-12-12-12-12-12-12-12-12-12-12-12-12-12-12-|
A-----2-2-2-2-2-2-2-0-0-0-0-0-0-0-10-10-10-10-10-10-10-10-10-10-10-10-10-10-|
D-----2-2-2-2-2-2-2-0-0-0-0-0-0-0-10-10-10-10-10-10-10-10-10-10-10-10-10-10-|

E---------------------------------------------------------------------------|
B---------------------------------------------------------------------------|
G---------------------------------12-12-12-12-12-12-12-12-12-12-12-12-12-12-|
D-----2-2-2-2-2-2-2-0-0-0-0-0-0-0-12-12-12-12-12-12-12-12-12-12-12-12-12-12-|
A-----2-2-2-2-2-2-2-0-0-0-0-0-0-0-10-10-10-10-10-10-10-10-10-10-10-10-10-10-|
D-----2-2-2-2-2-2-2-0-0-0-0-0-0-0-10-10-10-10-10-10-10-10-10-10-10-10-10-10-|

E-----------------------------|
B-----------------------------|
G-----12-12-12-12-14-14-14-14-|
D-----12-12-12-12-14-14-14-14-|
A-----10-10-10-10-12-12-12-12-|
D-----10-10-10-10-12-12-12-12-|


OUTRO

E----------------------------------------------------------------------------|
B----------------------------------------------------------------------------|
G----------------------------------------------------------------------------|
D-----0--2--2--0--2--2--5--5--5--5--0--0--0--2--2--0--2--2--5--5--5--5--0--0-|
A-----0--2--2--0--2--2--3--3--5--5--0--0--0--2--2--0--2--2--3--3--5--5--0--0-|
D-----0--2--2--0--2--2--------5--5--0--0--0--2--2--0--2--2--------5--5--0--0-|

E----------|
B----------|
G----------|
D-----2--2-|
A-----2--2-|
D-----2--2-|
comments
We did not receive enough feedback on this tab! Please rate:
print report bad tab
1 2 3 4 5
I want to post or [tab]
guest
You may want to rate the tab now too:
select rating
Please do not post tabs as comments. Select "correction" instead!