Oops, an error
Loading. Please wait.

In The Wake Of Determination Tab

2,844 views 3 this week
no commentswrite comment
1 2 3 4 5
accurate
x 1
add to favorites launch autoscroll
font size
0
reset
Autoscroll
+/-
esc
set tempo
stop
Difficulty
advanced
WARNING: You are trying to view
                                    content from Ultimate-Guitar.com
                                    in an unauthorized application,
                                    which is prohibited.

                                    Please use an official Ultimate
                                    Guitar Tabs application for iPhone,
                                    iPad or Android to access legitimate
                                    chords, guitar, bass, and drum tabs
                                    from Ultimate-Guitar.com database.

                                    Type "ultimate guitar tabs" in Apple
                                    App Store's or Android Market's
                                    search to find the application.
These tabs arent mine. Im just putting them all in a general place so that you guys
have to search for them individually. The only one thats missing is the "Wake up the
tab so just try to find it at another web site.There's also not one for "Sleep" but I 
put the solo tab in so you can play something for the song. Im only going to use the top rated
so I hope this helps. The ones that submitted the tabs will get credit for them

----------------------------------------------------------------------------

Band: Story of the Year
Song: We don't care anymore
Tabbed by: David Maillet

Guitar 1: Standard tunning
Guitar 2: Drop D tunning
Guitar 3: Standard tunning


This is a new song which will be on their new album released October 11th.
You can listen to the song on www.myspace.com/storyoftheyear


*: palm mute
/: slide up
: slide down

                  Intro:

Guitar 1 (0:00)

e|----------------4-----------------------|
B|----4-6-----------4-----4-6-------------|
G|----------------------------------------|
D|--3-----3-------------3-----3--1h3h4----|
A|----------4-4-4-------------------------|
E|----------------------------------------|

Guitar 2: (0:08)

e|------------|--Repeat------|
B|------------|--------------|
G|------------|--------------|
D|-3-3-1------|-1-3-1-1-3----|
A|-3-3-1------|-1-3-1-1-3----|
D|-3-3-1-14--|-1-3-1-1-3-----|
   * * *

Guitar 1: (0:09 to 0:19)
      Repeat
e|------------|
B|------6-----|
G|--3-5---5---|
D|------------|
A|------------|
E|------------|

Guitar 3: (0:15)

e|-----4-3----|
B|-6-4-----4--|
G|------------|
D|------------|
A|------------|
E|------------|


                  Verse:

Guitar 2:

(0:19)
Repeat: 3x

e|-----------------------------------------------|
B|-----------------------------------------------|
G|-----------------------------------------------|
D|-3333-3333-3333-3333-3333-3333--8p6p5---6------|
A|-3333-3333-3333-3333-3333-3333--------6---6----|
D|-3333-3333-3333-3333-3333-3333-----------------|
   **** **** **** **** **** ****

(0:34)

e|-----------------------------------------------|
B|-----------------------------------------------|
G|-----------------------------------------------|
D|-3333-3333-3333-3333--8p6p5---8p6p5---6p5------|
A|-3333-3333-3333-3333--------6-------6-----6----|
D|-3333-3333-3333-3333---------------------------|
   **** **** **** ****


Guitar 1:

(0:29)

e|--------------|
B|--------------|
G|-10p8-8-10----|
D|--------------|
A|--------------|
E|--------------|


                  Chorus

Guitar 2:

(0:39)

e|--------------|
B|--------------|
G|-6-5-10-8-----|
D|-6-5-10-8-----|
A|-4-3-8--6-----|
D|--------------|

End of chorus:

(0:55)

e|----------------------|
B|----------------------|
G|-10-12-13-12----------|
D|-10-12-13-12-6-5------|
A|-8--10-11-11-6-5------|
D|-------------6-5------|

                Verse 2:

(0:58)

e|----------------4-----------------------|
B|----4-6-----------4-----4-6-------------|
G|----------------------------------------|
D|--3-----3-------------3-----3-----------|
A|----------4-4-4---------------4---------|
E|----------------------------------------|

e|----------------------------------------------------|
B|----------------------------------------------------|
G|----------------------------------------------------|
D|------3333-3333-3333-3333-3333-3333--8p6p5---6------|
A|------3333-3333-3333-3333-3333-3333--------6---6----|
D|-14--3333-3333-3333-3333-3333-3333------------------|
        **** **** **** **** **** ****

e|-----------------------------------------------|
B|-----------------------------------------------|
G|-----------------------------------------------|
D|-3333-3333-3333-3333--8p6p5---8p6p5---6p5------|
A|-3333-3333-3333-3333--------6-------6-----6----|
D|-3333-3333-3333-3333---------------------------|
   **** **** **** ****


Repeat Chorus (1:18)


                      Interlude:

(1:37)

Guitar 2:

e|--Repeat----|
B|------------|
G|------------|
D|-1-3-1-1-3--|
A|-1-3-1-1-3--|
D|-1-3-1-1-3--|

Guitar 1:

      Repeat
e|------------|
B|------6-----|
G|--3-5---5---|
D|------------|
A|------------|
E|------------|


(1:47)

Guitar1:

e|-----------------------------------------------------|
B|---------------------13-13-11----11-13-11------------|
G|-/12h13p12--13h15p13----------13----------13-12-10---|
D|-----------------------------------------------------|
A|-----------------------------------------------------|
E|-----------------------------------------------------|

(1:51)

Guitar 1: (no distortion)

e|------------------------------------------------------|
B|------------------------------------------------------|
G|--------------------------------------------13-12-----|
D|---11-10--8-6-8----pause------11-10--8-6-8--------10--|
A|-8--------------------------8-------------------------|
E|------------------------------------------------------|

Guitar 2:


e|----11-----------------13-11----------------11--------|
B|-------8---------------------8-----------------8------|
G|-12------8------pause------------pause----12----------|
D|------------------------------------------------------|
A|------------------------------------------------------|
D|------------------------------------------------------|

(2:11)


e|-----Repat 6x---|-----------------------------|
B|----------------|-----------------------------|
G|-------3p1p0----|-----------------------------|
D|-333-1-------1--|-333-1-333-1-333-1-333-1-3---|
A|-333-1----------|-333-1-333-1-333-1-333-1-3---|
D|-333-1----------|-333-1-333-1-333-1-333-1-3---|
   *** * * * * *

(2:22)

e|-----Repat 8x---|--------------------------|
B|----------------|--------------------------|
G|-------3p1p0----|--8--3p1p0---3p1p0--------|
D|-333-1-------1--|--8--------1-------1--5---|
A|-333-1----------|--6-------------------5---|
D|-333-1----------|----------------------5---|

(2:37)

Accoustic part :

    C#  C   F  D#
e|--4---3---8---6-------|
B|--6---5---10--8-------|
G|--6---5---10--8-------|
D|--6---5---10--8-------|
A|--4---3---8---6-------|
E|----------------------|


Repeat Chorus: (2:47)


Guitar 1:

(2:57)

e|----Repeat-3x---|--Repeat 2x-|-Repeat-2x-----|------------------|
B|----------------|------------|---------------|------------------|
G|-/13-12-10------|-12h13h15---|-/15-13-12-----|-/15-13-12-13-----|
D|-----------13---|------------|-----------13--|--------------13--|
A|----------------|------------|---------------|------------------|
E|----------------|------------|---------------|------------------|


Guitar 2:

(3:14)

e|-------|
B|-------|
G|-------|
D|-6-5---|
A|-6-5---|
D|-6-5---|


(3:16)

e|--Repeat----|
B|------------|
G|------------|
D|-1-3-1-1-3--|
A|-1-3-1-1-3--|
D|-1-3-1-1-3--|


Guitar 1:

     Repeat
e|------------|
B|------6-----|
G|--3-5---5---|
D|------------|
A|------------|
E|------------|

             Ending:

(3:26)

Guitar 2:

e|---------------------------|
B|---------------------------|
G|---------------------------|
D|-333-1-333-1-333-1-333-1-3-|
A|-333-1-333-1-333-1-333-1-3-|
D|-333-1-333-1-333-1-333-1-3-|

----------------------------------------------------------------------------

Band: Story of the Year
Song: Take Me Back
Album: In the Wake of Determination
tabbed by basil yu

i've put this version in drop D tunning

intro (guitar 1)
(with delay effect)
e|---------------|x4
B|---------------|
G|---------------|
D|----8/9--------|
A|-6--6/7--9--4--|
D|-6-------9--4--|

pre chorus
e|----------------------------|x4
B|----------------------------|
G|-----------------11---------|
D|-------88/99------x---------|
A|-6666--66/77--99--9---4444--|
D|-6666---------99------4444--|

(guitar 2) half way through pre chorus
e|---------------------------------|
B|---------------------------------|
G|-6h8-88686-----------------------|
D|-----------9p8p6-99986--11-98----|
A|-----------------------9------9--|
D|---------------------------------|

verse (both guitars)
e|-----------------------|x4
B|-----------------------|
G|-----------------------|
D|------88-99------------|
A|-6666-66-77-9999-4444--|
D|-6666-------9999-4444--|
pm .... .. .. .... ....

pre chorus (both guitars)
e|----------------------------|x4
B|----------------------------|
G|-----------------11---------|
D|-------88/99------x---------|
A|-6666--66/77--99--9---4444--|
D|-6666---------99------4444--|

chorus (guitar 1)
e|---------------------------------|x4
B|---------------------------------|
G|---------------------------------|
D|-22222222222222-444444444444444--|
A|-22222222222222-444444444444444--|
D|-22222222222222-444444444444444--|

(guitar 2)
e|--------------------------------------|x4
B|--------------------------------------|
G|----------16-15--------------16-15-11-|
D|-11-11-11-------16--11-11-11----------|
A|--------------------------------------|
D|--------------------------------------|
pm .. .. .. .. .. ..  .. .. .. .. .. ..

post chorus
(with delay effect)             (both guitars)
e|-------------------------------|-----------|
B|-------------------------------|-----------|
G|-------------------------------|-11111111--|
D|------8/9-----------------8/9--|--x-x-x-x--|
A|-6----6/7--9----4----6----6/7--|--9-9-9-9--|
D|-6---------9----4----6---------|-----------|

verse (both guitars)
e|-----------------------|x4
B|-----------------------|
G|-----------------------|
D|------88-99------------|
A|-6666-66-77-9999-4444--|
D|-6666-------9999-4444--|
pm .... .. .. .... ....

pre chorus (both guitars)
e|----------------------------|x4
B|----------------------------|
G|-----------------11---------|
D|-------88/99------x---------|
A|-6666--66/77--99--9---4444--|
D|-6666---------99------4444--|

chorus (guitar 1)
e|---------------------------------|x4
B|---------------------------------|
G|---------------------------------|
D|-22222222222222-444444444444444--|
A|-22222222222222-444444444444444--|
D|-22222222222222-444444444444444--|

(guitar 2)
e|--------------------------------------|x4
B|--------------------------------------|
G|----------16-15--------------16-15-11-|
D|-11-11-11-------16--11-11-11----------|
A|--------------------------------------|
D|--------------------------------------|

bridge (guitar 1) very fast
e|----------------------|x8
B|----------------------|
G|----------------------|
D|----------------------|
A|---6h7----------------|
D|-66---9864-9864-8984--|
pm ..   .... .... ....

(guitar 2) come in after x4 of above
e|------------------------------------------------|x4
B|------------------------------------------------|
G|------------------------------------------------|
D|---6h8p6-9p8p6-8h9p8-6----6h8p6--9p8h9-689868---|
A|--------9-----9-------9--------9-------------9--|
D|-66---------------------66----------------------|
pm ..                     ..

pre solo (guitar 1)
e|---------------------------------------------------------|
B|---------------------------------------------------------|
G|---------------------------------------------------------|
D|-2222222222222222-66666666-44444444-22222222-44444444-6~-|
A|-2222222222222222-66666666-44444444-22222222-44444444-6~-|
D|-2222222222222222-66666666-44444444-22222222-44444444-6~-|

(guitar 2)
e|--------------------------------------------------------------------|
B|--------------------------------------------------------------------|
G|-13131313131313131313131313131313-1717171717171717-1111111111111111-|
D|-x-x-x-x-x-x-x-x-x-x-x-x-x-x-x-x--x-x-x-x-x-x-x-x--x-x-x-x-x-x-x-x--|
A|-11111111111111111111111111111111-1414141414141414-9-9-9-9-9-9-9-9--|
D|--------------------------------------------------------------------|

e|--------------------------------------|
B|--------------------------------------|
G|-1313131313131313-1515151515151515----|
D|-x-x-x-x-x-x-x-x--x-x-x-x-x-x-x-x--6~-|
A|-1111111111111111-1313131313131313-6~-|
D|-----------------------------------6~-|

solo (guitar 1)
e|---------------------------------|x4
B|---------------------------------|
G|---------------------------------|
D|-22222222222222-444444444444444--|
A|-22222222222222-444444444444444--|
D|-22222222222222-444444444444444--|

(guitar 2)
e|----------------------------------------------------------------------------|
B|----------------------------------------------------------------------------|
G|-----------------------------------------------------------------11-13b-13--|b
D|--------------------------------------------------------11--11-13-----------|
A|-11-13-14--11-13-9--11-9-6-9-11-9/11-9--11-13-14--13-14---------------------|
D|----------------------------------------------------------------------------|

e|---------------------------------------------------------|
B|---------------------------------------------------------|
G|----------16--15----------16--15----9-8-----------6b-6b--|
D|-11-16-16---16---16-16-16---16--16------9-8-6-8-9--------|
A|---------------------------------------------------------|
D|---------------------------------------------------------|

e|----------------------------------------------|
B|------------------------------16---16---16----|
G|----------------------12b--16b--16b--16b--16b-|
D|-9p8p6-11p9p8-13p11p9-------------------------|
A|----------------------------------------------|
D|----------------------------------------------|

chorus (guitar 1)
e|---------------------------------------------|x4
B|---------------------------------------------|
G|------------------------------------44444444-|
D|-2222222222222222-44444444-66666666-44444444-|
A|-2222222222222222-44444444-66666666-22222222-|
D|-2222222222222222-44444444-66666666----------|

e|---------------------------------------------|x2
B|---------------------------------------------|
G|---------------------------------------------|
D|-2222222222222222-44444444-66666666-44444444-|
A|-2222222222222222-44444444-66666666-44444444-|
D|-2222222222222222-44444444-66666666-44444444-|

(guitar 2)
e|-----------------------------------------------------------------|
B|-----------------------------------------------------------------|
G|-1616161616161616-13131313-8888-44444444-4444-3333-13131313-1010-|
D|-x-x-x-x-x-x-x-x--x-x-x-x--xxxx-xxxxxxxx-xxxx-xxxx-x-x-x-x--x-x--|
A|-1414141414141414-11111111-6666-22222222-2222-1111-11111111-9-9--|
D|-----------------------------------------------------------------|

e|------------------------------------------------------|
B|------------------------------------------------------|
G|-1515151515151515-13131313-15151515-1616161616161616--|
D|-x-x-x-x-x-x-x-x--x-x-x-x--x-x-x-x-x-x-x-x-x-x-x-x-x--|
A|-1313131313131313-11111111-13131313-1414141414141414--|
D|------------------------------------------------------|

e|-------------------------------------------------------------------------|
B|-------------------------------------------------------------------------|
G|-13131313-6-8888-6666-13131313-6-8888-6666-13131313-10-16161616-10101010-|
D|-x-x-x-x--x-xxxx-xxxx-x-x-x-x--x-xxxx-xxxx-x-x-x-x--x--x-x-x-x--x-x-x-x--|
A|-11111111-4-6666-4444-11111111-4-6666-4444-11111111-9--14141414-9-9-9-9--|
D|-------------------------------------------------------------------------|

e|------------------------------------------------------------------------|
B|------------------------------------------------------------------------|
G|-13131313-15151515-1616161616161616-1818181818181818-15151515-15151515--|
D|-x-x-x-x--x-x-x-x---x-x-x-x-x-x-x---x-x-x-x-x-x-x-x--x-x-x-x--x-x-x-x---|
A|-11111111-13131313-1414141414141414-1616161616161616-13131313-13131313--|
D|------------------------------------------------------------------------|

e|--------------------------------|x8
B|--------------------------------|
G|--------------------------------|
D|-----9---8------------9---8-----|
A|-9-9---9---9-9--9-9-9---9---9-9-|
D|--------------------------------|

outro (guitar 1)
e|-----------------------------|
B|-----------------------------|
G|-----------------------------|
D|-2~-4~-6~-4~-2~-4~-6~-4~-2~~-|
A|-2~-4~-6~-4~-2~-4~-6~-4~-2~~-|
D|-2~-4~-6~-4~-2~-4~-6~-4~-2~~-|

thats all!!!!!!!!!!!!!!!!!! that took sooooo long, and most of its right...

----------------------------------------------------------------------------

Artist: Story of the Year
Song: Our Time is Now
Album: In the Wake of Determination

E|-----|
B|-----|
G|-----|
D|--X--|
A|--X--|
E|--X--|

E|------------------------------------|
B|------------------------------------|
G|------------------------------------|
D|--------------5-------4p0h4-5-4-----|
A|----5h7-7p5-----7---------------5~--|
E|--0-0-------7------0----------------|

E|-------------------------------------------|
B|--------------------------------------15~--|
G|------------------------------12-----------|
D|---------------5----5------12-----12-------|
A|----5h7-7p5------7-----5/------------------|
E|--0-0-------7------------------------------|

E|------------------------------------|
B|------------------------------------|
G|----------------------4p0-----------|
D|--------------5-----------4-5-4-----|
A|----5h7-7p5-----7---------------5~--|
E|--0-0-------7------0----------------|

E|----------------------------------|
B|----------------------------------|
G|----------------------------------|
D|----------------------------------|
A|----5h7-7p5----5------------------|
E|--0-0-------7-----7--5--3--2--3~--|

E|------------------------------------|
B|------------------------------------|
G|------------------------------------|
D|--------------5-------4p0h4-5-4-----|
A|----5h7-7p5-----7---------------5~--|
E|--0-0-------7------0----------------|

E|----------------------------------------|
B|----------------------------------------|
G|----------------------7-----9------14~--|
D|---------------5----5---5/7---7/12------|
A|----5h7-7p5------7----------------------|
E|--0-0-------7---------------------------|

E|------------------------------------|
B|------------------------------------|
G|----------------------4p0-----------|
D|--------------5-----------4-5-4-----|
A|----5h7-7p5-----7---------------5~--|
E|--0-0-------7------0----------------|

E|----------------------------------|
B|----------------------------------|
G|----------------------------------|
D|----------------------------------|
A|----5h7-7p5----5------------------|
E|--0-0-------7-----7--5--3--2--3~--|

Verse
E|----------------------|
B|-------------<7>------|
G|---------<5>-----<7>--|
D|--22222---------------|
A|--22222---------------|
E|--00000---------------|
pm_______|

Pre-chorus
E|----------------|
B|----------------|
G|---------55555--|
D|--22222--55555--|
A|--22222--33333--|
E|--00000---------|
pm_____|

Chorus
E|---------------------------------------------|
B|---------------------------------------------|
G|--777777777777-------------------------------|
D|--777777777777----------5---------4p0h4-5-4--|
A|--555555555555-x-7-7p5-----7--x-7------------|
E|---------------x-0-----7------x-0------------|

End chorus with
E|-------------------|
B|-------------------|
G|-------------------|
D|-------------------|
A|----7-5h7p5----5b--|
E|--0-0-------7------|

Interlude
E|--0~----2~----3~----5~--|
B|--0~----3~----3~----7~--|
G|--0~----4~----5~----7~--|
D|--2~----4~----5~----7~--|
A|--2~----2~----3~----5~--|
E|--0~--------------------|

Bridge - Gtr 1 3x 4th time
E|--------------------------|---------------------|
B|--------------------------|---------------------|
G|--------------------------|--5~-7---------------|
D|--------------------------|--5~-7---4---5p4-----|
A|--22222---22-2-2---22222--|--3~-5-5---5-----5~--|
E|--00000---00-0-0---00000--|---------------------|
pm_______________________|

Gtr 2 - Synth. arranged for gtr.
E|---------------------------------|
B|--8~-----7~-----8~-----12~--10~--|
G|--9~-----7~-----9~-----12~--11~--|
D|--x------X------x------x----x----|
A|--7~-----5~-----7~-----10~--9~---|
E|---------------------------------|

Bridge - part 2 2x
E|----------------------------------------------------|
B|----------------------------------------------------|
G|-------------------------------4~-------4~------4~--|
D|------2~-------2~------2~------4~-------4~------4~--|
A|------2~-------2~------2~--22222~--22-2-2~--222-2~--|
E|--00000~--00-0-0~--000-0~---------------------------|

E|----------------------------------------------------|
B|----------------------------------------------------|
G|------5~-------5~------5~------7~-------7~------7~--|
D|------5~-------5~------5~------7~-------7~------7~--|
A|--33333~--33-3-3~--333-3~--55555~--55-5-5~--555-5~--|
E|----------------------------------------------------|

Lead backround part (im having a bit of trouble hearing
what exactly he does at this part but it could be something
like this. it sounds pretty good to me)
E|------------------------------------------------------------------------|
B|------------------------------------------------------------------------|
G|------------------------------------------------------------------------|
D|--7h9~--9~--9b--7h9~--9~--9b--10-9----12-10-9-10-9----12-10-9-10-9------|
A|-----------------------------------10--------------10--------------10~--|
E|------------------------------------------------------------------------|

E|-------------------------------------10///-13~--|
B|-------------------10///-12///-13///------------|
G|--9///-11///-12///------------------------------|
D|------------------------------------------------|
A|------------------------------------------------|
E|------------------------------------------------|

Brige - part 3 - Gtr 1 2x
E|--------------------------------------------------------|
B|--------------------------------------------------------|
G|--------------------------------------------------------|
D|--7p5------7p5------7p5-----7p5------7p5-------7p5------|
A|------7p5------7p5------7p5-----7p5------7p5-------7p5--|
E|--------------------------------------------------------|

E|-----------------------|
B|-----------------------|
G|--5555-55--------7777--|
D|--5555-55--5555--7777--|
A|--3333-33--5555--5555--|
E|-----------3333--------|

Gtr 2 1x
E|--------------------------------------------------------|
B|--------------------------------------------------------|
G|--------------------------------------------------------|
D|--7p5------7p5------7p5-----7p5------7p5-------7p5------|
A|------7p5------7p5------7p5-----7p5------7p5-------7p5--|
E|--------------------------------------------------------|

Gtr 2 comes in with a harmony 1x
E|--------------------------------------------------------|
B|--------------------------------------------------------|
G|--5p4------5p4------5p4-----5p4------5p4------5p4-------|
D|------5p4------5p4------5p4-----5p4------5p4-------5p4--|
A|--------------------------------------------------------|
E|--------------------------------------------------------|

E|-------------------------|
B|-------------------------|
G|--5555-55--------7777----|
D|--5555-55--5555--7777----|
A|--3333-33--5555--5555----|
E|-----------3333----------| Fill
E|-------------------------|
B|-------------------------|
G|--5~--|
D|--5~--|
A|--3~--|
E|------|

Solo
E|--X/--------------------------15p12-----------------------|
B|--X/--7-7--7-7--7-7--7-7--7-7------15-12-15b-15b-15b------|
G|------5b5b-5b5b-5b5b-5b5b-5b5b-----------------------14~--|
D|----------------------------------------------------------|
A|----------------------------------------------------------|
E|----------------------------------------------------------|

E|--12--14--15--17--17--22p19----22-22b--|
B|--15b-17b-18b-20b-20b-------22---------|
G|---------------------------------------|
D|---------------------------------------|
A|---------------------------------------|
E|---------------------------------------|

----------------------------------------------------------------------------

Story Of The Year - "Taste The Poison"
In The Wake Of Determination (2005)

tabbed by : Chris (xPOTTYmouthx)

intro riff :  (i didnt tab out the stumming patterns so figure it out your self)
(mainly pick the F string.)
 D|----------------------------------------------------|
 A|----------------------------------------------------|
 F|--10101010-13131313-16161616--121212-13-12-10-8--10-|
 C|--x-x-x-x--x-x-x-x--x-x-x-x---x-x-x-----------------|
 G|--8-8-8-8--11111111-14141414--101010----------------|
 C|----------------------------------------------------|

 D|-----------------------------------|
 A|-----------------------------------|
 F|--10101010-1313/1515-16161616--10~-|
 C|--x-x-x-x--x-x-x-x---x-x-x-x----x~-|
 G|--8-8-8-8--1111/1313-14141414--10~-|
 C|-----------------------------------| (let it ring)

(after singing)
 D |-----------------------------------------------|
 A |-----------------------------------------------|
 F |-----------------------------------------------|
 C |--1010101010---------66666--------88888--------|
 G |--1010101010--[x4]---66666--[x2]--88888--[x2]--|
 C |--1010101010---------66666--------88888--------|

("Place your needle....")

(slide)
 D |-----------|
 A |-----------|
 F |-----------|
 C |--3/65-----|
 G |-----------|
 C |-----------| ??? not sure
(or you could play the bass part) :
 D |----------|
 A |----------|
 F |----------|
 C |----------|
 G |----------|
 C |--33--33--|
      ..  .. (palm mute)

("So run with me now...")
 D |---------------------|
 A |---------------------|
 F |---------------------|
 C |--66666--------5555--|
 G |--66666--[x3]--5555--|
 C |--66666--------5555--|

(-repeat above-)

(play this righ when dan sings "you")
("...you")
 D |------------------------|
 A |------------------------|
 F |------------------------|
 C |--66-66-66-66-6--6-6-6--|
 G |--66-66-66-66-6--6-6-6--|
 C |--66-66-66-66-6--6-6-6--|


(*once again,listen to the song and figure the pattern yourself)

("And it's the same old story...")
 D |---------------------------------------------------------|
 A |---------------------------------------------------------|
 F |---------------------------------------------------------|
 C |--6666---------5555--3333---------6666---------5555--3~--|
 G |--6666--[x2]---5555--3333--[x2]---6666--[x2]---5555--3~--|
 C |--6666---------5555--3333---------6666---------5555--3~--|

bass part after this :
("And you know the hardest...". end with : "touches your mouth")
 D |----------------------------------------|
 A |----------------------------------------|
 F |----------------------------------------|
 C |----------------------------------------|
 G |----------------------------------------|
 C |--3-3---8h10p6~--10868-10868-[x5]-108~--|

 ("Can anyone feel...")
 D |----------------------------------|
 A |----------------------------------|
 F |-------------(1 not 11)-----------|
 C |--\333--66--111111----------------|
 G |--\333--66--111111---[x4]---------|
 C |--\333--66--111111----------------|

(then random squeals, you should be able to figure the most eloquent ones out yourself)

right after "but we've lost control" , play the same ^above^
and blend in with this note at the end before "here we go"
 D |------|
 A |------|
 F |------|
 C |--6~--|
 G |------|
 C |------|


(after "HERE WE GO!")
SOLO!!!! :
  D|--131313-131313-131316-13-11-13-16-13-11-13-18-13-11-13-16-13-11-13----|
A|-------------------------------------------------------------------------|
F|-------------------------------------------------------------------------|
C|-------------------------------------------------------------------------|
G|-------------------------------------------------------------------------|
C|-------------------------------------------------------------------------|

 D |--18-13-11-13-16-18~-13-16-18~-13-11-24~--|
 A |------------------------------------------|
 F |------------------------------------------|
 C |------------------------------------------|
 G |------------------------------------------|
 C |------------------------------------------|

 D |-----------------------------------|
 A |-----------------------------------|
 F |---------------13(har)-------------|
 C |--11h13p11--11----------\----------|
 G |----------11------------\----------|
 C |------------------------\----------|

 D |-----------------------------------------------------|
 A |-----------------------------------------------------|
 F |-----------------------------------------------------|
 C |--11h13p11----11h13p11---17h18p17--17h18p17----------|
 G |----------11---------------------18--------18--[x3]--|
 C |-----------------------------------------------------|

ending riff :
 D |-----------------------|
 A |-----------------------|
 F |-----------------------|
 C |--33333--33333---------|
 G |--33333--33333---[x4]--|
 C |--33333--33333---------|

end with :
 D |-------|
 A |--16~--|
 F |-------|
 C |-------|
 G |-------|
 C |-------| let it squeal

ENJOY, PLAY AWAY.

corrections : xsuicidebitchx@hotmail.com

----------------------------------------------------------------------------

Title: Stereo
Artist: Story Of The Year
Album: In The Wake Of Determination
Tabbed by: Gary Bradley
Tuning: DADGBE

Intro: Guitar One

|-------------------------------------------------------|
|-------------------------------------------------------|
|-9999-9999-9999-9999-7777-7777-7777-7777---------------|
|-xxxx-xxxx-xxxx-xxxx-xxxx-xxxx-xxxx-xxxx---------------|
|-7777-7777-7777-7777-5555-5555-5555-5555---------------|
|-------------------------------------------------------|

|----------------------------------------------------------|
|----------------------------------------------------------|
|-9999-9999-9999-9977-11111111-11111111-11111111-11111111--|
|-xxxx-xxxx-xxxx-xxxx-x-x-x-x--x-x-x-x--x-x-x-x--x-x-x-x---|
|-7777-7777-7777-7755-9-9-9-9--9-9-9-9--9-9-9-9--9-9-9-9---|
|----------------------------------------------------------|
In case you havent guessed, these are 11's not 1's.

|---------------------------------------------------------------------------------|
|---------------------------------------------------------------------------------|
|-12121212-12121212-12121212-121277-14141414-14141414-14141414-14141414-----------|
|-x-x-x-x--x-x-x-x--x-x-x-x--x-x-xx-x-x-x-x--x-x-x-x--x-x-x-x--x-x-x-x------------|
|-10101010-10101010-10101010-101055-12121212-12121212-12121212-12121212-----------|
|---------------------------------------------------------------------------------|
song goes a bit weird here, listen for the changes and you'll see.

|-------------------------------------------------------|
|-------------------------------------------------------|
|-16161616-16161616-19191919-19191919-21212121-21212121-|
|-x-x-x-x--x-x-x-x--x-x-x-x--x-x-x-x--x-x-x-x--x-x-x-x--|
|-14141414-14141414-17171717-17171717-19191919-19191919-|
|-------------------------------------------------------|

Guitar Two:
|-------------------------------------------------------|
|-------------------------------------------------------|
|-------------------------------------------------------|
|-33--33------------------------------------------------|
|-33--33------------------------------------------------|
|-33--33------------------------------------------------|
Play this part over guitar one about halfway through.

Verse:
Both Guitars
|-------------------------------------------------------|
|-------------------------------------------------------|
|--------------12121212-12121212-12121212-12121212------|
|--------------x-x-x-x--x-x-x-x--x-x-x-x--x-x-x-x-------|
|-20232--20232-10101010-10101010-10101010-10101010------|
|-20232--20232------------------------------------------|

|-------------------------------------------------------|
|-------------------------------------------------------|
|-12121212-12121212-121214-1414-14141414----------------|
|-x-x-x-x--x-x-x-x--x-x-x--x-x--x-x-x-x-----------------|
|-10101010-10101010-101012-1212-12121212----------------|
|-------------------------------------------------------|

|-------------------------------------------------------------|
|----------------3-------------------3------------------------|
|------------------0-------------------0--5555-5555-5555-5555-|
|--------245454--------------245454-------5555-5555-5555-5555-|
|-20232---------------20232---------------3333-3333-3333-3333-|
|-20232---------------20232-----------------------------------|

|---------------------------------------------------------|
|---------------------------------------------------------|
|-----------4444-4444--12121212-12121212-11111111-11111111|
|-5555-5555-4444-4444--x-x-x-x--x-x-x-x--x-x-x-x--x-x-x-x-|
|-5555-5555-2222-2222--10101010-10101010-9-9-9-9--9-9-9-9-|
|-5555-5555-----------------------------------------------|

|-------------------------------------------------------|
|-------------------------------------------------------|
|-9999-9999-77-77-7-------------------------------------|
|-xxxx-xxxx-xx-xx-x-------------------------------------|
|-7777-7777-55-55-5-------------------------------------|
|-------------------------------------------------------|

Chorus:
Both Guitars

|-------------------------------------------------------|
|-------------------------------------------------------|
|-xxx-5555-5555-7777-7777-9999-9999-7777-7777-----------|
|-xxx-5555-5555-7777-7777-9999-9999-7777-7777-----------|
|-xxx-3333-3333-5555-5555-7777-7777-5555-5555-----------|
|-xxx---------------------------------------------------|

|-------------------------------------------------------|
|-------------------------------------------------------|
|-5555-5555-7777-7777-----------------------------------|
|-5555-5555-7777-7777-2222-2222-4444-4444---------------|
|-3333-3333-5555-5555-2222-2222-xxxx-xxxx---------------|
|---------------------2222-2222-4444-4444---------------|

|-------------------------------------------------------|
|-------------------------------------------------------|
|-5555-5555-7777-7777-9999-9999-------------------------|
|-5555-5555-7777-7777-9999-9999-4444-5555---------------|
|-3333-3333-5555-5555-7777-7777-xxxx-xxxx---------------|
|-------------------------------4444-5555---------------|

|-------------------------------------------------------|
|-------------------------------------------------------|
|-5555-5555-5555-5555-7777-7777-7777-7777---------------|
|-5555-5555-5555-5555-7777-7777-7777-7777---------------|
|-3333-3333-3333-3333-5555-5555-5555-5555---------------|
|---------------------0000-0000-0000-0000---------------|

|------------------------------------------------------------------|
|------------------------------------------------------------------|
|------------------------------------------------------------------|
|------------------------------------------------------------------|
|-2----2h3h2-------2----2h3h2-------2----2h3h2-------2-3-3-3-3-----|
|-2--2-------5-2---2--2-------5-2---2--2-------5-2---2-3-3-3-3-----|

Verse 2
Both Guitars

|-------------------------------------------------------|
|-------------------------------------------------------|
|-------------------------------------------------------|
|-------------------------------------------------------|
|-2-0232--22-22-2--2-0232--22-22-2----------------------|
|-2-0232-222-22-2--2-0232-222-22-2----------------------|

|-------------------------------------------------------|
|-------------------------------------------------------|
|-5-55-5555--5-555555-5777-777-7777-7777----------------|
|-5-55-5555--5-555555-5777-777-7777-7777----------------|
|-3-33-3333--3-333333-3555-555-5555-5555----------------|
|-------------------------------------------------------|

|-------------------------------------------------------|
|-------------------------------------------------------|
|-------------------------------------------------------|
|--------------4---4h5---------------4----4h5-----------|
|-2-0232----------------2-0232--------------------------|
|-2-0232--22-2---2------2-0232--22-2----2---------------|

|-------------------------------------------------------|
|-------------------------------------------------------|
|-5555-5555-5555-5555-----------------------------------|
|-5555-5555-5555-5555-5555-555-9-999-999----------------|
|-3333-3333-3333-3333-5555-555-9-999-999----------------|
|---------------------5555-555-9-999-999----------------|

|-------------------------------------------------------------|
|-------------------------------------------------------------|
|-12121212-12121212-14141414-14141414-16161616-16161616-14----|
|-x-x-x-x--x-x-x-x--x-x-x-x--x-x-x-x--x-x-x-x--x-x-x-x--x-----|
|-10101010-10101010-12121212-12121212-14141414-14141414-12----|
|-------------------------------------------------------------|

Then Play Chorus
Then Play:

|-------------------------|
|-------------------------|
|-------------------------| Play Harmonic at end of this line on bottom string.
|-------------------------|
|-2-----2-----2~--------2-|
|-2-222-2-222-2~--------2-|

|-------------------------------------------------------|
|-------------------------------------------------------|
|-------------------------------------------------------|
|-------------------------------------------------------|
|-0000-0000--2-2--222-000--22-222-333-------------------|
|-0000-0000--2-2--222-000--22-222-333-------------------|

|-------------------------------------------------------|
|-------------------------------------------------------|
|-------------------------------------------------------|
|-------------------------------------------------------|
|-22--222-000--2-0-2------------------------------------|
|-22--222-000--2-0-2-6-5--------------------------------|

----------------------------------------------------------------------------

Band: Story of the Year
Song: Five Against the World
Album: In the Wake of Determination
Intro    |Verse
e|-------|-------------------------------------|
b|-------|-------------------------------------|
g|-------|-----------------------8h7h5---------|
d|-------|-10-1010-1010----8h10----------------|
a|-------|_10-1010-1010------------------------|
d|--/10-|-10-1010-1010-------------------------|
              .    .  .
e|-------------------------------------------|
b|-------------------------------------------|
g|---------------------------8h7h5-----------|
d|----10-1010-1010----8h10-------------------|
a|----10-1010-1010---------------------------|
d|----10-1010-1010---------------------------|
          .    . .
e|-------------------------------------------|
b|-------------------------------------------|
g|-------------------8h7h5-------------------|
d|-----8-88-88--8h10--------8-88-88----------|
a|-----8-88-88--------------8-88-88----------|
d|-----8-88-88--------------8-88-88----------|
         .  ..                .  ..
e|-------------------------------------------|
b|-------------------------------------------|
g|-------8h7h5-------------------------------|
d|--8h10-------10-1010-1010------------------|
a|-------------10-1010-1010------------------|
d|-------------10-1010-1010------------------|
                   .    . .
e|-------------------------------------------|
b|-------------------------------------------|
g|--8h7h5--------------------8h7h5-----------|
d|--------10-1010-1010--8h10-----------------|
a|--------10-1010-1010-----------------------|
d|--------10-1010-1010-----------------------|
              .    . .
e|-------------------------------------------|
b|-------------------------------------------|
g|--------------------8h7h5------------------|
d|-----8-88-88--8h10-------------------------|
a|-----8-88-88-------------------------------|
d|-----8-88-88-------------------------------|
         .  ..
e|-------------------------------------------|
b|-------------------------------------------|
g|--------------------8h7h5------------------|
d|-----8-88-88--8h10-------------------------|
a|-----8-88-88-------------------------------|
d|-----8-88-88-------------------------------|
         .  ..
Pre-Chorus
e|-------------------------------------------|
b|-------------------------------------------|
g|-------------------------------------------|
d|----666-6-6----6--6--6--66-6-6-------------|
a|----666-6-6----6--6--6--66-6-6-------------|
d|----666-6-6----6--6--6--66-6-6-------------|
      ... .


Chorus
e|-------------------------------------------|
b|-------------------------------------------|
g|-------------------------------------------|
d|-88888888-1010101010101010-66666666--------|
a|-88888888-1010101010101010-66666666--------|
d|-88888888-1010101010101010-66666666--------|

e|-------------------------------------------|
b|-------------------------------------------|
g|--------------8h7h5------------------------|
d|-----88888888------8-88888888--------------|
a|-----88888888--------88888888--------------|
d|-----88888888--------88888888--------------|

e|-------------------------------------------|
b|-------------------------------------------|
g|-------------------------------------------|
d|-1010101010101010-66666666-88888888--------|
a|-1010101010101010-66666666-88888888--------|
d|-1010101010101010-66666666-88888888--------|

e|-------------------------------------------|
b|-------------------------------------------|
g|-------------------------------------------|
d|-88888888-1010101010101010-66666666--------|
a|-88888888-1010101010101010-66666666--------|
d|-88888888-1010101010101010-66666666--------|

e|-------------------------------------------|
b|-------------------------------------------|
g|88888888-----------------------------------|
d|88888888-88888888-1010101010101010-6-8-----|
a|66666666-88888888-1010101010101010-6-8-----|
d|---------88888888-1010101010101010-6-8-----|


verse x1
Chorusx1

Bridge
e|--------------------------------------|
b|--------------------------------------|
g|-----------------------------88-x-----| X4
d|--10-10-1010-6-66-666-1-1-11-88-x-888-|
a|--10-10-1010-6-66-666-1-1-11-66-x-888-|
d|--10-10-1010-6-66-666-1-1-11----x-888-|

Solo
e|-----6--4-3---------------6-8-6/8-11-8------|
b|------------4---------4-6-------------------|
g|--5-----------3---3-5-----------------------|
d|--------------------------------------------|
a|--------------------------------------------|
d|--------------------------------------------|

e|-6----4-3---4h3---4h3---4h3-------6---------|
b|----------4-----4-----4-----4-4h6---4h6-----|
g|--------------------------------------------|
d|--------------------------------------------|
a|--------------------------------------------|
d|--------------------------------------------|

e|-6-----6-----6-------------------------------|
b|---4h6---4h6---------------------------------|
g|------------------------------------13h12h13-|
d|---------------------------15h13h15----------|
a|------------------15h13h15-------------------|
d|---------------------------------------------|

e|-------------------15h13h15-20-20-15-20-----|
b|----------14h13h14--------------------------|
g|-15h13h15-----------------------------------|
d|--------------------------------------------|
a|--------------------------------------------|
d|--------------------------------------------|

e|--18h17h15h18-18-20-18h17h15h18-18-20-------|
b|--------------------------------------------|
g|--------------------------------------------|
d|--------------------------------------------|
a|--------------------------------------------|
d|--------------------------------------------|

e|-18h17h15h18-18b-4-3---4-3----3-3/4-4/6-8---|
b|---------------------4-----4----------------|
g|--------------------------------------------|
d|--------------------------------------------|
a|--------------------------------------------|
d|--------------------------------------------|

e|--18h15-------18h15--------18h15------------|
b|--------18h16-------18h16-------------------|
g|--------------------------------------------|
d|--------------------------------------------|
a|--------------------------------------------|
d|--------------------------------------------|

e|--------18h15-----18--------------------------|
b|-18h16----------------------------------------|
g|----------------------------------------------|
d|----------------------------------------------|
a|----------------------------------------------|
d|----------------------------------------------|

After Solo Play . . . .
e|--------------------------------------------|
b|--------------------------------------------|
g|--------------------------------------------|
d|--88888888-1010101010101010-66666666--------|
a|--88888888-1010101010101010-66666666--------|
d|--88888888-1010101010101010-66666666--------|

e|--------------------------------------------|
b|--------------------------------------------|
g|----------8h7h5-----------------------------|
d|-88888888-------8-88888888-1010101010101010-|
a|-88888888---------88888888-1010101010101010-|
d|-88888888---------88888888-1010101010101010-|

e|---------------|
b|---------------|
g|---------------|
d|-66666666------|
a|-66666666------|
d|-66666666------|

Chorus

Outro
e|--------------------------------------------|
b|--------------------------------------------|
g|--------------------------------------------|
d|-10-10-8-10-888888--10-10-8-10-888888-10-10-|
a|-10-10-8-10-888888--10-10-8-10-888888-10-10-|
d|-10-10-8-10-888888--10-10-8-10-888888-10-10-|
       . .  . ......      . .  . ......     .
e|-----------------------------------------------|
b|-----------------------------------------------|
g|-----------------------------------------------|
d|-8-10-888888-10-10-8-10-888888-10-8888-10-8-10-|
a|-8-10-888888-10-10-8-10-888888-10-8888-10-8-10-|
d|-8-10-888888-10-10-8-10-888888-10-8888-10-8-10-|
   .  . ......     . .  . ......    ....

----------------------------------------------------------------------------
(I WILL PUT THE "SLEEP" SOLO TAB IN HERE SO YOU CAN PLAY SOMETHING FOR THE SONG)
Song: Sleep
Band: Story of the Year
Album: In the Wake of Determination
E-----------------------------------------------------------------------|
B----------------4---------------9h11h12-11-9-7~-9~---------------------|
G---8H6~-----------4----------------------------------------------------|
D--------8h9p8-4-------11-9-8-9~----------------------------------------|
A-----------------------------------------------------------------------|
E-----------------------------------------------------------------------|

----------------------------------------------------------------------------


			     Story Of The Year - Meathead
-------------------------------------------------------------------------------
Tabbed by:Jay Lee
Email:JayLee1459@hotmail.com

Tuning: Drop D

				Intro

e|-----------------------------------------------------------------------------|
B|-----------------------------6>----------------------------------------------|
G|-----------------------------5>----------------------------------------------|
D|---3>------------------------3>----------------------------------------------|
A|---3>------------------------3>----------------------------------------------|
D|---3>------------------------3>----------------------------------------------|

				Verse

e|---------------------------------------------------------------------------|
B|---------------------------------------------------------------------------|
G|---------------------------------------------------------------------------|
D|--3-3-3-10-10-10--3-3-3-6-6-6-1-1-1-1-1-1-6-6-6-3-3-3----------------------|
A|--3-3-3-8--8--8---3-3-3-6-6-6-1-1-1-1-1-1-4-4-4-1-1-1----------------------|
D|--3-3-3-----------3-3-3-6-6-6-1-1-1-1-1-1----------------------------------|


e|---------------------------------------------------------------------------|
B|---------------------------------------------------------------------------|
G|---------------------------------------------------------------------------|
D|--3-3-3-10-10-10-3-3-3-5-5-5-6-6-6-6-6-6-6--6-6-6-1------------------------|
A|--3-3-3-8--8--8--3-3-3-6-6-6-6-6-6-6-6-6-6--6-6-6-1------------------------|
D|--3-3-3----------3-3-3-5-5-5-6-6-6-6-6-6-6--6-6-6-1------------------------|
				     . . . .
e|---------------------------------------------------------------------------|
B|---------------------------------------------------------------------------|
G|---------------------------------------------------------------------------|
D|--3-3-3-10-10-10--3-3-3-6-6-6-1-1-1-1-1-1-6-6-6-3-3-3----------------------|
A|--3-3-3-8--8--8---3-3-3-6-6-6-1-1-1-1-1-1-4-4-4-1-1-1----------------------|
D|--3-3-3-----------3-3-3-6-6-6-1-1-1-1-1-1----------------------------------|

e|---------------------------------------------------------------------------|
B|---------------------------------------------------------------------------|
G|---------------------------------------------------------------------------|
D|--3-3-3-10-10-10-3-3-3-5-5-5-6-6-6-6-6-6-6--6-6-6-1------------------------|
A|--3-3-3-8--8--8--3-3-3-3-3-3-6-6-6-6-6-6-6--6-6-6-1------------------------|
D|--3-3-3----------3-3-3-------6-6-6-6-6-6-6--6-6-6-1------------------------|
				     . . . .

				Chorous


e|---------------------------------------------------------------------------|
B|---------------------------------------------------------------------------|
G|---5-5-5-5-5-5-6-6-6-6-6-6---10-10-10-13--13--13--12--12--12---------------|
D|---6-6-6-6-6-6-6-6-6-6-6-6---x--x--x---x---x---x---x---x---x---------------|
A|---3-3-3-3-3-3-4-4-4-4-4-4---8--8--8--11--11--11--10--10--10---------------|
D|---------------------------------------------------------------------------|

e|---------------------------------------------------------------------------|
B|---------------------------------------------------------------------------|
G|---5-5-5-5-5-5-6-6-6-6-6-6---10-10-10-13--13--13--15--15--15---------------|
D|---6-6-6-6-6-6-6-6-6-6-6-6---x--x--x---x---x---x---x---x---x---------------|
A|---3-3-3-3-3-3-4-4-4-4-4-4---8--8--8--11--11--11--13--13--13---------------|
D|---------------------------------------------------------------------------|

e|--------4-----4---4-----4-----4---4----------------------------------------|
B|--------4-----4---4-----4-----4---4----------------------------------------|
G|---------------------------------------------------------------------------|
D|---------------------------------------------------------------------------|
A|---3-3----3-3---3---4-4---4-4---4------------------------------------------|
D|---------------------------------------------------------------------------|
     . .    . .   .   . .   . .   .


e|---------------------------------------------------------------------------|
B|---------------------------------------------------------------------------|
G|--10-10-10-13--13--13--12--12--12---5-5-5-5-5-5-6-6-6-6-6-6----------------|
D|--x--x--x---x---x---x---x---x---x---6-6-6-6-6-6-6-6-6-6-6-6----------------|
A|--8--8--8--11--11--11--10--10--10---3-3-3-3-3-3-4-4-4-4-4-4----------------|
D|---------------------------------------------------------------------------|

e|-----------------------------------------------------------------------------|
B|-----------------------------------------------------------------------------|
G|-----------------------------------------------------------------------------|
D|---6-1---/-3-3-3-6-6-6-1-1-1-6-1--------------------3>-----------------------|
A|---6-1---|-3-3-3-6-6-6-1-1-1-6-1-|-repeat x 4 then:--3>----------------------|
D|---6-1----3-3-3-6-6-6-1-1-1-6-1-/-------------------3>-----------------------|

				Outro

(clean at first then distortion kicks in)

e|---------------------------------------------------------------------------|
B|---------------------------------------------------------------------------|
G|---------------------------------------------------------------------------|
D|--3-3-x-x-6-6-x-x-1-1-x-x-5-5-x-x-6-x-x-1-x-x------------------------------|
A|--3-3-x-x-6-6-x-x-1-1-x-x-6-6-x-x-6-x-x-1-x-x------------------------------|
D|--3-3-x-x-6-6-x-x-1-1-x-x-5-5-x-x-6-x-x-1-x-x------------------------------|

e|---------------------------------------------------------------------------|
B|---------------------------------------------------------------------------|
G|---------------------------------------------------------------------------|
D|--3-3-x-x-6-6-x-x-6-6-x-x-1-1-x-x-6-x-x-1-x-x-------------------------3----|
A|--3-3-x-x-3-3-x-x-4-4-x-x-1-1-x-x-6-x-x-1-x-x--Repeat until the end---3----|
D|--3-3---------------------1-1-x-x-6-x-x-1-x-x---------then hold-------3----|


| #   hold strings
| >   continuous strumming
|p.m  palm mute
| /   slide up
|    slide down
| h   hammer-on
| p   pull-off
| ~   vibrato
| +   harmonic
| x   Mute note

that tabs for you ste, have fun my fellow soty loving friend! bring on april
12th in manchester!!!
===============================================================================

----------------------------------------------------------------------------

Band: Story of the Year
Song: March of teh Dead
Album: In the Wake of Determination

Intro
Guitar 1
e|------------------|
b|------------------|
g|---7--------------|
d|-0-7--------------|
a|-0-5--------------|
d|-0----------------|
Guitar 2
e|------------------|
b|---15-------------|
g|------------------|
d|-0-12-------------|
a|-0----------------|
d|-0----------------|
Pre Verse (both guitars)
e|--------------------------|
b|--------------------------|
g|----10-9-7-55-5/7-5/7-x---|
d|--0-10-9-7-55-5/7-5/7-x-0-|
a|--0--8-7-5-33-3/5-3/5-x-0-|
d|--0-------------------x-0-|

e|--------------------------|    |-------|
b|--------------------------|    |-------|
g|-7/10-9-7-55-5/7-5/7-x----|    |-------|
d|-7/10-9-7-55-5/7-5/7-x-0--| x4 |---1---| Fourth Ending
a|-5/-8-7-5-33-3/5-3/5-x-0--|    |---1---|
d|---------------------x-0--|    |---1---|

Pre Verse x4

Fourth Time (Guitar 1)
e|--------------------------|
b|--------------------------|
g|--7/10-9-7-55-------------|
d|--7/10-9-7-55-5h7-5h7-5h7-|
a|--5/-8-7-5-33-------------|
d|--------------------------|
(hammer on the 5h7 or just
bend the 7th fret 3 times)

Fourth time (guitar 2)
e|----------------------------------|
b|----------------------------------|
g|--7/10-9-7-55---12h14-12h14-12h14-|
d|--7/10-9-7-55---------------------|
a|--5/-8-7-5-33---------------------|
d|----------------------------------|
(same deal, hammer the 12h14 or just
bend the 14 three times)

Verse (guitar 1)
e-----------------------------------|
b-----------------------------------|
g-----------------------------------|
d--------00-0-------00-0--3---3-----|  x2
a--5p3h5-00-0-5p3h5-00-0----3---3---|
d--------00-0-------00-0------------|
         .. .       .. .
Verse (guitar 2)
e|----------------------------------|
b|-------------------------6---6----|
g|--7p5h7-00-0-7p5h7-00-0----5---5--|
d|--------00-0-------00-0-----------|  x2
a|--------00-0-------00-0-----------|
d|----------------------------------|
          .. .       .. .
verse continued (both guitars
e|----------------------------------------|
b|----------------------------------------|
g|--7p5h7--------7p5h7-------105-105------|
d|--7p5h7--00-0--7p5h7--00-0-105-105------|  x2
a|--5p3h5--00-0--5p3h5--00-0--83--83------|
d|---------00-0---------00-0--------------|
           .. .         .. .
On the second ending
e|----------------------------------------|
b|----------------------------------------|
g|--105--105--105--105--555-777-3---------|
d|--105--105--105--105--555-777-3---------|
a|---83---83---83---83--333-555-1---------|
d|----------------------------------------|
                            ... ...
Chorus (both guitars)
e|--------------------------------------------|
b|--------------------------------------------|
g|----7-10-5555-5-7-3333--7-10-5555-5-7-3333--|
d|----7-10-5555-5-7-3333--7-10-5555-5-7-3333--|
a|----5--8-3333-3-5-1111--5--8-3333-3-5-1111--|
d|--------------------------------------------|

e|--------------------------------------------|
b|--------------------------------------------|
g|----7-10-5555-5-7-3333--3-2------5----------|
d|----7-10-5555-5-7-3333--3-2-3333-5----------|
a|----5--8-3333-3-5-1111--1-0-3333-3----------|
d|----------------------------3333------------|

Pre verse x2
verse x2

(end of second time playing verse)
e|---------------------------------|
b|---------------------------------|
g|----5---3------------------------|
d|--3-5-0-3------------------------|
a|--3-3-0-1------------------------|
d|--3---0--------------------------|

verse continued x2
Chorus

Bridge
e|-----------------------------------------------------|
b|-----------------------------------------------------|
g|---10-9-7-55-7-3-1010-9-5---10-9-7-55-3-3-1010-9-5---|
d|-0-10-9-7-55-7-3-1010-9-5-0-10-9-7-55-3-3-1010-9-5-0-|
a|-0--8-7-5-33-5-1--8-8-7-3-0--8-7-5-33-5-1--8-8-7-3-0-|
d|-0------------------------0------------------------0-|

Bridge continued
e|---------------------------------------------------------------|
b|---------------------------------------------------------------|
g|---10-9-7-55-7-3-1010-9-5---10-9-7-55-3-3-1010-9-5-1010-9-12---|
d|-0-10-9-7-55-7-3-1010-9-5-0-10-9-7-55-3-3-1010-9-5-1010-9-12-0-|
a|-0--8-7-5-33-5-1--8-8-7-3-0--8-7-5-33-5-1--8-8-7-3--8-8-7-10-0-|
d|-0------------------------0----------------------------------0-|

Bridge Part 2...
e|-------------------------------------------------------|
b|-------------------------------------------------------|
g|----------5-------5-10-3333----5-----------------------|
d|--0-----3-5-0000--5-10-3333--3-5-0--7-7-557-8-88-8-----|
a|--0-----3-3-0000--3--8-1111--3-3-0--7-7-557-8-88-8-----|
d|--0-----3---0000------------3---0--7-7-557-8-88-8------|
                                               ..
Bridge Part 2 continued
e|-------------------------------------------------------|
b|-------------------------------------------------------|
g|----5-------5-7-3333----5------------------------------|
d|--3-5-0000--5-7-3333--3-5-0----------------------------|
a|--3-3-0000--3-5-1111--3-3-0----------------------------|
d|--3---0000------------3---0----------------------------|

Guitar 1
e|-------------------------------------------------------|
b|-------------------------------------------------------|
g|--22222222-33333333-55555555-77777777------------------|
d|--22222222-33333333-55555555-77777777------------------|
a|--00000000-11111111-33333333-55555555------------------|
d|-------------------------------------------------------|

Guitar 2
e|-------------------------------------------------------|
b|-55555555-66666666-88888888-1010101010101010-----------|
g|-------------------------------------------------------|
d|-22222222-33333333-55555555--7-7-7-7-7-7-7-------------|
a|-------------------------------------------------------|
d|-------------------------------------------------------|

Chorus2 (this is where it gets weird)
e|-----------------------------------------------------------------|
b|-----------------------------------------------------------------|
g|-5-7-3333-7-9-5555-5-7-3333-7-9-5555-5-7-3333-7-9-5555-5-7-3333--|
d|-5-7-3333-7-9-5555-5-7-3333-7-9-5555-5-7-3333-7-9-5555-5-7-3333--|
a|-3-5-1111-5-7-3333-3-5-1111-5-7-3333-3-5-1111-5-7-3333-3-5-1111--|
d|-----------------------------------------------------------------|

e|------------------------|
b|------------------------|
g|-3-2--------------------|
d|-3-2-3333---------------|
a|-1-0-3333---------------|
d|-----3333---------------|

Repeat chorus

solo
e|-21b--13-10-10h12h13-15----------------------------|
b|-------------------------17h18---------------------|
g|-------------------------------17------------------|
d|----------------------------------14h15p14-12------|
a|---------------------------------------------------|
d|---------------------------------------------------|

e|------------------------------------------------------|
b|----------------------------------------------5h6p5---|
g|----------12b-------------10-9---10--------5h7------5-|
d|-12-14-15-----10-10----7-------7----5---5h7-----------|
a|------------------------------------------------------|
d|------------------------------------------------------|

e|------------------------------------------------------|
b|------------------------------------------------------|
g|----------------------5-------------------------------|
d|-----7-5-3-2h3p2--------------------------------------|
a|-----------------3-3----------------------------------|
d|------------------------------------------------------|

I'm still working out the notes that
lead to the outro, which is the same
as the Pre Verse

any adjustments (god knows it needs them) feel
free to im me at pappasmurf0912 or e-mail me at
jastrate@twcny.rr.com

----------------------------------------------------------------------------

Song:  Pay Your Enemy

Band:  Story Of The Year

Album:  In The Wake Of Determination

Guitar -Phil- (Tuning eb Bb Gb Db Ab Db
--------------     1/2 step down + Drop D)

Intro
eb|----|
Bb|-3~-|
Gb|-2~-|x3
Db|-0~-|
Ab|-0~-|
Db|-0~-|

eb|-----------------|
Bb|-----------------|
Gb|-3---------------|
Db|-3-1-1-1/3-0-0-0-|
Ab|-1-1-1-1/3-0-0-0-|
Db|---1-1-1/3-0-0-0-|
PM    .

Verse 1
eb|------------|   |----------|---|
Bb|------------|   |----------|   |
Gb|---3333-3/5-|x3 |-33333/55-|   |
Db|-0-3333-3/5-|   |-33333/55-|   |x4
Ab|-0-1111-1/3-|   |-11111/33-|   |
Db|-0----------|   |----------|   |
PM    ....                     ---|

Pre-Chorus 1
eb|-------------------|
Bb|-------------------|
Gb|-3~----------------|
Db|-3~-3~-2-222-2-222-|
Ab|-1~-3~-2-222-2-222-|
Db|----3~-2-222-2-222-|
PM          ...   ...

Chorus 1
eb|--------------------------------------------------------|
Bb|-3-33-333-333-333------------------------------------3~-|
Gb|-2-22-222-222-222-5-55-555-555-5---------------------2~-|
Db|-0-00-000-000-000-5-55-555-555-5-7-8-88-888-5-55-555-0~-|x2
Ab|-0-00-000-000-000-3-33-333-333-3-7-8-88-888-5-55-555-0~-|
Db|-0-00-000-000-000----------------7-8-88-888-5-55-555-0~-|

Pre-Verse 1
eb|-----------|
Bb|-6p3-5p3---|
Gb|---------5-|
Db|-----------|
Ab|-----------|
Db|-----------|

Verse 2
eb|------------|--------------|
Bb|------------|--------------|
Gb|---3333-3/5-|x3---33333/55-|
Db|-0-3333-3/5-|-----33333/55-|x2
Ab|-0-1111-1/3-|-----11111/33-|
Db|-0----------|--------------|
PM    ....

eb|------------|------------|
Bb|------------|------------|
Gb|---3333-5/3-|x3-33333/55-|
Db|-0-3333-5/3-|---33333/55-|x2
Ab|-0-1111-3/1-|---11111/33-|
Db|-0----------|------------|
PM    ....

Pre-Chorus 2
eb|----------------------|
Bb|----------------------|
Gb|-3~-4b----------------|
Db|-3~----3~-2-222-2-222-|
Ab|-1~----3~-2-222-2-222-|
Db|-------3~-2-222-2-222-|
PM          ...   ...

Chorus 2
eb|--------------------------------------------------------|
Bb|-3-33-333-333-333------------------------------------3~-|
Gb|-2-22-222-222-222-5-55-555-555-5---------------------2~-|
Db|-0-00-000-000-000-5-55-555-555-5-7-8-88-888-5-55-555-0~-|x2
Ab|-0-00-000-000-000-3-33-333-333-3-7-8-88-888-5-55-555-0~-|
Db|-0-00-000-000-000----------------7-8-88-888-5-55-555-0~-|

Bridge
eb|----|
Bb|-3~-|
Gb|-2~-|x3
Db|-0~-|
Ab|-0~-|
Db|-0~-|
                                   ---|
eb|-----|---------|   |-------------| |
Bb|-----|---------|   |-------------| |
Gb|-----|---------|   |-----3-333/5-| |
Db|-0-0-|-1/3-000-|x3 |-1/3-3-333/5-| |x2
Ab|-0-0-|-1/3-000-|   |-1/3-1-111/3-| |
Db|-0-0-|-1/3-000-|   |-1/3---------| |
                                   ---|

eb|---|-----------|--------------|
Bb|---|-----------|--------------|
Gb|---|---7/5-5/7-|X3---7/5-7/10-|X2
Db|-1-|-0-7/5-5/7-|---0-7/5-7/10-|
Ab|-1-|-0-5/3-3/5-|---0-5/3-5/8--|
Db|-1-|-0---------|---0----------|

eb|----------------|
Bb|----------------|
Gb|----------------|
Db|-8~-7~-5~-3~-2~-|
Ab|-8~-7~-5~-3~-2~-|
Db|-8~-7~-5~-3~-2~-|

eb|---------------------------------|
Bb|---------------------------------|
Gb|--------10-9/10-9------10-9/10-5-|
Db|-000000-x--x/x--x--000-x--x/x--x-|x4
Ab|-000000-8--7/8--7--000-8--7/8--3-|
Db|-000000------------000-----------|
PM  ......            ...

Pre-Chorus 3
eb|----------------------|
Bb|----------------------|
Gb|-3~----------------7/-|
Db|-3~-3~-2-222-2-222-7/-|
Ab|-1~-3~-2-222-2-222-5/-|
Db|----3~-2-222-2-222----|
PM          ...   ...

Chorus 3
eb|----5555555---------------------------|
Bb|----5555555These are homonics---------|
Gb|----5555555strum these along----------|
Db|----5555555with the drums when--88-55-|
Ab|----5555555they kick back in----88-55-|
Db|----5555555---------------------88-55-|

Chorus 3
eb|-----------------------------------------------------|
Bb|-3-33-333-333-333------------------------------------|
Gb|-2-22-222-222-222-5-55-555-555-5---------------------|
Db|-0-00-000-000-000-5-55-555-555-5-7-8-88-888-5-55-555-|
Ab|-0-00-000-000-000-3-33-333-333-3-7-8-88-888-5-55-555-|
Db|-0-00-000-000-000----------------7-8-88-888-5-55-555-|

eb|-----------------------------------|
Bb|-3-33-333-333-333------------------|
Gb|-2-22-222-222-222-5-55-555-555-5---|
Db|-0-00-000-000-000-5-55-555-555-5-7-|
Ab|-0-00-000-000-000-3-33-333-333-3-7-|
Db|-0-00-000-000-000----------------7-|

eb|----------------------------------------------------------------|
Bb|-------------------------------------------------------------3~-|
Gb|-------------------------------------------------------------2~-|
Db|-8-88-888-5-55-555-8-88-888-5-55-555-8-88-888-10-1010-101010-0~-|
Ab|-8-88-888-5-55-555-8-88-888-5-55-555-8-88-888-10-1010-101010-0~-|
Db|-8-88-888-5-55-555-8-88-888-5-55-555-8-88-888-10-1010-101010-0~-|

Outro
eb|-----------|
Bb|-----------|
Gb|-----------|
Db|-----------|x6
Ab|---5/3-3/5-|
Db|-0---------|

eb|-----------------|
Bb|-----------------|
Gb|-3---------------|
Db|-3-1-1-1/3-0-0-0-|
Ab|-1-1-1-1/3-0-0-0-|
Db|---1-1-1/3-0-0-0-|
PM    .

Guitar 2 -Ryan- (tuning: eb Bb Gb Db Ab Db
-----------------        1/2 step down + drop d)

Intro
eb|---------------------------------------------------------------------|
Bb|-3~------------------------------------------------------------------|
Gb|-2~-191919191919191717171717171717191919191919191919191919191919-----|
Db|-0~-x-x-x-x-x-x-x-x-x-x-x-x-x-x-x-x-x-x-x-x-x-x-x-x-x-x-x-x-x-x------|
Ab|-0~-171717171717171515151515151515171717171717171717171717171717-----|
Db|-0~------------------------------------------------------------------|

eb|-----------------|
Bb|-----------------|
Gb|-3---------------|
Db|-3-1-1-1/3-0-0-0-|
Ab|-1-1-1-1/3-0-0-0-|
Db|---1-1-1/3-0-0-0-|
PM    .

Verse 1
eb|------------|   |----------|---|
Bb|------------|   |----------|   |
Gb|---3333-3/5-|x3 |-33333/55-|   |
Db|-0-3333-3/5-|   |-33333/55-|   |x2
Ab|-0-1111-1/3-|   |-11111/33-|   |
Db|-0----------|   |----------|   |
PM    ....                     ---|

eb|--------------------------------------------------------------|
Bb|--------------------------------------------------------------|
Gb|---191919191919---191919191919---191919191919/22222222/171717-|
Db|-0-x-x-x-x-x-x--0-x-x-x-x-x-x--0-x-x-x-x-x-x-/x-x-x-x-/x-x-x--|x2
Ab|-0-171717171717-0-171717171717-0-171717171717/20202020/151515-|
Db|-0--------------0--------------0------------------------------|

Pre-Chorus 1
eb|-------------------|
Bb|-------------------|
Gb|-3~----------------|
Db|-3~-3~-2-222-2-222-|
Ab|-1~-3~-2-222-2-222-|
Db|----3~-2-222-2-222-|
PM          ...   ...

Chorus 1
eb|--------------------------------------------------------|
Bb|-3-33-333-333-333------------------------------------3~-|
Gb|-2-22-222-222-222-5-55-555-555-5---------------------2~-|
Db|-0-00-000-000-000-5-55-555-555-5-7-8-88-888-5-55-555-0~-|x2
Ab|-0-00-000-000-000-3-33-333-333-3-7-8-88-888-5-55-555-0~-|
Db|-0-00-000-000-000----------------7-8-88-888-5-55-555-0~-|

Pre-Verse 1
eb|-----------|
Bb|-6p3-5p3---|
Gb|---------5-|
Db|-----------|
Ab|-----------|
Db|-----------|

Verse 2
eb|------------|   |----------|---|
Bb|------------|   |----------|   |
Gb|---3333-3/5-|x3 |-33333/55-|   |
Db|-0-3333-3/5-|   |-33333/55-|   |x2
Ab|-0-1111-1/3-|   |-11111/33-|   |
Db|-0----------|   |----------|   |
PM    ....                     ---|

eb|--------------------------------------------------------------|
Bb|--------------------------------------------------------------|
Gb|---191919191919---191919191919---191919191919/22222222/171717-|
Db|-0-x-x-x-x-x-x--0-x-x-x-x-x-x--0-x-x-x-x-x-x-/x-x-x-x-/x-x-x--|x2
Ab|-0-171717171717-0-171717171717-0-171717171717/20202020/151515-|
Db|-0--------------0--------------0------------------------------|

Pre-Chorus 2
eb|---------------------|
Bb|---------------------|
Gb|-3~------------------|
Db|-3~---3~-2-222-2-222-|
Ab|-1~---3~-2-222-2-222-|
Db|------3~-2-222-2-222-|
PM          ...   ...

Chorus 1
eb|--------------------------------------------------------|
Bb|-3-33-333-333-333------------------------------------3~-|
Gb|-2-22-222-222-222-5-55-555-555-5---------------------2~-|
Db|-0-00-000-000-000-5-55-555-555-5-7-8-88-888-5-55-555-0~-|x2
Ab|-0-00-000-000-000-3-33-333-333-3-7-8-88-888-5-55-555-0~-|
Db|-0-00-000-000-000----------------7-8-88-888-5-55-555-0~-|

Bridge
eb|-----------|
Bb|-6p3-5p3---|
Gb|---------5-|
Db|-----------|x5
Ab|-----------|
Db|-----------|

                                   ---|
eb|-----|---------|   |-------------| |
Bb|-----|---------|   |-------------| |
Gb|-----|---------|   |-----3-333/5-| |
Db|-0-0-|-1/3-000-|x3 |-1/3-3-333/5-| |x2
Ab|-0-0-|-1/3-000-|   |-1/3-1-111/3-| |
Db|-0-0-|-1/3-000-|   |-1/3---------| |
                                   ---|

eb|---|---------------|   |--------------|
Bb|---|---------------|   |--------------|
Gb|---|---14/12-12/14-|   |-191919191919-|
Db|-1-|-0-x-/x--x-/x--|x3 |-x-x-x-x-x-x--|
Ab|-1-|-0-12/10-10/12-|   |-171717171717-|
Db|-1-|-0-------------|   |--------------|

eb|--------------------|
Bb|--------------------|
Gb|-15~-14~-12~-10~-9~-|
Db|-x-~-x-~-x~--x~--x~-|
Ab|-13~-12~-10~-8~--7~-|
Db|--------------------|

eb|-----------------------------------|
Bb|-----------------------------------|
Gb|--------14-12/14-14-----14-12/14-9-|
Db|-000000-x--x-/x--x--000-x--x-/x--x-|
Ab|-000000-12-10/12-12-000-12-10/12-7-|
Db|-000000-------------000------------|
PM  ......             ...

Pre-Chorus 3
eb|----------------------|
Bb|----------------------|
Gb|-3~----------------7/-|
Db|-3~-3~-2-222-2-222-7/-|
Ab|-1~-3~-2-222-2-222-5/-|
Db|----3~-2-222-2-222----|
PM          ...   ...

Chorus 3
eb|----5555555---------------------------|
Bb|----5555555These are homonics---------|
Gb|----5555555strum these along----------|
Db|----5555555with the drums when--88-55-|
Ab|----5555555they kick back in----88-55-|
Db|----5555555---------------------88-55-|

Chorus 3
eb|-----------------------------------------------------|
Bb|-3-33-333-333-333------------------------------------|
Gb|-2-22-222-222-222-5-55-555-555-5---------------------|
Db|-0-00-000-000-000-5-55-555-555-5-7-8-88-888-5-55-555-|
Ab|-0-00-000-000-000-3-33-333-333-3-7-8-88-888-5-55-555-|
Db|-0-00-000-000-000----------------7-8-88-888-5-55-555-|

eb|-----------------------------------|
Bb|-3-33-333-333-333------------------|
Gb|-2-22-222-222-222-5-55-555-555-5---|
Db|-0-00-000-000-000-5-55-555-555-5-7-|
Ab|-0-00-000-000-000-3-33-333-333-3-7-|
Db|-0-00-000-000-000----------------7-|

eb|----------------------------------------------------------------|
Bb|-------------------------------------------------------------3~-|
Gb|-------------------------------------------------------------2~-|
Db|-8-88-888-5-55-555-8-88-888-5-55-555-8-88-888-10-1010-101010-0~-|
Ab|-8-88-888-5-55-555-8-88-888-5-55-555-8-88-888-10-1010-101010-0~-|
Db|-8-88-888-5-55-555-8-88-888-5-55-555-8-88-888-10-1010-101010-0~-|

Outro
eb|------------|
Bb|--6p3-5p3---|
Gb|----------5-|
Db|------------|x4
Ab|------------|
Db|-0----------|

eb|---------------|
Bb|---------------|
Gb|---14/12-12/14-|
Db|-0-x-/x--x-/x--|x2
Ab|-0-12/10-10/12-|
Db|-0-------------|

eb|-----------------|
Bb|-----------------|
Gb|-3---------------|
Db|-3-1-1-1/3-0-0-0-|
Ab|-1-1-1-1/3-0-0-0-|
Db|---1-1-1/3-0-0-0-|
PM    .


There ya go...Pay Your enemy...i dont really know if its called "pay your enemy" or "Pay
Your Enemy, Sue Your Friends"....you decide....tyler_hockeydude@hotmail.com if you have
any questions, comments...whatever

----------------------------------------------------------------------------

    Is This My Fate? He Asked Them- Story Of The Year
----------------------------------------------------------------------------
Tabbed by: christie
Email: cls72589@aol.com

Tuning: Eb-Ab-Db-Gb-Bb-eb

guitar 1
e|-------------------------------------------------------------------|
B|-------------------------------------------------------------------|
G|-------------------------------------------------------------------|
D|-------------------------------------------------------------------|
A|-----5h7-----5h7-----5--5h7-----5h7-----5--5h7-----5h7-------------|
E|---0------0-------0----------0-------0----------0-------00-5-4-3-2-|

e|--------------------------------------------------------------------------|
B|--------------------------------------------------------------------------|
G|--------------------------------------------------------------------------|
D|-2-222-222-222-222-22-5h4--22-------222-222-22-5h4-22--5h4-22--5h4-22-5/7-|
A|-2-222-222-222-222-22----5-22-------222-222-22-----22------22------22-3/5-|
E|-0-000-000-000-000-00------00--787--000-000-00-----00------00------00-----|

e|---------------------------------------------------------|
B|---------------------------------------------------------|
G|---------------------------------------------------------|
D|-222-222-22-5h4--22--5h4--22--5h4--7-6-5-4---------------|
A|-222-222-22----5-22-----5-22-------5-4-3-2---------------|
E|-000-000-00------00-------00-----------------------------|


guitar 2
e|-------------------------------------------------------------------|
B|-------------------------------------------------------------------|
G|-------------------------------------------------------------------|
D|-----------------------5h7----5h7------7--7h9----7h9---------------|
A|-----5h7-----5h7-----5---------------------------------------------|
E|---0------0-------0---------0-------0----------0-------00-5-4-3-2--|
then i think its the same as guitar 1

verse=intro

e|----------------------|
B|----------------------|
G|----------------------|
D|--222-222-------------|
A|--222-222-------------| this is ignorance
E|--000-000-------------|

e|-------------------------------------------------------|
B|-------------------------------------------------------|
G|--------777-666--55555--777-999-----------55555-77777--|
D|-22222--xxx-xxx--55555--xxx-xxx--2-2-2-2--55555-77777--|   x2
A|-22222--555-444--33333--555-777--2-2-2-2--33333-55555--|
E|-00000---------------------------0-0-0-0---------------|

after second time

e|---------------------------------------------|
B|---------------------------------------------|
G|---5-----------------------------------------|
D|---5-----------2-2-2-------------------------|
A|---3-----------2-2-2-------------------------|
E|---------------0-0-0----14-------------------|

e|-----------------------------------------------------------------------|
B|-----------------------------------------------------------------------|
G|----7/9--7/9-----------------------------------------------------------|
D|-2--x/x--x/x--222-2--x7------------------------------------------------|
A|-2--5/7--5/7--222-2----------------------------------------------------|
E|-0------------000-0--------5-4-3-2-------------------------------------|

repeat intro
chorus

after chorus
e|-----------------------------------------------------------|
B|-----------------------------------------------------------|
G|--5--555555-7--777777--------------------------------------|
D|--5--555555-7--777777---2----------------------------------|
A|--3--333333-5--555555---2----------------------------------|
E|------------------------0----------------------------------|
       ......    ......

e|----------------------------------------------------|
B|--3h5--5/7--3--8--7---3h5--7--8--11-----------------|
G|----------------------------------------------------|
D|----------------------------------------------------|
A|----------------------------------------------------|
E|----------------------------------------------------|


e|------------------------------------------------------------------------|
B|------------------------------------------------------------------------|
G|------------------------------------------------------------------------|
D|-2-222-222-222-222-222-222-222-222-222-222-222-22--55-222-7-222-7-------|
A|-2-222-222-222-222-222-222-222-222-222-222-222-22--33-222-5-222-5-------|
E|-0-000-000-000-000-000-000-000-000-000-000-000-00-----000---000---------|

e|-------------------------------------------------------------|
B|-------------------------------------------------------------|
G|----------------------------------------------------7--------|
D|-2--5p4p0-4p2p0-5p4p0-4p2p0---5-4-2--x6--2-2-2-2----x--------|
A|-2----------------------------5-4-2------2-2-2-2----5--------|
E|-0----------------------------3-2-0------0-0-0-0-------------|


guitar1
e|-------------------------------------------------------------|
B|-------------------------------------------------------------|
G|-------------------------------------------------------------|
D|-2-5425---5424-4202-2--5425---5424------x4-----2-------------|
A|-2------------------2--------------25----------2-------------|
E|-0------0-----------0-------0------------------0-------------|

guitar 2

e|-------------------22b-------------------------------|
B|--17---19--20--22------------------------------------|
G|-----------------------------------------------------|
D|-----------------------------------------------------|
A|--^^tremolo^^^^^^------------------------------------|
E|-----------------------------------------------------|


i think thats it. i did the best i could. please send any corrections or comments to cls72589@aol.com


| /  slide up
|   slide down
| h  hammer-on
| p  pull-off
| ~  vibrato
| +  harmonic
| x  Mute note
=======================================================================

Song: Untitled

Band: Story Of The Year

Album: In The Wake Of Determination

Guitar 1  -Phil-(acoustic)
-----------------

Intro
eb|--------<12>-----------------|
Bb|----<12>----<12>-----<7>-----|
Gb|-----------------<5>----<7>~-|x4
Db|-----------------------------|
Ab|-----------------------------|
Eb|-0~--------------------------|

Verse 1
eb|-------------------------|
Bb|----7-7h8p7--7/107/8~----|
Gb|-----------7-------------|x4
Db|-------------------------|
Ab|-------------5/105/7~----|
Eb|-0~----------------------|

Chorus 1
eb|-----------------------------------------|
Bb|-8x-8-8/107-/12--12---12---12---127~-----|
Gb|-----------------------------------------|x2
Db|--------------------12---12---12---------|
Ab|-7x-7-7/105-/10--10---10---10---105~-----|
Eb|-----------------------------------------|

Verse 2
eb|-----------------------|   eb|-----------------------|
Bb|----7-7h8p7--7/107/8~-|   Bb|----7-7h8p7--7/127~-----|
Gb|-----------7-----------|x4 Gb|-----------7-----------|(play this part on
Db|-----------------------|   Db|-----------------------|the third time)
Ab|-------------5/105/7~-|   Ab|-------------5/105~-----|
Eb|-0~--------------------|   Eb|-0~--------------------|

Chorus 2
eb|-----------------------------------------|
Bb|-8x-8-8/107-/12--12---12---12---127~-----|
Gb|-----------------------------------------|x2
Db|--------------------12---12---12---------|
Ab|-7x-7-7/105-/10--10---10---10---105~-----|
Eb|-----------------------------------------|

Outro
eb|---------------------------------------------|
Bb|----7-7h8p7--8/107~------7-7h8p7--8/127~-----|
Gb|-----------7---------------------7-----------|
Db|---------------------------------------------|
Ab|-------------7/105~---------------7/105~-----|
Eb|-0~--------------------0~--------------------|

eb|---------------------------------------------------------|
Bb|----7-7h8p7--8/107~-----0----7-7h8p7--8/107~-------------|
Gb|-----------7------------0------------7--------------0~---|
Db|-----------------------0---------------------------2~----|
Ab|-------------7/105~-------------------7/105~----2~-------|
Eb|-0~-------------------8----0~--------------------0~------|


Guitar 2 -Ryan-(electric, clean)
----------------

No Intro

verse 1
eb|-15-14h15p14------------------------------------------------|
Bb|------------15----------------------------------------------|
Gb|---------------14/16/12/14-15-15h16p15-12/14-15h16p15-12/14-|
Db|------------------------------------------------------------|
Ab|------------------------------------------------------------|
Eb|------------------------------------------------------------|

im truly srry...but i cannot figure out these parts he does...

Chorus 1
eb|-x-------------------------|
Bb|-x-8x-8~-8--10--7~-8~-7~---|
Gb|-x-7x-7~-7--11--7~-7~-7~---|x2
Db|-x-xx-x~-x---x--x~-x~-x~---|
Ab|-x-7x-7~-7/-10-5~-7~-5~----|
Eb|-x-------------------------|

Guitar 3
----------

Intro
eb|-----------|
Bb|----<7>----|
Gb|-<5>---<7>-|x3
Db|-----------|
Ab|-----------|
Eb|-----------|

No verses or chorus

Outro
eb|--------<12>-----------------|
Bb|----<12>----<12>-----<7>-----|
Gb|-----------------<5>----<7>~-|x4
Db|-----------------------------|
Ab|-----------------------------|
Eb|-0~--------------------------|


There ya go..........im really srry i couldnt figure out ryan's part..but i just can't
quite hear it good enough...but feel free to figure out the rest of it, correct, or comment..
tyler_hockeydude@hotmail.com for any of those

----------------------------------------------------------------------------

Good luck finding "Wake up the Voiceless" and "Sleep" cause I can't find them anywhere.
comments
We did not receive enough feedback on this tab! Please rate:
print report bad tab
1 2 3 4 5
I want to post or [tab]
guest
You may want to rate the tab now too:
select rating
Please do not post tabs as comments. Select "correction" instead!