Oops, an error
Loading. Please wait.

Light Years Away Tab

ver1
ver1

Whole song

Interactive

More versions @911Tabs.com
430 views 1 this week
no commentswrite comment
1 2 3 4 5
please rate
add to favorites launch autoscroll
font size
0
reset
Autoscroll
+/-
esc
set tempo
stop
Contributor
Difficulty
Tuning
intermediate
D A D G B E
WARNING: You are trying to view
                                    content from Ultimate-Guitar.com
                                    in an unauthorized application,
                                    which is prohibited.

                                    Please use an official Ultimate
                                    Guitar Tabs application for iPhone,
                                    iPad or Android to access legitimate
                                    chords, guitar, bass, and drum tabs
                                    from Ultimate-Guitar.com database.

                                    Type "ultimate guitar tabs" in Apple
                                    App Store's or Android Market's
                                    search to find the application.
***plain text tab generated by powertab***
LIGHT YEARS AWAY
As recorded by Story of the Year



Transcribed by Sam Suplee (myspace.com/ludwig104)

 

 

Gtr I (D A D G B E) - 'Untitled'
Gtr II (D A D G B E) - 'Untitled'


  Q=195
 4/4
  Gtr I
  W          +W
|----------|--------|
|----------|--------|
|----------|--------|
|-0--------|-(0)----|
|-0--------|-(0)----|
|-0--------|-(0)----|
|
| Gtr II
| W          +W
|----------|--------|
|----------|--------|
|----------|--------|
|-0--------|-(0)----|
|-0--------|-(0)----|
|-0--------|-(0)----|


 Intro
 4/4
  Gtr I
  Q  E E E E E E   Q  E E E E E E   Q  E E E E E E   Q  E E E E E E
|----------------|----------------|----------------|----------------|
|----------------|----------------|----------------|----------------|
|--------6h7p6p2-|------------4-4-|--------6h7p6p2-|------------4-4-|
|-4--4-4---------|-0--0-0-2-2-----|-4--4-4---------|-0--0-0-2-2-----|
|-4--4-4-4h5p4p0-|-0--0-0-2-2-----|-4--4-4-4h5p4p0-|-0--0-0-2-2-----|
|-4--4-4---------|-0--0-0-2-2-----|-4--4-4---------|-0--0-0-2-2-----|
|
| Gtr II
| Q  E E E E E E   Q  E E E E E E   Q  E E E E E E   Q  E E E E E E
|----------------|----------------|----------------|----------------|
|----------------|----------------|----------------|----------------|
|--------6h7p6p2-|------------4-4-|--------6h7p6p2-|------------4-4-|
|-4--4-4---------|-0--0-0-2-2-----|-4--4-4---------|-0--0-0-2-2-----|
|-4--4-4-4h5p4p0-|-0--0-0-2-2-----|-4--4-4-4h5p4p0-|-0--0-0-2-2-----|
|-4--4-4---------|-0--0-0-2-2-----|-4--4-4---------|-0--0-0-2-2-----|


  Q  E E E E E E   Q  E E E E E E   Q  E E E E E E   E E E E E Q.
|----------------|----------------|----------------|---------------|
|----------------|----------------|----------------|---------------|
|--------6h7p6p2-|------------4-4-|--------6h7p6p2-|---------------|
|-4--4-4---------|-0--0-0-2-2-----|-4--4-4---------|-0-0-0-0-2-----|
|-4--4-4-4h5p4p0-|-0--0-0-2-2-----|-4--4-4-4h5p4p0-|-0-0-0-0-2-----|
|-4--4-4---------|-0--0-0-2-2-----|-4--4-4---------|-0-0-0-0-2-----|
|
| Q  E E E E E E   Q  E E E E E E   Q  E E E E E E   E E E E E Q.
|----------------|----------------|----------------|---------------|
|----------------|----------------|----------------|---------------|
|--------6h7p6p2-|------------4-4-|--------6h7p6p2-|---------------|
|-4--4-4---------|-0--0-0-2-2-----|-4--4-4---------|-0-0-0-0-2-----|
|-4--4-4-4h5p4p0-|-0--0-0-2-2-----|-4--4-4-4h5p4p0-|-0-0-0-0-2-----|
|-4--4-4---------|-0--0-0-2-2-----|-4--4-4---------|-0-0-0-0-2-----|


  Q  E E E E E E   Q  E E E E E E   Q  E E E E E E   Q  E E E E E E
|----------------|----------------|----------------|-----------------|
|----------------|----------------|----------------|-----------------|
|--------6h7p6p2-|------------4-4-|--------6h7p6p2-|------------4-4--|
|-4--4-4---------|-0--0-0-2-2-----|-4--4-4---------|-0--0-0-2-2------|
|-4--4-4-4h5p4p0-|-0--0-0-2-2-----|-4--4-4-4h5p4p0-|-0--0-0-2-2------|
|-4--4-4---------|-0--0-0-2-2-----|-4--4-4---------|-0--0-0-2-2------|
|
| Q  E E E E E E   Q  E E E E E E   Q  E E E E E E   Q  E E E E E E
|----------------|----------------|----------------|-----------------|
|----------------|----------------|----------------|-----------------|
|--------6h7p6p2-|------------4-4-|--------6h7p6p2-|------------4-4--|
|-4--4-4---------|-0--0-0-2-2-----|-4--4-4---------|-0--0-0-2-2------|
|-4--4-4-4h5p4p0-|-0--0-0-2-2-----|-4--4-4-4h5p4p0-|-0--0-0-2-2------|
|-4--4-4---------|-0--0-0-2-2-----|-4--4-4---------|-0--0-0-2-2------|


  Q  E E E E E E   Q  E E E E E E   Q  E E E E E E   E E E E E Q.
|----------------|----------------|----------------|---------------|
|----------------|----------------|----------------|---------------|
|--------6h7p6p2-|------------4-4-|--------6h7p6p2-|---------------|
|-4--4-4---------|-0--0-0-2-2-----|-4--4-4---------|-0-0-0-0-2-----|
|-4--4-4-4h5p4p0-|-0--0-0-2-2-----|-4--4-4-4h5p4p0-|-0-0-0-0-2-----|
|-4--4-4---------|-0--0-0-2-2-----|-4--4-4---------|-0-0-0-0-2-----|
|
| Q  E E E E E E   Q  E E E E E E   Q  E E E E E E   E E E E E Q.
|----------------|----------------|----------------|---------------|
|----------------|----------------|----------------|---------------|
|--------6h7p6p2-|------------4-4-|--------6h7p6p2-|---------------|
|-4--4-4---------|-0--0-0-2-2-----|-4--4-4---------|-0-0-0-0-2-----|
|-4--4-4-4h5p4p0-|-0--0-0-2-2-----|-4--4-4-4h5p4p0-|-0-0-0-0-2-----|
|-4--4-4---------|-0--0-0-2-2-----|-4--4-4---------|-0-0-0-0-2-----|


 Verse
  Q  E E E E E E   Q  E E E E E E   Q  E E E E E E   Q  E E E E E E
|----------------|----------------|----------------|-----------------|
|----------------|----------------|----------------|-----------------|
|--------6h7p6p2-|------------4-4-|--------6h7p6p2-|------------4-4--|
|-4--4-4---------|-0--0-0-2-2-----|-4--4-4---------|-0--0-0-2-2------|
|-4--4-4-4h5p4p0-|-0--0-0-2-2-----|-4--4-4-4h5p4p0-|-0--0-0-2-2------|
|-4--4-4---------|-0--0-0-2-2-----|-4--4-4---------|-0--0-0-2-2------|
|
| W                W                W                W
|----------------|----------------|----------------|-----------------|
|----------------|----------------|----------------|-----------------|
|----------------|----------------|----------------|-----------------|
|----------------|----------------|----------------|-----------------|
|----------------|----------------|----------------|-----------------|
|----------------|----------------|----------------|-----------------|


  Q  E E E E E E   Q  E E E E E E   Q  E E E E E E   E E E E E E E E
|----------------|----------------|----------------|------------------|
|----------------|----------------|----------------|------------------|
|--------6h7p6p2-|------------4-4-|--------6h7p6p2-|-------------6h7--|
|-4--4-4---------|-0--0-0-2-2-----|-4--4-4---------|-0-0-0-0-0-0------|
|-4--4-4-4h5p4p0-|-0--0-0-2-2-----|-4--4-4-4h5p4p0-|-0-0-0-0-0-0-4h5--|
|-4--4-4---------|-0--0-0-2-2-----|-4--4-4---------|-0-0-0-0-0-0------|
|
| W                W                W                E E E E E E E E
|----------------|----------------|----------------|------------------|
|----------------|----------------|----------------|------------------|
|----------------|----------------|----------------|-------------6h7--|
|----------------|----------------|----------------|-0-0-0-0-0-0------|
|----------------|----------------|----------------|-0-0-0-0-0-0-4h5--|
|----------------|----------------|----------------|-0-0-0-0-0-0------|


  Q  E E E E E E   Q  E E E E E E   Q  E E E E E E   Q  E E E E E E
|----------------|----------------|----------------|-----------------|
|----------------|----------------|----------------|-----------------|
|--------6h7p6p2-|------------4-4-|--------6h7p6p2-|------------4-4--|
|-4--4-4---------|-0--0-0-2-2-----|-4--4-4---------|-0--0-0-2-2------|
|-4--4-4-4h5p4p0-|-0--0-0-2-2-----|-4--4-4-4h5p4p0-|-0--0-0-2-2------|
|-4--4-4---------|-0--0-0-2-2-----|-4--4-4---------|-0--0-0-2-2------|
|
| Q  E E E E E E   Q  E E E E E E   Q  E E E E E E   Q  E E E E E E
|----------------|----------------|----------------|-----------------|
|----------------|----------------|----------------|-----------------|
|--------6h7p6p2-|------------4-4-|--------6h7p6p2-|------------4-4--|
|-4--4-4---------|-0--0-0-2-2-----|-4--4-4---------|-0--0-0-2-2------|
|-4--4-4-4h5p4p0-|-0--0-0-2-2-----|-4--4-4-4h5p4p0-|-0--0-0-2-2------|
|-4--4-4---------|-0--0-0-2-2-----|-4--4-4---------|-0--0-0-2-2------|


  Q  E E E E E E   Q  E E E E E E   Q  E E E E E E   E E E E E E E E
|----------------|----------------|----------------|------------------|
|----------------|----------------|----------------|------------------|
|--------6h7p6p2-|------------4-4-|--------6h7p6p2-|------------------|
|-4--4-4---------|-0--0-0-2-2-----|-4--4-4---------|-0-0-0-0-0-0-0h2--|
|-4--4-4-4h5p4p0-|-0--0-0-2-2-----|-4--4-4-4h5p4p0-|-0-0-0-0-0-0-0h2--|
|-4--4-4---------|-0--0-0-2-2-----|-4--4-4---------|-0-0-0-0-0-0-0h2--|
|
| Q  E E E E E E   Q  E E E E E E   Q  E E E E E E   E E E E E E E E
|----------------|----------------|----------------|------------------|
|----------------|----------------|----------------|------------------|
|--------6h7p6p2-|------------4-4-|--------6h7p6p2-|------------------|
|-4--4-4---------|-0--0-0-2-2-----|-4--4-4---------|-0-0-0-0-0-0-0h2--|
|-4--4-4-4h5p4p0-|-0--0-0-2-2-----|-4--4-4-4h5p4p0-|-0-0-0-0-0-0-0h2--|
|-4--4-4---------|-0--0-0-2-2-----|-4--4-4---------|-0-0-0-0-0-0-0h2--|


 Chorus
  Q  E E E E E E   E E E E E E E E   Q  E E E E E E   E E E E E E E E
|----------------|-----------------|----------------|------------------|
|----------------|-----------------|----------------|------------------|
|----------------|-----------------|----------------|------------------|
|-4--4-4-4-4-4-4-|-4-4-4-4-4-4-4-4-|-7--7-7-7-7-7-7-|-7-7-7-7-7-7-7-7--|
|-4--4-4-4-4-4-4-|-4-4-4-4-4-4-4-4-|-7--7-7-7-7-7-7-|-7-7-7-7-7-7-7-7--|
|-4--4-4-4-4-4-4-|-4-4-4-4-4-4-4-4-|-7--7-7-7-7-7-7-|-7-7-7-7-7-7-7-7--|
|
| Q  E E E E E E   E E E E E E E E   Q  E E E E E E   E E E E E E E E
|----------------|-----------------|----------------|------------------|
|----------------|-----------------|----------------|------------------|
|----------------|-----------------|----------------|------------------|
|-4--4-4-4-4-4-4-|-4-4-4-4-4-4-4-4-|-7--7-7-7-7-7-7-|-7-7-7-7-7-7-7-7--|
|-4--4-4-4-4-4-4-|-4-4-4-4-4-4-4-4-|-7--7-7-7-7-7-7-|-7-7-7-7-7-7-7-7--|
|-4--4-4-4-4-4-4-|-4-4-4-4-4-4-4-4-|-7--7-7-7-7-7-7-|-7-7-7-7-7-7-7-7--|


  Q  E E E E E E   E E E E E E E E    E E E E E E  E E   E E E E  E E E E
|----------------|-----------------|-------------------|-------------------|
|----------------|-----------------|-10-----9-----10---|---9-----10---9----|
|----------------|-----------------|-------------------|-------------------|
|-2--2-2-2-2-2-2-|-2-2-2-2-2-2-2-2-|--7-----6------7---|---6------7---6----|
|-2--2-2-2-2-2-2-|-2-2-2-2-2-2-2-2-|-------------------|-------------------|
|-2--2-2-2-2-2-2-|-2-2-2-2-2-2-2-2-|----0-0---0-0----0-|-0---0-0----0---0--|
|
| Q  E E E E E E   E E E E E E E E    E E E E E E  E E   E E E E  E E E E
|----------------|-----------------|-------------------|-------------------|
|----------------|-----------------|-10-----9-----10---|---9-----10---9----|
|----------------|-----------------|-------------------|-------------------|
|-2--2-2-2-2-2-2-|-2-2-2-2-2-2-2-2-|--7-----6------7---|---6------7---6----|
|-2--2-2-2-2-2-2-|-2-2-2-2-2-2-2-2-|-------------------|-------------------|
|-2--2-2-2-2-2-2-|-2-2-2-2-2-2-2-2-|----0-0---0-0----0-|-0---0-0----0---0--|


  Q  E E E E E E   E E E E E E E E   Q  E E E E E E   E E E E E E E E
|----------------|-----------------|----------------|------------------|
|----------------|-----------------|----------------|------------------|
|----------------|-----------------|----------------|-------------7h9--|
|-4--4-4-4-4-4-4-|-4-4-4-4-4-4-4-4-|-7--7-7-7-7-7-7-|-7-7-7-7-7-7------|
|-4--4-4-4-4-4-4-|-4-4-4-4-4-4-4-4-|-7--7-7-7-7-7-7-|-7-7-7-7-7-7-5h7--|
|-4--4-4-4-4-4-4-|-4-4-4-4-4-4-4-4-|-7--7-7-7-7-7-7-|-7-7-7-7-7-7------|
|
| Q  E E E E E E   E E E E E E E E   Q  E E E E E E   E E E E E E E E
|----------------|-----------------|----------------|------------------|
|----------------|-----------------|----------------|------------------|
|----------------|-----------------|----------------|-------------7h9--|
|-4--4-4-4-4-4-4-|-4-4-4-4-4-4-4-4-|-7--7-7-7-7-7-7-|-7-7-7-7-7-7------|
|-4--4-4-4-4-4-4-|-4-4-4-4-4-4-4-4-|-7--7-7-7-7-7-7-|-7-7-7-7-7-7-5h7--|
|-4--4-4-4-4-4-4-|-4-4-4-4-4-4-4-4-|-7--7-7-7-7-7-7-|-7-7-7-7-7-7------|


  Q  E E E E E E   E E E E E E E E    E E E E E E  E E   E E E E  E E E E
|----------------|-----------------|-------------------|-------------------|
|----------------|-----------------|-10-----9-----10---|---9-----10---9----|
|----------------|-----------------|-------------------|-------------------|
|-2--2-2-2-2-2-2-|-2-2-2-2-2-2-2-2-|--7-----6------7---|---6------7---6----|
|-2--2-2-2-2-2-2-|-2-2-2-2-2-2-2-2-|-------------------|-------------------|
|-2--2-2-2-2-2-2-|-2-2-2-2-2-2-2-2-|----0-0---0-0----0-|-0---0-0----0---0--|
|
| Q  E E E E E E   E E E E E E E E    E E E E E E  E E   E E E E  E E E E
|----------------|-----------------|-------------------|-------------------|
|----------------|-----------------|-10-----9-----10---|---9-----10---9----|
|----------------|-----------------|-------------------|-------------------|
|-2--2-2-2-2-2-2-|-2-2-2-2-2-2-2-2-|--7-----6------7---|---6------7---6----|
|-2--2-2-2-2-2-2-|-2-2-2-2-2-2-2-2-|-------------------|-------------------|
|-2--2-2-2-2-2-2-|-2-2-2-2-2-2-2-2-|----0-0---0-0----0-|-0---0-0----0---0--|


 Re-Intro
  Q  E E E E E E   Q  E E E E E E   Q  E E E E E E   Q  E E E E E E
|----------------|----------------|----------------|-----------------|
|----------------|----------------|----------------|-----------------|
|--------6h7p6p2-|------------4-4-|--------6h7p6p2-|------------4-4--|
|-4--4-4---------|-0--0-0-2-2-----|-4--4-4---------|-0--0-0-2-2------|
|-4--4-4-4h5p4p0-|-0--0-0-2-2-----|-4--4-4-4h5p4p0-|-0--0-0-2-2------|
|-4--4-4---------|-0--0-0-2-2-----|-4--4-4---------|-0--0-0-2-2------|
|
| Q  E E E E E E   Q  E E E E E E   Q  E E E E E E   Q  E E E E E E
|----------------|----------------|----------------|-----------------|
|----------------|----------------|----------------|-----------------|
|--------6h7p6p2-|------------4-4-|--------6h7p6p2-|------------4-4--|
|-4--4-4---------|-0--0-0-2-2-----|-4--4-4---------|-0--0-0-2-2------|
|-4--4-4-4h5p4p0-|-0--0-0-2-2-----|-4--4-4-4h5p4p0-|-0--0-0-2-2------|
|-4--4-4---------|-0--0-0-2-2-----|-4--4-4---------|-0--0-0-2-2------|


  Q  E E E E E E   Q  E E E E E E   Q  E E E E E E   E E E E H
|----------------|----------------|----------------|-------------|
|----------------|----------------|----------------|-------------|
|--------6h7p6p2-|------------4-4-|--------6h7p6p2-|-------------|
|-4--4-4---------|-0--0-0-2-2-----|-4--4-4---------|-0-0-0-0-2---|
|-4--4-4-4h5p4p0-|-0--0-0-2-2-----|-4--4-4-4h5p4p0-|-0-0-0-0-2---|
|-4--4-4---------|-0--0-0-2-2-----|-4--4-4---------|-0-0-0-0-2---|
|
| Q  E E E E E E   Q  E E E E E E   Q  E E E E E E   E E E E H
|----------------|----------------|----------------|-------------|
|----------------|----------------|----------------|-------------|
|--------6h7p6p2-|------------4-4-|--------6h7p6p2-|-------------|
|-4--4-4---------|-0--0-0-2-2-----|-4--4-4---------|-0-0-0-0-2---|
|-4--4-4-4h5p4p0-|-0--0-0-2-2-----|-4--4-4-4h5p4p0-|-0-0-0-0-2---|
|-4--4-4---------|-0--0-0-2-2-----|-4--4-4---------|-0-0-0-0-2---|


 Verse
  Q  E E E E E E   Q  E E E E E E   Q  E E E E E E   Q  E E E E E E
|----------------|----------------|----------------|-----------------|
|----------------|----------------|----------------|-----------------|
|--------6h7p6p2-|------------4-4-|--------6h7p6p2-|------------4-4--|
|-4--4-4---------|-0--0-0-2-2-----|-4--4-4---------|-0--0-0-2-2------|
|-4--4-4-4h5p4p0-|-0--0-0-2-2-----|-4--4-4-4h5p4p0-|-0--0-0-2-2------|
|-4--4-4---------|-0--0-0-2-2-----|-4--4-4---------|-0--0-0-2-2------|
|
| W                W                W                W
|----------------|----------------|----------------|-----------------|
|----------------|----------------|----------------|-----------------|
|----------------|----------------|----------------|-----------------|
|----------------|----------------|----------------|-----------------|
|----------------|----------------|----------------|-----------------|
|----------------|----------------|----------------|-----------------|


  Q  E E E E E E   Q  E E E E E E   Q  E E E E E E   E E E E E E E E
|----------------|----------------|----------------|------------------|
|----------------|----------------|----------------|------------------|
|--------6h7p6p2-|------------4-4-|--------6h7p6p2-|-------------6h7--|
|-4--4-4---------|-0--0-0-2-2-----|-4--4-4---------|-0-0-0-0-0-0------|
|-4--4-4-4h5p4p0-|-0--0-0-2-2-----|-4--4-4-4h5p4p0-|-0-0-0-0-0-0-4h5--|
|-4--4-4---------|-0--0-0-2-2-----|-4--4-4---------|-0-0-0-0-0-0------|
|
| W                W                W                E E E E E E E E
|----------------|----------------|----------------|------------------|
|----------------|----------------|----------------|------------------|
|----------------|----------------|----------------|-------------6h7--|
|----------------|----------------|----------------|-0-0-0-0-0-0------|
|----------------|----------------|----------------|-0-0-0-0-0-0-4h5--|
|----------------|----------------|----------------|-0-0-0-0-0-0------|


  Q  E E E E E E   Q  E E E E E E   Q  E E E E E E   Q  E E E E E E
|----------------|----------------|----------------|-----------------|
|----------------|----------------|----------------|-----------------|
|--------6h7p6p2-|------------4-4-|--------6h7p6p2-|------------4-4--|
|-4--4-4---------|-0--0-0-2-2-----|-4--4-4---------|-0--0-0-2-2------|
|-4--4-4-4h5p4p0-|-0--0-0-2-2-----|-4--4-4-4h5p4p0-|-0--0-0-2-2------|
|-4--4-4---------|-0--0-0-2-2-----|-4--4-4---------|-0--0-0-2-2------|
|
| Q  E E E E E E   Q  E E E E E E   Q  E E E E E E   Q  E E E E E E
|----------------|----------------|----------------|-----------------|
|----------------|----------------|----------------|-----------------|
|--------6h7p6p2-|------------4-4-|--------6h7p6p2-|------------4-4--|
|-4--4-4---------|-0--0-0-2-2-----|-4--4-4---------|-0--0-0-2-2------|
|-4--4-4-4h5p4p0-|-0--0-0-2-2-----|-4--4-4-4h5p4p0-|-0--0-0-2-2------|
|-4--4-4---------|-0--0-0-2-2-----|-4--4-4---------|-0--0-0-2-2------|


  Q  E E E E E E   Q  E E E E E E   Q  E E E E E E   E E E E E E E E
|----------------|----------------|----------------|------------------|
|----------------|----------------|----------------|------------------|
|--------6h7p6p2-|------------4-4-|--------6h7p6p2-|------------------|
|-4--4-4---------|-0--0-0-2-2-----|-4--4-4---------|-0-0-0-0-0-0-0h2--|
|-4--4-4-4h5p4p0-|-0--0-0-2-2-----|-4--4-4-4h5p4p0-|-0-0-0-0-0-0-0h2--|
|-4--4-4---------|-0--0-0-2-2-----|-4--4-4---------|-0-0-0-0-0-0-0h2--|
|
| Q  E E E E E E   Q  E E E E E E   Q  E E E E E E   E E E E E E E E
|----------------|----------------|----------------|------------------|
|----------------|----------------|----------------|------------------|
|--------6h7p6p2-|------------4-4-|--------6h7p6p2-|------------------|
|-4--4-4---------|-0--0-0-2-2-----|-4--4-4---------|-0-0-0-0-0-0-0h2--|
|-4--4-4-4h5p4p0-|-0--0-0-2-2-----|-4--4-4-4h5p4p0-|-0-0-0-0-0-0-0h2--|
|-4--4-4---------|-0--0-0-2-2-----|-4--4-4---------|-0-0-0-0-0-0-0h2--|


 Chorus
  Q  E E E E E E   E E E E E E E E   Q  E E E E E E   E E E E E E E E
|----------------|-----------------|----------------|------------------|
|----------------|-----------------|----------------|------------------|
|----------------|-----------------|----------------|------------------|
|-4--4-4-4-4-4-4-|-4-4-4-4-4-4-4-4-|-7--7-7-7-7-7-7-|-7-7-7-7-7-7-7-7--|
|-4--4-4-4-4-4-4-|-4-4-4-4-4-4-4-4-|-7--7-7-7-7-7-7-|-7-7-7-7-7-7-7-7--|
|-4--4-4-4-4-4-4-|-4-4-4-4-4-4-4-4-|-7--7-7-7-7-7-7-|-7-7-7-7-7-7-7-7--|
|
| Q  E E E E E E   E E E E E E E E   Q  E E E E E E   E E E E E E E E
|----------------|-----------------|----------------|------------------|
|----------------|-----------------|----------------|------------------|
|----------------|-----------------|----------------|------------------|
|-4--4-4-4-4-4-4-|-4-4-4-4-4-4-4-4-|-7--7-7-7-7-7-7-|-7-7-7-7-7-7-7-7--|
|-4--4-4-4-4-4-4-|-4-4-4-4-4-4-4-4-|-7--7-7-7-7-7-7-|-7-7-7-7-7-7-7-7--|
|-4--4-4-4-4-4-4-|-4-4-4-4-4-4-4-4-|-7--7-7-7-7-7-7-|-7-7-7-7-7-7-7-7--|


  Q  E E E E E E   E E E E E E E E    E E E E E E  E E   E E E E  E E E E
|----------------|-----------------|-------------------|-------------------|
|----------------|-----------------|-10-----9-----10---|---9-----10---9----|
|----------------|-----------------|-------------------|-------------------|
|-2--2-2-2-2-2-2-|-2-2-2-2-2-2-2-2-|--7-----6------7---|---6------7---6----|
|-2--2-2-2-2-2-2-|-2-2-2-2-2-2-2-2-|-------------------|-------------------|
|-2--2-2-2-2-2-2-|-2-2-2-2-2-2-2-2-|----0-0---0-0----0-|-0---0-0----0---0--|
|
| Q  E E E E E E   E E E E E E E E    E E E E E E  E E   E E E E  E E E E
|----------------|-----------------|-------------------|-------------------|
|----------------|-----------------|-10-----9-----10---|---9-----10---9----|
|----------------|-----------------|-------------------|-------------------|
|-2--2-2-2-2-2-2-|-2-2-2-2-2-2-2-2-|--7-----6------7---|---6------7---6----|
|-2--2-2-2-2-2-2-|-2-2-2-2-2-2-2-2-|-------------------|-------------------|
|-2--2-2-2-2-2-2-|-2-2-2-2-2-2-2-2-|----0-0---0-0----0-|-0---0-0----0---0--|


  Q  E E E E E E   E E E E E E E E   Q  E E E E E E   E E E E E E E E
|----------------|-----------------|----------------|------------------|
|----------------|-----------------|----------------|------------------|
|----------------|-----------------|----------------|-------------7h9--|
|-4--4-4-4-4-4-4-|-4-4-4-4-4-4-4-4-|-7--7-7-7-7-7-7-|-7-7-7-7-7-7------|
|-4--4-4-4-4-4-4-|-4-4-4-4-4-4-4-4-|-7--7-7-7-7-7-7-|-7-7-7-7-7-7-5h7--|
|-4--4-4-4-4-4-4-|-4-4-4-4-4-4-4-4-|-7--7-7-7-7-7-7-|-7-7-7-7-7-7------|
|
| Q  E E E E E E   E E E E E E E E   Q  E E E E E E   E E E E E E E E
|----------------|-----------------|----------------|------------------|
|----------------|-----------------|----------------|------------------|
|----------------|-----------------|----------------|-------------7h9--|
|-4--4-4-4-4-4-4-|-4-4-4-4-4-4-4-4-|-7--7-7-7-7-7-7-|-7-7-7-7-7-7------|
|-4--4-4-4-4-4-4-|-4-4-4-4-4-4-4-4-|-7--7-7-7-7-7-7-|-7-7-7-7-7-7-5h7--|
|-4--4-4-4-4-4-4-|-4-4-4-4-4-4-4-4-|-7--7-7-7-7-7-7-|-7-7-7-7-7-7------|


  Q  E E E E E E   E E E E E E E E    E E E E E E  E E   E E E E  E E E E
|----------------|-----------------|-------------------|-------------------|
|----------------|-----------------|-10-----9-----10---|---9-----10---9----|
|----------------|-----------------|-------------------|-------------------|
|-2--2-2-2-2-2-2-|-2-2-2-2-2-2-2-2-|--7-----6------7---|---6------7---6----|
|-2--2-2-2-2-2-2-|-2-2-2-2-2-2-2-2-|-------------------|-------------------|
|-2--2-2-2-2-2-2-|-2-2-2-2-2-2-2-2-|----0-0---0-0----0-|-0---0-0----0---0--|
|
| Q  E E E E E E   E E E E E E E E    E E E E E E  E E   E E E E  E E E E
|----------------|-----------------|-------------------|-------------------|
|----------------|-----------------|-10-----9-----10---|---9-----10---9----|
|----------------|-----------------|-------------------|-------------------|
|-2--2-2-2-2-2-2-|-2-2-2-2-2-2-2-2-|--7-----6------7---|---6------7---6----|
|-2--2-2-2-2-2-2-|-2-2-2-2-2-2-2-2-|-------------------|-------------------|
|-2--2-2-2-2-2-2-|-2-2-2-2-2-2-2-2-|----0-0---0-0----0-|-0---0-0----0---0--|


 Breakdown
  E E E Q  Q.     W          E E E Q  Q.     W
|---------------|----------|---------------|------|
|---------------|----------|---------------|------|
|---------------|----------|---------------|------|
|-4-4-4-4-------|----------|-4-4-4-4-------|------|
|-4-4-4-4-------|----------|-4-4-4-4-------|------|
|-4-4-4-4-------|----------|-4-4-4-4-------|------|
|
| E E E Q  Q.     W          E E E Q  Q.     W
|---------------|----------|---------------|------|
|---------------|----------|---------------|------|
|---------------|----------|---------------|------|
|-4-4-4-4-------|----------|-4-4-4-4-------|------|
|-4-4-4-4-------|----------|-4-4-4-4-------|------|
|-4-4-4-4-------|----------|-4-4-4-4-------|------|


  E E E Q  Q.     W          E E E Q  E E E   E Q  E E E E E
|---------------|----------|----------------|-----------------|
|---------------|----------|----------------|-----------------|
|---------------|----------|----------------|-----------------|
|-4-4-4-4-------|----------|-4-4-4-4----4-4-|-7-7----7-6-6-6--|
|-4-4-4-4-------|----------|-4-4-4-4----4-4-|-4-4----4-4-4-4--|
|-4-4-4-4-------|----------|-4-4-4-4----4-4-|-4-4----4-4-4-4--|
|
| E E E Q  Q.     W          E E E Q  E E E   E Q  E E E E E
|---------------|----------|----------------|-----------------|
|---------------|----------|----------------|-----------------|
|---------------|----------|----------------|-----------------|
|-4-4-4-4-------|----------|-4-4-4-4----4-4-|-7-7----7-6-6-6--|
|-4-4-4-4-------|----------|-4-4-4-4----4-4-|-4-4----4-4-4-4--|
|-4-4-4-4-------|----------|-4-4-4-4----4-4-|-4-4----4-4-4-4--|


  E E E Q  E E E   E E E E E E E E   E E E Q  E E E   E E E E E E E E
|----------x-x-x-|-x-x-x-x-x-x-x-x-|----------x-x-x-|-x-x-x-x-x-x-x-x--|
|----------x-x-x-|-x-x-x-x-x-x-x-x-|----------x-x-x-|-x-x-x-x-x-x-x-x--|
|----------x-x-x-|-x-x-x-x-x-x-x-x-|----------x-x-x-|-x-x-x-x-x-x-x-x--|
|-4-4-4-4--x-x-x-|-x-x-x-x-x-x-x-x-|-4-4-4-4--x-x-x-|-x-x-x-x-x-x-x-x--|
|-4-4-4-4--x-x-x-|-x-x-x-x-x-x-x-x-|-4-4-4-4--x-x-x-|-x-x-x-x-x-x-x-x--|
|-4-4-4-4--x-x-x-|-x-x-x-x-x-x-x-x-|-4-4-4-4--x-x-x-|-x-x-x-x-x-x-x-x--|
|
| E E E Q  E E E   E E E E E E E E   E E E Q  E E E   E E E E E E E E
|----------x-x-x-|-x-x-x-x-x-x-x-x-|----------x-x-x-|-x-x-x-x-x-x-x-x--|
|----------x-x-x-|-x-x-x-x-x-x-x-x-|----------x-x-x-|-x-x-x-x-x-x-x-x--|
|----------x-x-x-|-x-x-x-x-x-x-x-x-|----------x-x-x-|-x-x-x-x-x-x-x-x--|
|-4-4-4-4--x-x-x-|-x-x-x-x-x-x-x-x-|-4-4-4-4--x-x-x-|-x-x-x-x-x-x-x-x--|
|-4-4-4-4--x-x-x-|-x-x-x-x-x-x-x-x-|-4-4-4-4--x-x-x-|-x-x-x-x-x-x-x-x--|
|-4-4-4-4--x-x-x-|-x-x-x-x-x-x-x-x-|-4-4-4-4--x-x-x-|-x-x-x-x-x-x-x-x--|


  E E E Q  E E E   E E E E E E E E   E E E Q  E E E   E E E E E E E E
|----------x-x-x-|-x-x-x-x-x-x-x-x-|----------x-x-x-|-x-x-x-x-x-x-x-x--|
|----------x-x-x-|-x-x-x-x-x-x-x-x-|----------x-x-x-|-x-x-x-x-x-x-x-x--|
|----------x-x-x-|-x-x-x-x-x-x-x-x-|----------x-x-x-|-x-x-x-x-x-x-x-x--|
|-4-4-4-4--x-x-x-|-x-x-x-x-x-x-x-x-|-4-4-4-4--x-x-x-|-x-x-x-x-x-x-x-x--|
|-4-4-4-4--x-x-x-|-x-x-x-x-x-x-x-x-|-4-4-4-4--x-x-x-|-x-x-x-x-x-x-x-x--|
|-4-4-4-4--x-x-x-|-x-x-x-x-x-x-x-x-|-4-4-4-4--x-x-x-|-x-x-x-x-x-x-x-x--|
|
| E E E Q  E E E   E E E E E E E E   E E E Q  E E E   E E E E E E E E
|----------x-x-x-|-x-x-x-x-x-x-x-x-|----------x-x-x-|-x-x-x-x-x-x-x-x--|
|----------x-x-x-|-x-x-x-x-x-x-x-x-|----------x-x-x-|-x-x-x-x-x-x-x-x--|
|----------x-x-x-|-x-x-x-x-x-x-x-x-|----------x-x-x-|-x-x-x-x-x-x-x-x--|
|-4-4-4-4--x-x-x-|-x-x-x-x-x-x-x-x-|-4-4-4-4--x-x-x-|-x-x-x-x-x-x-x-x--|
|-4-4-4-4--x-x-x-|-x-x-x-x-x-x-x-x-|-4-4-4-4--x-x-x-|-x-x-x-x-x-x-x-x--|
|-4-4-4-4--x-x-x-|-x-x-x-x-x-x-x-x-|-4-4-4-4--x-x-x-|-x-x-x-x-x-x-x-x--|


  Q  E E E E E E   E E E E E E E E   Q  E E E E E E   E E E E E E E E
|----------------|-----------------|----------------|------------------|
|----------------|-----------------|----------------|------------------|
|----------------|-----------------|----------------|------------------|
|-0--0-0-0-0-0-0-|-0-0-0-0-0-0-0-0-|-2--2-2-2-2-2-2-|-2-2-2-2-2-2-2-2--|
|-0--0-0-0-0-0-0-|-0-0-0-0-0-0-0-0-|-2--2-2-2-2-2-2-|-2-2-2-2-2-2-2-2--|
|-0--0-0-0-0-0-0-|-0-0-0-0-0-0-0-0-|-2--2-2-2-2-2-2-|-2-2-2-2-2-2-2-2--|
|
| Q  E E E E E E   E E E E E E E E   Q  E E E E E E   E E E E E E E E
|----------------|-----------------|----------------|------------------|
|----------------|-----------------|----------------|------------------|
|----------------|-----------------|----------------|------------------|
|-0--0-0-0-0-0-0-|-0-0-0-0-0-0-0-0-|-2--2-2-2-2-2-2-|-2-2-2-2-2-2-2-2--|
|-0--0-0-0-0-0-0-|-0-0-0-0-0-0-0-0-|-2--2-2-2-2-2-2-|-2-2-2-2-2-2-2-2--|
|-0--0-0-0-0-0-0-|-0-0-0-0-0-0-0-0-|-2--2-2-2-2-2-2-|-2-2-2-2-2-2-2-2--|


 Bridge
  Q  E E E E E E   Q  E E E E E E   Q  E E E E E E   Q  E Q  E Q
|----------------|----------------|----------------|-------------|
|----------------|----------------|----------------|-------------|
|----------------|-6--6-6-6-6-6-6-|----------------|-------------|
|-4--4-4-4-4-4-4-|-6--6-6-6-6-6-6-|-0--0-0-0-0-0-0-|-9--9-7--7-9-|
|-4--4-4-4-4-4-4-|-4--4-4-4-4-4-4-|-0--0-0-0-0-0-0-|-7--7-5--5-7-|
|-4--4-4-4-4-4-4-|----------------|-0--0-0-0-0-0-0-|-------------|
|
| Gtr II
| Q  E E E E E E   Q  E E E E E E   Q  E E E E E E   Q  E Q  E Q
|----------------|----------------|----------------|-------------|
|----------------|----------------|----------------|-------------|
|----------------|-6--6-6-6-6-6-6-|----------------|-------------|
|-4--4-4-4-4-4-4-|-6--6-6-6-6-6-6-|-0--0-0-0-0-0-0-|-9--9-7--7-9-|
|-4--4-4-4-4-4-4-|-4--4-4-4-4-4-4-|-0--0-0-0-0-0-0-|-7--7-5--5-7-|
|-4--4-4-4-4-4-4-|----------------|-0--0-0-0-0-0-0-|-------------|


  Q  E E E E E E   Q  E E E E E E   Q  E E E E E E   Q  E Q  E Q
|----------------|----------------|----------------|-------------|
|----------------|----------------|----------------|-------------|
|----------------|-6--6-6-6-6-6-6-|----------------|-------------|
|-4--4-4-4-4-4-4-|-6--6-6-6-6-6-6-|-0--0-0-0-0-0-0-|-9--9-7--7-9-|
|-4--4-4-4-4-4-4-|-4--4-4-4-4-4-4-|-0--0-0-0-0-0-0-|-7--7-5--5-7-|
|-4--4-4-4-4-4-4-|----------------|-0--0-0-0-0-0-0-|-------------|
|
| Q  E E E E E E   Q  E E E E E E   Q  E E E E E E   Q  E Q  E Q
|----------------|----------------|----------------|-------------|
|----------------|----------------|----------------|-------------|
|----------------|-6--6-6-6-6-6-6-|----------------|-------------|
|-4--4-4-4-4-4-4-|-6--6-6-6-6-6-6-|-0--0-0-0-0-0-0-|-9--9-7--7-9-|
|-4--4-4-4-4-4-4-|-4--4-4-4-4-4-4-|-0--0-0-0-0-0-0-|-7--7-5--5-7-|
|-4--4-4-4-4-4-4-|----------------|-0--0-0-0-0-0-0-|-------------|


  Q  E E E E E E   Q  E E E E E E   Q  E E E E E E   Q  E Q  E Q
|----------------|----------------|----------------|-------------|
|----------------|----------------|----------------|-------------|
|----------------|-6--6-6-6-6-6-6-|----------------|-------------|
|-4--4-4-4-4-4-4-|-6--6-6-6-6-6-6-|-0--0-0-0-0-0-0-|-9--9-7--7-9-|
|-4--4-4-4-4-4-4-|-4--4-4-4-4-4-4-|-0--0-0-0-0-0-0-|-7--7-5--5-7-|
|-4--4-4-4-4-4-4-|----------------|-0--0-0-0-0-0-0-|-------------|
|
| Q  E E E E E E   Q  E E E E E E   Q  E E E E E E   Q  E Q  E Q
|----------------|----------------|----------------|-------------|
|----------------|----------------|----------------|-------------|
|----------------|-6--6-6-6-6-6-6-|----------------|-------------|
|-4--4-4-4-4-4-4-|-6--6-6-6-6-6-6-|-0--0-0-0-0-0-0-|-9--9-7--7-9-|
|-4--4-4-4-4-4-4-|-4--4-4-4-4-4-4-|-0--0-0-0-0-0-0-|-7--7-5--5-7-|
|-4--4-4-4-4-4-4-|----------------|-0--0-0-0-0-0-0-|-------------|


  Q  E E E E E E   Q  E E E E E E   Q  E E E E E E   E E E E E E E E
|----------------|----------------|----------------|------------------|
|----------------|----------------|----------------|------------------|
|----------------|-6--6-6-6-6-6-6-|----------------|------------------|
|-4--4-4-4-4-4-4-|-6--6-6-6-6-6-6-|-0--0-0-0-0-0-0-|-0-0-0-0-0-0-0-0--|
|-4--4-4-4-4-4-4-|-4--4-4-4-4-4-4-|-0--0-0-0-0-0-0-|-0-0-0-0-0-0-0-0--|
|-4--4-4-4-4-4-4-|----------------|-0--0-0-0-0-0-0-|-0-0-0-0-0-0-0-0--|
|
| Q  E E E E E E   Q  E E E E E E   Q  E E E E E E   E E E E E E E E
|----------------|----------------|----------------|------------------|
|----------------|----------------|----------------|------------------|
|----------------|-6--6-6-6-6-6-6-|----------------|------------------|
|-4--4-4-4-4-4-4-|-6--6-6-6-6-6-6-|-0--0-0-0-0-0-0-|-0-0-0-0-0-0-0-0--|
|-4--4-4-4-4-4-4-|-4--4-4-4-4-4-4-|-0--0-0-0-0-0-0-|-0-0-0-0-0-0-0-0--|
|-4--4-4-4-4-4-4-|----------------|-0--0-0-0-0-0-0-|-0-0-0-0-0-0-0-0--|


  E E E E E E E E   H    H      H    E Q.
|-----------------|-----------|--------------|
|-----------------|-----------|--------------|
|-----------------|-----------|--------------|
|-2-2-2-2-2-2-2-2-|-0----0----|-0----0-------|
|-2-2-2-2-2-2-2-2-|-0----0----|-0----0-------|
|-2-2-2-2-2-2-2-2-|-0----0----|-0----0-------|
|
| E E E E E E E E   H    H      H    E Q.
|-----------------|-----------|--------------|
|-----------------|-----------|--------------|
|-----------------|-----------|--------------|
|-2-2-2-2-2-2-2-2-|-0----0----|-0----0-------|
|-2-2-2-2-2-2-2-2-|-0----0----|-0----0-------|
|-2-2-2-2-2-2-2-2-|-0----0----|-0----0-------|


 Chorus
  Q  E E E E E E   E E E E E E E E   Q  E E E E E E   E E E E E E E E
|----------------|-----------------|----------------|------------------|
|----------------|-----------------|----------------|------------------|
|----------------|-----------------|----------------|------------------|
|-4--4-4-4-4-4-4-|-4-4-4-4-4-4-4-4-|-7--7-7-7-7-7-7-|-7-7-7-7-7-7-7-7--|
|-4--4-4-4-4-4-4-|-4-4-4-4-4-4-4-4-|-7--7-7-7-7-7-7-|-7-7-7-7-7-7-7-7--|
|-4--4-4-4-4-4-4-|-4-4-4-4-4-4-4-4-|-7--7-7-7-7-7-7-|-7-7-7-7-7-7-7-7--|
|
| Q  E E E E E E   E E E E E E E E   Q  E E E E E E   E E E E E E E E
|----------------|-----------------|----------------|------------------|
|----------------|-----------------|----------------|------------------|
|----------------|-----------------|----------------|------------------|
|-4--4-4-4-4-4-4-|-4-4-4-4-4-4-4-4-|-7--7-7-7-7-7-7-|-7-7-7-7-7-7-7-7--|
|-4--4-4-4-4-4-4-|-4-4-4-4-4-4-4-4-|-7--7-7-7-7-7-7-|-7-7-7-7-7-7-7-7--|
|-4--4-4-4-4-4-4-|-4-4-4-4-4-4-4-4-|-7--7-7-7-7-7-7-|-7-7-7-7-7-7-7-7--|


  Q  E E E E E E   E E E E E E E E    E E E E E E  E E   E E E E  E E E E
|----------------|-----------------|-------------------|-------------------|
|----------------|-----------------|-10-----9-----10---|---9-----10---9----|
|----------------|-----------------|-------------------|-------------------|
|-2--2-2-2-2-2-2-|-2-2-2-2-2-2-2-2-|--7-----6------7---|---6------7---6----|
|-2--2-2-2-2-2-2-|-2-2-2-2-2-2-2-2-|-------------------|-------------------|
|-2--2-2-2-2-2-2-|-2-2-2-2-2-2-2-2-|----0-0---0-0----0-|-0---0-0----0---0--|
|
| Q  E E E E E E   E E E E E E E E    E E E E E E  E E   E E E E  E E E E
|----------------|-----------------|-------------------|-------------------|
|----------------|-----------------|-10-----9-----10---|---9-----10---9----|
|----------------|-----------------|-------------------|-------------------|
|-2--2-2-2-2-2-2-|-2-2-2-2-2-2-2-2-|--7-----6------7---|---6------7---6----|
|-2--2-2-2-2-2-2-|-2-2-2-2-2-2-2-2-|-------------------|-------------------|
|-2--2-2-2-2-2-2-|-2-2-2-2-2-2-2-2-|----0-0---0-0----0-|-0---0-0----0---0--|


  Q  E E E E E E   E E E E E E E E   Q  E E E E E E   E E E E E E E E
|----------------|-----------------|----------------|------------------|
|----------------|-----------------|----------------|------------------|
|----------------|-----------------|----------------|-------------7h9--|
|-4--4-4-4-4-4-4-|-4-4-4-4-4-4-4-4-|-7--7-7-7-7-7-7-|-7-7-7-7-7-7------|
|-4--4-4-4-4-4-4-|-4-4-4-4-4-4-4-4-|-7--7-7-7-7-7-7-|-7-7-7-7-7-7-5h7--|
|-4--4-4-4-4-4-4-|-4-4-4-4-4-4-4-4-|-7--7-7-7-7-7-7-|-7-7-7-7-7-7------|
|
| Q  E E E E E E   E E E E E E E E   Q  E E E E E E   E E E E E E E E
|----------------|-----------------|----------------|------------------|
|----------------|-----------------|----------------|------------------|
|----------------|-----------------|----------------|-------------7h9--|
|-4--4-4-4-4-4-4-|-4-4-4-4-4-4-4-4-|-7--7-7-7-7-7-7-|-7-7-7-7-7-7------|
|-4--4-4-4-4-4-4-|-4-4-4-4-4-4-4-4-|-7--7-7-7-7-7-7-|-7-7-7-7-7-7-5h7--|
|-4--4-4-4-4-4-4-|-4-4-4-4-4-4-4-4-|-7--7-7-7-7-7-7-|-7-7-7-7-7-7------|


  Q  E E E E E E   E E E E E E E E    E E E E E E  E E   E E E E  E E E E
|----------------|-----------------|-------------------|-------------------|
|----------------|-----------------|-10-----9-----10---|---9-----10---9----|
|----------------|-----------------|-------------------|-------------------|
|-2--2-2-2-2-2-2-|-2-2-2-2-2-2-2-2-|--7-----6------7---|---6------7---6----|
|-2--2-2-2-2-2-2-|-2-2-2-2-2-2-2-2-|-------------------|-------------------|
|-2--2-2-2-2-2-2-|-2-2-2-2-2-2-2-2-|----0-0---0-0----0-|-0---0-0----0---0--|
|
| Q  E E E E E E   E E E E E E E E    E E E E E E  E E   E E E E  E E E E
|----------------|-----------------|-------------------|-------------------|
|----------------|-----------------|-10-----9-----10---|---9-----10---9----|
|----------------|-----------------|-------------------|-------------------|
|-2--2-2-2-2-2-2-|-2-2-2-2-2-2-2-2-|--7-----6------7---|---6------7---6----|
|-2--2-2-2-2-2-2-|-2-2-2-2-2-2-2-2-|-------------------|-------------------|
|-2--2-2-2-2-2-2-|-2-2-2-2-2-2-2-2-|----0-0---0-0----0-|-0---0-0----0---0--|


 Outro
  Q  E E E E E E   Q  E E E E E E   Q  E E E E E E   Q  E E E E E E
|----------------|--------x-x-x-x-|----------------|-----------------|
|----------------|--------x-x-x-x-|----------------|-----------------|
|--------6h7p6p2-|--------x-x-x-x-|--------6h7p6p2-|------------4-4--|
|-4--4-4---------|-0--0-0-x-x-x-x-|-4--4-4---------|-0--0-0-2-2------|
|-4--4-4-4h5p4p0-|-0--0-0-x-x-x-x-|-4--4-4-4h5p4p0-|-0--0-0-2-2------|
|-4--4-4---------|-0--0-0-x-x-x-x-|-4--4-4---------|-0--0-0-2-2------|
|
| W                W                Q  E E E E E E   Q  E E E E E E
|----------------|----------------|----------------|-----------------|
|----------------|----------------|----------------|-----------------|
|----------------|----------------|--------6h7p6p2-|------------4-4--|
|----------------|----------------|-4--4-4---------|-0--0-0-2-2------|
|----------------|----------------|-4--4-4-4h5p4p0-|-0--0-0-2-2------|
|----------------|----------------|-4--4-4---------|-0--0-0-2-2------|


    Q  E E E E E E   Q  E E E E E E   Q  E E E E E E   Q  E E E E E E
||-----------------|----------------|----------------|-----------------||
||o----------------|----------------|----------------|----------------o||
||---------6h7p6p2-|------------4-4-|--------6h7p6p2-|------------4-4--||
||--4--4-4---------|-0--0-0-2-2-----|-4--4-4---------|-0--0-0-2-2------||
||o-4--4-4-4h5p4p0-|-0--0-0-2-2-----|-4--4-4-4h5p4p0-|-0--0-0-2-2-----o||
||--4--4-4---------|-0--0-0-2-2-----|-4--4-4---------|-0--0-0-2-2------||
|
|   Q  E E E E E E   Q  E E E E E E   Q  E E E E E E   Q  E E E E E E
||-----------------|----------------|----------------|-----------------||
||o----------------|----------------|----------------|----------------o||
||---------6h7p6p2-|------------4-4-|--------6h7p6p2-|------------4-4--||
||--4--4-4---------|-0--0-0-2-2-----|-4--4-4---------|-0--0-0-2-2------||
||o-4--4-4-4h5p4p0-|-0--0-0-2-2-----|-4--4-4-4h5p4p0-|-0--0-0-2-2-----o||
||--4--4-4---------|-0--0-0-2-2-----|-4--4-4---------|-0--0-0-2-2------||


  Q  E E E E E E   Q  E E E E E E   Q  E E E E E E   Q  E E E E E E
|----------------|----------------|----------------|-----------------|
|----------------|----------------|----------------|-----------------|
|--------6h7p6p2-|------------4-4-|--------6h7p6p2-|------------4-4--|
|-4--4-4---------|-0--0-0-2-2-----|-4--4-4---------|-0--0-0-2-2------|
|-4--4-4-4h5p4p0-|-0--0-0-2-2-----|-4--4-4-4h5p4p0-|-0--0-0-2-2------|
|-4--4-4---------|-0--0-0-2-2-----|-4--4-4---------|-0--0-0-2-2------|
|
| Q  E E E E E E   Q  E E E E E E   Q  E E E E E E   Q  E E E E E E
|----------------|----------------|----------------|-----------------|
|----------------|----------------|----------------|-----------------|
|--------6h7p6p2-|------------4-4-|--------6h7p6p2-|------------4-4--|
|-4--4-4---------|-0--0-0-2-2-----|-4--4-4---------|-0--0-0-2-2------|
|-4--4-4-4h5p4p0-|-0--0-0-2-2-----|-4--4-4-4h5p4p0-|-0--0-0-2-2------|
|-4--4-4---------|-0--0-0-2-2-----|-4--4-4---------|-0--0-0-2-2------|


  Q  E E E E E E   Q  E E E E E E   Q  E E E E E E   E E E E E Q.
|----------------|----------------|----------------|---------------*|
|----------------|----------------|----------------|---------------*|
|--------6h7p6p2-|------------4-4-|--------6h7p6p2-|---------------*|
|-4--4-4---------|-0--0-0-2-2-----|-4--4-4---------|-0-0-0-0-2-----*|
|-4--4-4-4h5p4p0-|-0--0-0-2-2-----|-4--4-4-4h5p4p0-|-0-0-0-0-2-----*|
|-4--4-4---------|-0--0-0-2-2-----|-4--4-4---------|-0-0-0-0-2-----*|
|
| Q  E E E E E E   Q  E E E E E E   Q  E E E E E E   E E E E E Q.
|----------------|----------------|----------------|---------------*|
|----------------|----------------|----------------|---------------*|
|--------6h7p6p2-|------------4-4-|--------6h7p6p2-|---------------*|
|-4--4-4---------|-0--0-0-2-2-----|-4--4-4---------|-0-0-0-0-2-----*|
|-4--4-4-4h5p4p0-|-0--0-0-2-2-----|-4--4-4-4h5p4p0-|-0-0-0-0-2-----*|
|-4--4-4---------|-0--0-0-2-2-----|-4--4-4---------|-0-0-0-0-2-----*|




--------------------------------------------------------------------------------


Duration Legend
---------------
W - whole; H - half; Q - quarter; E - 8th; S - 16th; T - 32nd; X - 64th; a - acciaccatura
+ - note tied to previous; . - note dotted; .. - note double dotted
Uncapitalized letters represent notes that are staccato (1/2 duration)
Irregular groupings are notated above the duration line
Duration letters will always appear directly above the note/fret number it represents the
duration for.  Duration letters with no fret number below them represent rests.  Multi-
bar rests are notated in the form Wxn, where n is the number of bars to rest for.  Low
melody durations appear below the staff

Tablature Legend
----------------
 h   - hammer-on
 p   - pull-off
 b   - bend
 pb  - pre-bend
 r   - bend release (if no number after the r, then release immediately)
 /\  - slide into or out of (from/to "nowhere")
 s   - legato slide
 S   - shift slide
<n> - natural harmonic
[n]  - artificial harmonic
n(n) - tapped harmonic
 ~   - vibrato
 tr  - trill
 T   - tap
 TP  - trem. picking
 PM  - palm muting
\n/  - tremolo bar dip; n = amount to dip
 \n  - tremolo bar down
 n/  - tremolo bar up
/n\  - tremolo bar inverted dip
 =   - hold bend; also acts as connecting device for hammers/pulls
 <> - volume swell (louder/softer)
 x   - on rhythm slash represents muted slash
 o   - on rhythm slash represents single note slash

Misc Legend
-----------
 |  - bar
||  - double bar
||o - repeat start
o|| - repeat end
*|  - double bar (ending)
 :  - bar (freetime)
 $  - Segno
 &  - Coda
Tempo markers - <E/E./Q/Q./H/H.> = BPM(8/16=s8/s16), where s8 = swing 8ths, s16 = swing 16ths



--------------------------------------------------------------------------------

** Generated using Power Tab Editor by Brad Larsen: The Official Power Tab Web Site
comments
We did not receive enough feedback on this tab! Please rate:
print report bad tab
1 2 3 4 5
I want to post or [tab]
guest
You may want to rate the tab now too:
select rating
Please do not post tabs as comments. Select "correction" instead!