Oops, an error
Loading. Please wait.

Page Avenue Tab

ver1
ver1

Album

Whole song

More versions @911Tabs.com
4,329 views 3 this week
4 commentsread comments
1 2 3 4 5
accurate
x 8
Autoscroll
+/-
esc
set tempo
stop
Contributor
WARNING: You are trying to view
                                    content from Ultimate-Guitar.com
                                    in an unauthorized application,
                                    which is prohibited.

                                    Please use an official Ultimate
                                    Guitar Tabs application for iPhone,
                                    iPad or Android to access legitimate
                                    chords, guitar, bass, and drum tabs
                                    from Ultimate-Guitar.com database.

                                    Type "ultimate guitar tabs" in Apple
                                    App Store's or Android Market's
                                    search to find the application.
Page Avenue by Story of The Year, www.Ultimate-Guitar.com

Song: And The Hero Will Drown
Artist: Story of The Year
Album: Page Avenue
Tuning: Drop D (D-A-D-G-B-E)
Tabber: Volcom_Prophecy

I first heard about these guys on the Need for Speed underground game and it was a great song
so I had too learn more about them.  Next I saw them in conert when they were on the Linkin Park
Tour I they took the  stage,  great band, great Album.  I suggest you buy it.

> - strumming not defined
. - palm mute
~ - ring out


Intro (Tremolo picking and sum effect)
E|-----------------------------------------------------|
B|-----------------------------------------------------|
G|-9>----11>----12>----11>-----------------------------|
D|-----------------------------------------------------|
A|-----------------------------------------------------|
D|-----------------------------------------------------|

E|-----------------------------------------------------|
B|-----------------------------------------------------|
G|-9>----11>----12>----14>----16>----------------------|
D|--------------------------------------0-2------------|
A|--------------------------------------0-2------------|
D|--------------------------------------0-2------------|

Verse x2
E|-----------------------------------------------------|
B|-----------------------------------------------------|
G|-----------------------------------------------------|
D|-3-2-0-2----3-2-0-2-----3-2-0-222-22-0-0-0-00--------|
A|-3-2-0-2----3-2-0-2-----3-2-0-222-22-0-0-0-00--------|
D|-3-2-0-2----3-2-0-2-----3-2-0-222-22-0-0-0-00--------|

Pre-Chorus
E|-----------------------------------------------------|
B|-----------------------------------------------------|
G|-----------------------------------------------------|
D|--0~---0--0-0~---------------------------------------|
A|--0~---0--0-0~---------------------------------------|
D|--0~---0--0-0~---------------------------------------|
         .  .

Chorus x2
E|-----------------------------------------------------|
B|-----------------------------------------------------|
G|9>--4>--5>--7>---------------------------------------|
D|9>--4>--5>--7>---------------------------------------|
A|7>--2>--3>--5>---------------------------------------|
D|-----------------------------------------------------|

Verse again

Verse variation:
E|-----------------------------------------------------|
B|-----------------------------------------------------|
G|-----------------------------------------------------|
D|-3-2-0-2---3-2-0-2---2-2-2--2-2---2-2-2--2-2---------|
A|-3-2-0-2---3-2-0-2---2-2-2--2-2---2-2-2--2-2---------|
D|-3-2-0-2---3-2-0-2---2-2-2--2-2---2-2-2--2-2---------|
                         .            .  
Verse again

Chorus x4

Bridge
E|-----------------------------------------------------|
B|-----------------------------------------------------|
G|-----------------------------------------------------|
D|-3-2-0-2-2-2---------2-2-2--2-2-2--2-2-2--2~---------|
A|-3-2-0-2-2-2---------2-2-2--2-2-2--2-2-2--2~---------|
D|-3-2-0-2-2-2---------2-2-2--2-2-2--2-2-2--2~---------|

E|-----------------------------------------------------|
B|-----------------------------------------------------|
G|--------777---------777---------777---------777------|
D|-2-2-2--777--2-2-2--777--2-2-2--777--2-2-2--777------|
A|-2-2-2--555--2-2-2--555--2-2-2--555--2-2-2--555------|
D|-2-2-2-------2-2-2-------2-2-2-------2-2-2-----------|

E|-----------------------------------------------------|
B|-----------------------------------------------------|
G|--------777---------777---------777---------777------|
D|-0-2-2--777--0-2-2--777--0-2-2--777--0-2-2--777------|
A|-0-2-2--555--0-2-2--555--0-2-2--555--0-2-2--555------|
D|-0-2-2-------0-2-2-------0-2-2-------0-2-2-----------|


E|-----------------------------------------------------|
B|-----------------------------------------------------|
G|-----------------------------------------------------|
D|2-2-2-000-2-2-2-000--(x4)----------------------------|
A|2-2-2-000-2-2-2-000----------------------------------|
D|2-2-2-000-2-2-2-000----------------------------------|

Pre-Chorus

Chorus variation (same as chorus but with light distortion/volume)

Fill
E|-----------------------------------------------------|
B|-----------------------------------------------------|
G|-----------------------------------------------------|
D|--2>-------------------------------------------------|
A|--2>-------------------------------------------------|
D|--2>-------------------------------------------------|

Chorus x3 

Outro
E|-----------------------------------------------------|
B|-----------------------------------------------------|
G|--------777---------777---------777---------777------|
D|-2-2-2--777--2-2-2--777--2-2-2--777--2-2-2--777------|
A|-2-2-2--555--2-2-2--555--2-2-2--555--2-2-2--555------|
D|-2-2-2-------2-2-2-------2-2-2-------2-2-2-----------|

E|-----------------------------------------------------|
B|-----------------------------------------------------|
G|-----------------------------------------------------|
D|--2-2-2--222---(until the end where you play---------|
A|--2-2-2--222-------the first three notes and---------|
D|--2-2-2--222--------------------let ring out)--------|
           ...
============================================================================
============================================================================
============================================================================
============================================================================

Song: Until The Day I Die
Artist: Story of The Year
Album: Page Avenue

   Intro (Distortion)
   |---------------------------------------------------|
   |---------------------------------------------------|
x2 |---------------14--------------------14------------|  #1  Palm Muted Here
   |------12----12----12----12--12----12----12----12---|
   |---14----14----------14--------14----------14------|
   |---------------------------------------------------|

   On #2 and #3, slide down on the first note but then leave it out on the repeat.

   Guitar 1 : Here it helps to use all downstrokes and some sort of muting technique a little bit.
   |------------------------------------------------------------------------------------------|
   |---15--15-15-15--15-15-15---14-14-14--14-14-14--------------------------------------------|
x2 |---14--14-14-14--14-14-14---14-14-14--14-14-14---14-14-14--14-14-14--14-14-14--14-14-14---|  #2
   |---12--12-12-12--12-12-12---12-12-12--12-12-12---12-12-12--12-12-12--12-12-12--12-12-12---|
   |-------------------------------------------------12-12-12--12-12-12--12-12-12--12-12-12---|
   |------------------------------------------------------------------------------------------|

   Guitar 2
   |-----------------------------------------------------------|
   |-----------------------------------------------------------|
x2 |---7---4-4-4--4-4-4--4-4--6--7---------------------2-2-2---|  #3
   |---7---4-4-4--4-4-4--4-4--6--7--5-5-5--5-5-5--5-5--2-2-2---|
   |---5---2-2-2--2-2-2--2-2--4--5--5-5-5--5-5-5--5-5--0-0-0---|
   |--------------------------------3-3-3--3-3-3--3-3----------|

   Guitar 1 (palm muted again)
  |--------------------------------------------------------------------------------------------|
  |--------------------------------------------------------------------------------------------|
x3|------------14--------------------14-----------------------14--------------------16---------|#4
  |---12----12----12----12--12----12----12----12-----12----12----12----12--14-11-14----14-11-14|
  |14----14----------14--------14----------14-----14----14----------14-------------------------|
  |--------------------------------------------------------------------------------------------|
  
  Ointo chorus.
  |----------------------------------------------------------------------------------------------|
  |----------------------------------------------------------------------------------------------|
x1|------------14--------------------14-----------------------14-14-14-14-------------14-14-14-14|#5
  |---12----12----12----12--12----12----12----12-----12----12----------------12----12------------|
  |14----14----------14--------14----------14-----14----14----------------14----14---------------|
  |----------------------------------------------------------------------------------------------|

   Guitar 2
   Let these two ring.
   |---------|
   |---------|
x1 |---7-----|  #6
   |-----7---|
   |---------|
   |---------|

   Palm muted.
   |------------------------------------------------------------------------|
   |------------------------------------------------------------------------|
x1 |---4-4-4-4-4-4-4-4-------------------7-7-7-7-7-7-7-7--2-2-2-2-2-2-2-2---|  #7
   |---4-2-2-2-2-2-2-2--5-5-5-5-5-5-5-5--7-7-7-7-7-7-7-7--2-2-2-2-2-2-2-2---|
   |---2-2-2-2-2-2-2-2--5-5-5-5-5-5-5-5--5-5-5-5-5-5-5-5--0-0-0-0-0-0-0-0---|
   |--------------------3-3-3-3-3-3-3-3-------------------------------------|


   |---------------------------------------------------------------------------|
   |---------------------------------------------------------------------------|
x1 |---4-4-4-4-4-4-4-4----------------------4-4-4-4-4-4-4-4--2-2-2-2-2-2-2-2---|  #8
   |---4-2-2-2-2-2-2-2--5-5-5-5-5-5-5-5-----2-2-2-2-2-2-2-2--2-2-2-2-2-2-2-2---|
   |---2-2-2-2-2-2-2-2--5-5-5-5-5-5-5-5-----2-2-2-2-2-2-2-2--0-0-0-0-0-0-0-0---|
   |--------------------3-3-3-3-3-3-3-3----------------------------------------|
                                            ^Open distortion here.

   Guitar 1(after a short pause)
   |-----------------------------------------------------------------------|
   |---------------------------------------15-15H17L15-15H17L15-15H17L15---|
x1 |---14-14-14-14---14-14-14-14-------------------------------------------|  #9
   |-----------------------------12----12----------------------------------|
   |--------------------------------14-------------------------------------|
   |-----------------------------------------------------------------------|

   |---------------------------------------------------------------------------------------------|
   |---------------------------------------------------------------------------------------------|
x1 |14-14-14-14-----------14-14-14-14-----------14-14-14-14------------14-14-14-14-14-14-14-14---|#10
   |------------12-11-----------------12-11-----------------12-11--------------------------------|
   |------------------12--------------------12--------------------12-----------------------------|
   |---------------------------------------------------------------------------------------------|
                                                                        ^tiny pause 
   Guitar 2                                                              between these two parts
   |-----------------------------------|
   |-----------------------------------|
x3 |----------2-2-2--4-4-4-4-4-4-4-4---|  #11
   |---5-5-5--2-2-2--4-4-4-4-4-4-4-4---|
   |---5-5-5--0-0-0--2-2-2-2-2-2-2-2---|
   |---3-3-3---------------------------|

   |------------------|
   |------------------|
x1 |----------2-2-2---|  #12
   |---5-5-5--2-2-2---|
   |---5-5-5--0-0-0---|
   |---3-3-3----------|

   Guitar 1

Repeat #4
Repeat #5

   Guitar 2
   
   Palm muted.
   |------------------------------------------------------------------------|
   |------------------------------------------------------------------------|
x2 |---4-4-4-4-4-4-4-4-------------------7-7-7-7-7-7-7-7--2-2-2-2-2-2-2-2---|  #13
   |---4-2-2-2-2-2-2-2--5-5-5-5-5-5-5-5--7-7-7-7-7-7-7-7--2-2-2-2-2-2-2-2---|
   |---2-2-2-2-2-2-2-2--5-5-5-5-5-5-5-5--5-5-5-5-5-5-5-5--0-0-0-0-0-0-0-0---|
   |--------------------3-3-3-3-3-3-3-3-------------------------------------|

   Accent each third note and let ring just a little bit.
   |-----------------------------------------------------------|
   |-----------------------------------------------------------|
x1 |---4-4-4-4-4-4-----------------7-7-7-7-7-7---2-2-2-2-2-2---|  #14
   |---4-2-2-2-2-2---5-5-5-5-5-5---7-7-7-7-7-7---2-2-2-2-2-2---|
   |---2-2-2-2-2-2---5-5-5-5-5-5---5-5-5-5-5-5---0-0-0-0-0-0---|
   |-----------------3-3-3-3-3-3-------------------------------|

Repeat #8

   Guitar 1

Repeat #9
Repeat #10
This one part below seems to be a little more busy.
|----------------------------|
|-----------------------10---|
|-----------------11-12------|  #15
|------12-11-9-12------------|
|---10-----------------------|
|----------------------------|

   Guitar 2

Repeat #11

   |------------------------------------------|
   |------------------------------------------|
x1 |----------2-2-2---4-4--2-2----------------|  #16
   |---5-5-5--2-2-2---4-4--2-2--5-5-5-5-5-5---|
   |---5-5-5--0-0-0---2-2--0-0--5-5-5-5-5-5---|
   |---3-3-3--------------------3-3-3-3-3-3---|

   
   |---------------------------|
   |---------------------------|
x3 |---4-4--2-2----------------|  #17
   |---4-4--2-2--5-5-5-5-5-5---| 
   |---2-2--0-0--5-5-5-5-5-5---|
   |-------------3-3-3-3-3-3---|

   |----------------------|
   |------------------3---|
x1 |---4-4--2-2-------4---|  #18
   |---4-4--2-2--5-5------|
   |---2-2--0-0--5-5------|
   |-------------3-3------|
                      ^Let this note ring.

   Guitar 1 (very little difference between the two)
   |-----------------------------------------------------------------------------------------------|
   |-----------------------------------------------------------------------------------------------|
x5 |-----------------------------------------------------------------------------------------------|#19
   |------------12-------12-----------12-------12--------------12-------12-----------11H12L11----11|
   |14-14-14-14----14-14-----12-12-12----12-12-----10-10-10-10----10-10-----12-12-12----------12---|
   |-----------------------------------------------------------------------------------------------|

   |-------------------------------------------------------------------------------|
   |-------------------------------------------------------------------------------|
x1 |-------------------------------------------------------------------------------|  #20
   |---------------12-------12-----------12-------12--------------12---------------|
   |---14-14-14-14----14-14-----12-12-12----12-12-----10-10-10-10----10-10-10-12---|
   |-------------------------------------------------------------------------------|

   Guitar 2

Repeat #6 4 times.

Play #3 three times minus the first note.
Play #18 minus the last note.

   Guitar 1

Repeat #2 twice with repeats.

|-----------------------------|
|-----------------------------|
|---------------12-11---------|  #21
|---------12-14-------14-12---|
|---12-14---------------------|
|-----------------------------|
============================================================================
============================================================================
============================================================================
============================================================================

Song: Anthem of Our Dying Day
Artist: Story of The Year
Album: Page Avenue
Tuning: Drop D (D-A-D-G-B-E)

.  - palm mute
b  - bend
r  - release
0x - mute after strumming)
>  - strumming not defined
x  - scratching


GUITAR 1'S PARTS:
-----------------
Intro:  (You figure out strumming)
e|-------------------------------------|
B|-------------------------------------|
G|---------11>----9>--------11>---9~---|
D|---7>----11>----9>---7>---11>---9~---|
A|---4>-----9>----7>---4>----9>---7~---|
D|---4>-----0>----0>---4>----0>---0~---|

Intro Cont'd:  "Stars will cry..."  (3x)  (You figure out strumming)
e|---------------------------------------------------------------------------|
B|---------------------------------------------------------------------------|
G|--------11>---9>-----------------------------------------------------------|
D|---7>---11>---9>-----------------------------------------------------------|
A|---7>----9>---7>-----------------------------------------------------------|
D|---4>----0>---0>-----------------------------------------------------------|

Intro Cont'd:
e|---------------------------------------------------------------------------|
B|---------------------------------------------------------------------------|
G|--------11>---9-9-9-9-----9-9-9-9-----9-9-9-9-----9-9-9-9------------------|
D|---7>---11>---x-x-x-x-x-x-x-x-x-x-x-x-x-x-x-x-x-x-x-x-x-x-x-x--------------|
A|---7>----9>---7-7-7-7-x-x-7-7-7-7-x-x-7-7-7-7-x-x-7-7-7-7-x-x--------------|
D|---4>----0>---0-0-0-0-x-x-0-0-0-0-x-x-0-0-0-0-x-x-0-0-0-0-x-x--------------|

Chorus:  "From up here..."  (You figure out strumming)
e|---------------------------------------------------------------------------|
B|---------------------------------------------------------------------------|
G|---------------------------------------------------------------------------|
D|---7>---2>---7>---7>--7>---------------------------------------------------|
A|---7>---2>---4>---4>--5>---------------------------------------------------|
D|---7>---2>---4>------------------------------------------------------------|

Bridge:  (Harmonics)
e|-------------------------------------------------|
B|-------------------------------------------------|
G|-------------------------------------------------|
D|-------7----------7----------7-------------------|
A|---7-----7----7-----7----7-----7--0-0-0-0-0-0x---|
D|-----7----------7----------7------0-0-0-0-0-0x---|
                                    ...........

Verse:  "For a second I..."  (play this one on 2x, 3x and 4th time)
e|----------------------|----------------------------------------------------|
B|----------------------|------------(All harmonics)-------------------------|
G|------9b11r9--9b10r9--|----------------------------------------------------|
D|----------------------|----------7-----------7-----------7-----------7-----|
A|----------------------|------7-----7-----7-----7-----7-----7-----7-----7---|
D|----------------------|--9-9---7-----9-9---7-----9-9---7-----9-9---7-------|

Verse Cont'd:                (2nd half of 4th measure)
e|------------------------|--------------------------------------------------|
B|------------------------|--------------------------------------------------|
G|------------------------|-9-9-9-9-----9-9-9-9-----9-9-9-9-----9-9-9-9------|
D|0-0-0-0-0-0-0-0-0-0-0-0-|-x-x-x-x-x-x-x-x-x-x-x-x-x-x-x-x-x-x-x-x-x-x-x-x--|
A|0-0-0-0-0-0-0-0-0-0-0-0-|-7-7-7-7-x-x-7-7-7-7-x-x-7-7-7-7-x-x-7-7-7-7-x-x--|
D|0-0-0-0-0-0-0-0-0-0-0-0-|-0-0-0-0-x-x-0-0-0-0-x-x-0-0-0-0-x-x-0-0-0-0-x-x--|

Repeat Chorus

2nd Bridge:  "...of our dying day..."
e|---------------------------------------------------------------------------|
B|---------------------------------------------------------------------------|
G|-----------------------7-7-7------------------------7-7-7------------------|
D|-4-4-4-4-4x--4-4-4-4-x-7-7-7--4-4-4-4-4x--4-4-4-4-x-7-7-7--7-7-7-7---------|
A|-4-4-4-4-4x--4-4-4-4-x-5-5-5--4-4-4-4-4x--4-4-4-4-x-5-5-5--5-5-5-5---------|
D|-4-4-4-4-4x--4-4-4-4-x--------4-4-4-4-4x--4-4-4-4-x------------------------|
                                                             .......

2nd Bridge Cont'd:
e|---------------------------------------------------------------------------|
B|---------------------------------------------------------------------------|
G|-----------------------7-7-7----------------------------------7-7-7---7-7-7|
D|-4-4-4-4-4x--4-4-4-4-x-7-7-7--4-4-4-4-4x--0-0-0-0-4-4-4-4-4-x-7-7-7-x-7-7-7|
A|-4-4-4-4-4x--4-4-4-4-x-5-5-5--4-4-4-4-4x--0-0-0-0-4-4-4-4-4-x-5-5-5-x-5-5-5|
D|-4-4-4-4-4x--4-4-4-4-x--------4-4-4-4-4x--0-0-0-0-4-4-4-4-4-x-------x------|
                                            .......

2nd Bridge Cont'd:
e|-------------------|
B|-------------------|
G|--7-7-7---7-7-7x---|
D|x-7-7-7-x-7-7-7x---|
A|x-5-5-5-x-5-5-5x---|
D|x-------x----------|

2nd Verse:  "For a second I..."  (bend a little on the octaves)
e|---------------------------------------------------------------------------|
B|---------------------------------------------------------------------------|
G|--------------9-9-9-9-----9-9-9-9-----9-9-9-9-----9-9-9-9------------------|
D|--------------x-x-x-x-x-x-x-x-x-x-x-x-x-x-x-x-x-x-x-x-x-x-x-x--------------|
A|--------------7-7-7-7-x-x-7-7-7-7-x-x-7-7-7-7-x-x-7-7-7-7-x-x--------------|
D|-Feedback-----0-0-0-0-x-x-0-0-0-0-x-x-0-0-0-0-x-x-0-0-0-0-x-x--------------|

Clean Chorus:  "From up here..."
e|-0>---0>---2>-------------|
B|-2>---0>---2>-------------|
G|-2>---1>---2>-------------|
D|-2>---2>---4>---7>--7>----|
A|-0>---2>---4>---4>--5>----|
D|------2>---4>-------------|

Repeat Chorus:  (2x)

1st Outro part:
e|------------------------------------------------|
B|------------------------------------------------|
G|------------------------------------------------|
D|-------7----------7----------7------------------|
A|---7-----7----7-----7----7-----7--0-0-0-0-0-0x--|
D|-----7----------7----------7------0-0-0-0-0-0x--|
                                    ...........

e|---------------------------------------------------------------------------|
B|---------------------------------------------------------------------------|
G|---------------------------------------------------------------------------|
D|-------7----------7----------7----x-0-0-0-x-0-0-0-x-0-0-0------------------|
A|---7-----7----7-----7----7-----7--x-0-0-0-x-0-0-0-x-0-0-0-0-0-0-0-0-0x-----|
D|-----7----------7----------7------x-0-0-0-x-0-0-0-x-0-0-0-0-0-0-0-0-0x-----|
                                                            ...........

2nd Outro Part:  (Clean)
e|-0>---0>---2>-----------|
B|-2>---0>---2>-----------|
G|-2>---1>---2>-----------|
D|-2>---2>---4>---7>--7>--|
A|-0>---2>---4>---4>--5>--|
D|------2>---4>-----------|

GUITAR 2'S PARTS:
-----------------
Intro:  (Only guitar 1, til distortion comes in)

End of intro:  "...exactly, exactly what I need"
e|----------------------------------------|
B|----------------------------------------|
G|----------------------------------------|
D|--x-x-x-x---x-x-x-x--x-x-x-x--x-x-x-x---|
A|--x-x-x-x---x-x-x-x--x-x-x-x--x-x-x-x---|
D|--x-x-x-x---x-x-x-x--x-x-x-x--x-x-x-x---|

Chorus:  (Play same as guitar 1)

Bridge:
e|-------------------------------|
B|-------------------------------|
G|-------------------------------|
D|-4x---4x---4x------------------|
A|-4x---4x---4x---0-0-0-0-0-0x---|
D|-4x---4x---4x---0-0-0-0-0-0x---|
                  ...........

Verse:  "For a second I..."
e|---------------------------------------------------------------------------|
B|-------------------------------------------- (Fade in and out)-------------|
G|--------------------------------------9-9-9-9-9-9-9-9-9-9-9-9-9-9-9-9-9-9-9|
D|--------------0-0-0-0-0-0-0-0-0-0-0-0--------------------------------------|
A|--------------0-0-0-0-0-0-0-0-0-0-0-0--------------------------------------|
D|--------------0-0-0-0-0-0-0-0-0-0-0-0--------------------------------------|
                                        .....................................

e|---------------------------------------------------------------------------|
B|------------------------------------------------------(Fade in and out)----|
G|9-9-9-9---9-9-9-9---9-9-9-9---9-9-9-9---9-9-9-9-9-9-9-9-9-9-9-9-9-9-9-9-9-9|
D|--------0---------0---------0---------0------------------------------------|
A|--------0---------0---------0---------0------------------------------------|
D|--------0---------0---------0---------0------------------------------------|
  .......   .......   .......   .......   ...................................

Verse Cont'd:
e|---------------------------------------------------------------------------|
B|---------------------------------------------------------------------------|
G|9-9-9-9-9-9-9-9-9-9-------------------------9-9-9-9-9-9-9-9-9-9-9-9-9-9-9-9|
D|--------------------0-0-0-0-0-0-0-0-0-0-0-0--------------------------------|
A|--------------------0-0-0-0-0-0-0-0-0-0-0-0--------------------------------|
D|--------------------0-0-0-0-0-0-0-0-0-0-0-0--------------------------------|

Verse Cont'd:
e|----------------------------------------------------------|
B|----------------------------------------------------------|
G|9-9-9-9-9-9-9-9-------------------------------------------|
D|----------------0-0-x-x-0-0-0-x-x-0-0-0-x-x-0-0-0-x-x-----|
A|----------------0-0-x-x-0-0-0-x-x-0-0-0-x-x-0-0-0-x-x-----|
D|----------------0-0-x-x-0-0-0-x-x-0-0-0-x-x-0-0-0-x-x-----|

Repeat Chorus

2nd Bridge:  "...of our dying day..."
e|---------------------------------------------------------------------------|
B|---------------------------------------------------------------------------|
G|-----------------------7-7-7------------------------7-7-7------------------|
D|-4-4-4-4-4x--4-4-4-4-x-7-7-7--4-4-4-4-4x--4-4-4-4-x-7-7-7--7-7-7-7---------|
A|-4-4-4-4-4x--4-4-4-4-x-5-5-5--4-4-4-4-4x--4-4-4-4-x-5-5-5--5-5-5-5---------|
D|-4-4-4-4-4x--4-4-4-4-x--------4-4-4-4-4x--4-4-4-4-x------------------------|
                                                             .......

2nd Bridge Cont'd:
e|---------------------------------------------------------------------------|
B|---------------------------------------------------------------------------|
G|-----------------------7-7-7----------------------------------7-7-7---7-7-7|
D|-4-4-4-4-4x--4-4-4-4-x-7-7-7--4-4-4-4-4x--0-0-0-0-4-4-4-4-4-x-7-7-7-x-7-7-7|
A|-4-4-4-4-4x--4-4-4-4-x-5-5-5--4-4-4-4-4x--0-0-0-0-4-4-4-4-4-x-5-5-5-x-5-5-5|
D|-4-4-4-4-4x--4-4-4-4-x--------4-4-4-4-4x--0-0-0-0-4-4-4-4-4-x-------x------|
                                            .......

2nd Bridge Cont'd:
e|---------------------|
B|---------------------|
G|--7-7-7---7-7-7x-----|
D|x-7-7-7-x-7-7-7x-----|
A|x-5-5-5-x-5-5-5x-----|
D|x-------x------------|

2nd Verse:  "For a second I..."  (bend a little on the octaves)
e|---------------------------------------------------------------------------|
B|---------------------------------------------------------------------------|
G|---------------------------------------------------------------------------|
D|--------------0-0-x-x-x-x-0-0-x-x-x-x-0-0-x-x-x-x-0-0-x-x-x-x--------------|
A|--------------0-0-x-x-x-x-0-0-x-x-x-x-0-0-x-x-x-x-0-0-x-x-x-x--------------|
D|-Feedback-----0-0-x-x-x-x-0-0-x-x-x-x-0-0-x-x-x-x-0-0-x-x-x-x--------------|

Clean Chorus:  (Only guitar 1)

Repeat Chorus:  (Pickslide into it)

1st Outro Part:
e|---------------------------------------------------------------------------|
B|---------------------------------------------------------------------------|
G|---------------------------------------------------------------------------|
D|-4x---4x---4x---------------4x---4x---4x---x-0-0-0-x-0-0-0-x-0-0-0---------|
A|-4x---4x---4x---0-0-0-0-0-0-4x---4x---4x---x-0-0-0-x-0-0-0-x-0-0-0-0-0-0-0-|
D|-4x---4x---4x---0-0-0-0-0-0-4x---4x---4x---x-0-0-0-x-0-0-0-x-0-0-0-0-0-0-0-|
                  ...........                                        .......

e|------|
B|------|
G|------|
D|------|
A|0-0x--|
D|0-0x--|
  ...

2nd Outro Part:  (Only guitar 1)
============================================================================
============================================================================
============================================================================
============================================================================

Song: In the Shadows
Artist: Story of The Year
Album: Page Avenue
Tuning: Drop D (D-A-D-G-B-E)

Intro    C      G            C	   C 	           C 	    C
e------------------------------------------------------------------|
b------------------------------------------------------------------|
g------------7-7-7-------5-5-5-----5-5-5------5-5-5-----5-5-5------|
d?5-5-5?-----5-5-5-------5-5-5-----5-5-5------5-5-5-----5-5-5------|
a?3-3-3------------------3-3-3-----3-3-3------3-3-3-----3-3-3------|
D------------------------------------------------------------------|
           Clean		Heavy Distortion
Verse
      E	   D	    E       C      G        D
e------------------------------------------------------------------|
b------------------------------------------------------------------|
g------------------------------------5-5---------------------------|
d- 2-2----------0-0----------2-2-----5-5-----5-5-----0-0-----------|
a- 2-2----------0-0----------2-2-----3-3-----5-5-----0-0-----------|
D--2-2----------0-0----------2-2-------------5-5-----0-0-----------|
		Heavy Distortion
		C
e------------------------------------------------------------------|
b------------------------------------------------------------------|
g-----------5-5-5-5-5-5-5------------------------------------------|
d-----------5-5-5-5-5-5-5------------(repeat 4X)-------------------|
a-----------3-3-3-3-3-3-3------------------------------------------|
D------------------------------------------------------------------|

Chorus  E		D		C
e------------------------------------------------------------------|
b------------------------------------------------------------------|
g-------------------------- ---5-5-5-5-5-5-5-5-5-5-5-5-------------|
d----2-2-2-2-2-0-0-0-0-0-0-0-0-5-5-5-5-5-5-5-5-5-5-5-5-------------|
a----2-2-2-2-2-0-0-0-0-0-0-0-0-3-3-3-3-3-3-3-3-3-5-5-5-------------|
D----2-2-2-2-2-0-0-0-0-0-0-0-0-------------------------------------|



This is basically the whole song.  You can figure out the other fills and
parts by listening to the song.  Just use the same chords, C, E, D, &G.
============================================================================
============================================================================
============================================================================
============================================================================

Song: Dive Right In
Artist: Story of The Year
Album: Page Avenue
Tuning: Drop D (D-A-D-G-B-E)

Key:
~ let ring
. palm mute
' very light palm mute (VERY LIGHT)
h hammer on
p pull off
s slide
\ slide down
, light on the 6th string


E|------------8----------------------||
B|---6-5-6-5-6--6-5-6-5-6-5-6-5~-----||
G|--5---5---5--5---5---5---5---------||
D|-----------------------------------||
A|-5---------------------------------||
D|-----------------------------------||


E|-----------------------------------------------------------
B|-----------------------------------------------------------
G|--------------10-10-10----------10-10-10-10101010-9-9-1010-
D|-12\-000-0000-8--8--8--000-0000-8--8--8--------------------
A|-12\-000-0000-8--8--8--000-0000-8--8--8--8-8-8-8--7-7-8-8--
D|-12\-000-0000----------000-0000----------------------------
       ..  ....          ... ....                                 2X

                                                                  
E|-------------------------------------||
B|-------------------------------------||
G|-12-12-12-12-12-12-12-12-------------||
D|-------------------------------------||
A|-10-10-10-10-10-10-10-10-------------||
D|-------------------------------------||



E|-------0h1--------0h1--------0h1--------0h1----0h1------||
B|----------1----------1----------1----------1------1-----||
G|--------------------------------------------------------||
D|-0-0-0------0-0-0------0-0-0------0-0-0-----------------||
A|-0-0-0------0-0-0------0-0-0------0-0-0-----------------||
D|-0-0-0------0-0-0------0-0-0------0-0-0-----------------||
   . .        . .        . .



E|-------------------------------------||
B|-------------------------------------||
G|-------------------------------------||
D|-0000000000000000-8-8888888888888888-||
A|-0000000000000000-8-8888888888888888-||
D|-0000000000000000-8-8888888888888888-||
   ................   ................

E|----------------------------------------------------------||
B|----------------------------------------------------------||
G|----------------------------------------------------------||
D|-10101010101010101010101010101010-77777777-8~-------------||
A|-10101010101010101010101010101010-77777777-8~-------------||
D|-10101010101010101010101010101010-77777777-8~-------------||
    ' ' ' ' ' ' ' ' ' ' ' ' ' ' ' '



E|---------------------------------------------------------------------------||
B|---------------------------------------------------------------------------||
G|----------101010----------101010-10101010-9-9-1010-12-12-12-12-12-12-12-12-||
D|-000-0000-8-8-8--000-0000-8-8-8--------------------------------------------|| 2X
A|-000-0000-8-8-8--000-0000-8-8-8--8-8-8-8--7-7-8-8--10-10-10-10-10-10-10-10-||
D|-000-0000--------000-0000--------------------------------------------------||
   ..  ....        ..  ....



E|---------------------------||
B|---------------------------||
G|---------------------------||
D|-000--0--000---00--000--0--||
A|-000--0--000---00--000--0--||
D|-000--0--000---00--000--0--||

Then play the pre-chorus
Then the chorus 4X




E|--------------------------------------------
B|--------------------------------------------
G|--------------------------------------------
D|-0~-0-3h5-0-1-000----10-000----10-888888-8--
A|-0~-0-3-3-0-1-000-7h8---000-7h8---888888-8--
D|-0~-0-3-3-0-1-000-------000-------888888-8--         
                ...       ...          ..


E|---------------------------------------------------
B|---------------------------------------------------
G|---------------------------------------------------
D|-3h5-0-1-000-5h7--000-5h7---------------3-5-0-1-0~--
A|-3-3-0-1-000----8-000-----8-555-55777-9-3-3-0-1-0~--
D|-3-3-0-1-000------000-------000-00000-0-3-3-0-1-0~--
                              ,,, ,,,,, ,

(this part of it is kinda the post chorus part)
E|--------------------------------------------------------------||
B|--------------------------------------------------------------||
G|--------------------------------------------------------------||
D|-~0~--8~s10101010101010101010101010101010101010101010101010\0-||
A|-~0~--8~s10101010101010101010101010101010101010101010101010\0-||
D|-~0~--8~s10101010101010101010101010101010101010101010101010\0-||

play chorus 4X 

then theres the ending
E|----------------------------
B|----------------------------
G|----------------------------
D|-0~----8~----10~----7~--8~--
A|-0~----8~----10~----7~--8~--
D|-0~----8~----10~----7~--8~--


E|------------8--------------8----------8----------------8------------||
B|---6-5-6-5-6--6-5-6-5-6-5-6--6-5-6-5-6--6-5-6-5-6-5---6--6-5-6-5----||
G|------5---5--5---5---5---5--5---5---5--5---5---5-----5--5---5-------||
D|--0-------------------------------------------------------------0~--||
A|----------------------------------------------------------------0~--||
D|-0--------------------------------------------------------------0~--||
============================================================================
============================================================================
============================================================================
============================================================================

Song:  Swallow the Knife
Artist: Story of The Year
Album: Page Avenue
Tuning: Standard E Tuning


You can figure out the strumming pattern
  Intro
e|---------------------------------------------------------------------------|
B|---------------------------------------------------------------------------|
G|---6-----------------------------------------------------------------------|
D|---6-----------------------------------------------------------------------|
A|---4-----------------------------------------------------------------------|
E|---------------------------------------------------------------------------|
  Verse  "so our open wounds will bleed..."
e|---------------------------------------------------------------------------|
B|---------------------------------------------------------------------------|
G|---6--------4--------6--------4--------------------------------------------|
D|---6--------4--------6--------4--------------------------------------------|
A|---4--------2--------4--------2--------------------------------------------|
E|---------------------------------------------------------------------------|
  Pre-chorus   "so swallow the knife...."
e|---------------------------------------------------------------------------|
B|---------------------------------------------------------------------------|
G|---2-----------------------------------------------------------------------|
D|---2-----------------------------------------------------------------------|
A|---0-----------------------------------------------------------------------|
E|---------------------------------------------------------------------------|
  Chorus  "Now our hands are tied..."
e|---------------------------------------------------------------------------|
B|---------------------------------------------------------------------------|
G|---6--------9--------------------------------------------------------------|
D|---6--------9--------9-----------------------------------------------------|
A|---4--------7--------9-----------------------------------------------------|
E|---------------------7-----------------------------------------------------|
  Bridge/End of song   "words are spoken...."
e|---------------------------------------------------------------------------|
B|---------------------------------------------------------------------------|
G|---2----|-----6--------4--------2--------4---------------------------------|
D|---2----|-----6--------4--------2--------4---------------------------------|
A|---0----|-----4--------2--------0--------2---------------------------------|
E|---------------------------------------------------------------------------|
  after bridge
e|---------------------------------------------------------------------------|
B|---------------------------------------------------------------------------|
G|---222--2--------------------------------------6-6-------------------------|    x3 x4
D|---222--2------------------------------------------6-6---------------------|
A|---000--0----------4-4-4-4-4-4-------------4-4-----------------------------|
E|---------------------------------------------------------------------------|

e|---------------------------------------------------------------------------|
B|---------------------------------------------------------------------------|
G|---222--2----------444--4-----------------6-6------------------------------|    x3 x4
D|---222--2----------444--4------------------------6-6-----------------------|
A|---000--0----------222--2-------------4-4----------------------------------|
E|---------------------------------------------------------------------------|

e|---------------------------------------------------------------------------|
B|---222--2--------444444444444444444444444----------------------------------|    x4
G|---222--2--------444444444444444444444444----------------------------------|
D|---000--0--------222222222222222222222222----------------------------------|
A|---------------------------------------------------------------------------|
E|---------------------------------------------------------------------------|
============================================================================
============================================================================
============================================================================
============================================================================

Song:  Burning Years
Artist: Story of The Year
Album: Page Avenue
Tuning: Standard E Tuning

E|------------------------------0--------0-----------------------------|
b|----------------------------6--6-6------3----------------------------|
G|--777-101010-999-5555555-----7--7---2--------------------------------|
D|---------------------------7-------2--2------------------------------|
A|--555—-8-8-8-777-3333333--5-------0--3-------------------------------|
E|---------------------------------------------------------------------|


e|---------------------------------------------------------------------|
b|---------------------------------------------------------------------|
G|-1010-1010—-5\\7----7----1010-1010—-5\\7----7------------------------|
D|-1010-1010—-5\\7-00-7-00-1010-1010—-5\\7-00-7-00---------------------|
A|--8-8--8-8—-3\\5-00-5-00--8-8--8-8—-3\\5-00-5-00---------------------|
E|-----------------00---00-----------------00---00---------------------|


e|---------------------------------------------------------------------|
b|---------------------------------------------------------------------|
G|1010-1010-9-1212121210910--------------------------------------------|
D|1010-1010-9-1212121210910--------------------------------------------|
A|-8-8--8-8-7-10101010-87-8--------------------------------------------|
E|-8-8--8-8-7-10101010-87-8--------------------------------------------|


e|---------------------------------------------------------------------|
b|---------------------------------------------------------------------|
G|-1010101010101010-55555555-77777777----------------------------------|
D|--x-x-x-x-x-x-x-x-xxxxxxxx-xxxxxxxx----------------------------------|
A|--8-8-8-8-8-8-8-8-33333333-55555555----------------------------------|
E|---------------------------------------------------------------------|
============================================================================
============================================================================
============================================================================
============================================================================

Song:  Page Avenue
Artist: Story of The Year
Album: Page Avenue
Tuning: Drop D (D-A-D-G-B-E)

Sorry I only know the Chourus so here it is


Guitar 1
E---------------------------|---------------
B---------------------------|---------------
G---------------------------|777--333--555--
D-777--333--555-------------|777--323--555--
A-777--333--555-------------|555--111--333--
D-777--333--555-------------|---------------
                           or... which ever one u prefer
============================================================================
============================================================================
============================================================================
============================================================================

Song:  Sidewalks
Artist: Story of The Year
Album: Page Avenue
Tuning: Standard E Tuning

Intro/Outro
e|-----------------|
B|----4---5-4---4--|
G|------4-----4----|
D|-----------------| x4
A|--4--------------|
E|-----------------|

Verse
First time on first verse only
  \    /
e|-----|---------|
B|-----|---------|
G|--6--|--2-4-6--|
D|--6--|--2-4-6--|  x4
A|--4--|--0-2-4--|
E|-----|---------|
"The bridges are crumbled..."
"Out on the front porch..."

Chorus
e|-----------|
B|-----------|
G|----2---2--|
D|--2-2-2-2--| x2
A|--2-0-2-0--|
E|--0---0----|
"Over the sidewalks..."

Post-Chorus
e|---------|
B|---------|
G|--5-4----|
D|------4--| x4
A|---------|
E|---------|

Bridge
e|-----------|
B|-----------|
G|--6-4-2-4--|
D|--6-4-2-4--| x2
A|--4-2-0-2--|
E|-----------|
"All of the days..."

e|---------|
B|---------|
G|--6-4-0--|
D|--6-4-0--| x4
A|--4-2-2--|
E|---------|
"Away..."

e|-----------|
B|-----------|
G|----4-6-4--|
D|--2-4-6-4--|
A|--2-2-4-2--|
E|--0--------|
"Sidewalks, running away from the streets we knew..."

Intro/Outro
Verse
Chorus
Post-Chorus
Verse
Chorus
Post-Chorus
Bridge
Chorus x2
Intro/Outro
============================================================================
============================================================================
============================================================================
============================================================================

Song:  Divide and Conquer 
Artist: Story of The Year
Album: Page Avenue
Tuning: Drop D (D-A-D-G-B-E)

. - Palm Mute
h - Hammer on
p - Pull off
* - Harmonics

Verse 3x  
e|--------------------------------------------------|
B|--------------------------------------------------|
G|---------------7h8-7------------7h8-7-------------|
D|-0000-0000-----------h10-7h8----------h10-7h8-----|
A|-0000-0000----------------------------------------|
D|-0000-0000----------------------------------------|   
   .... ....                                                          

Last time of the verse
e|-------------------------------|
B|-------------------------------|
G|-----------7h8p7h8p7h8p7h8-88--|
D|-0000-0000---------------------|
A|-0000-0000---------------------|
D|-0000-0000---------------------|
   .... ....

Pre-Chorus 1x                                           
e|-------------------------------------|
B|-------------------------------------|
G|-10~---------------------------------|
D|--8~----------10~----10-10-10--------|
A|--8~----------10~----10-10-10--------|
D|--8~----------10~----10-10-10--------|

Chorus
e|----------------------------------------------------|
B|----------------------------------------------------|
G|----------------------------------------------------|
D|-0-0-0-10-10-10-0-0-0-10-10-10-(8)------------------|
A|-0-0-0-10-10-10-0-0-0-10-10-10-(8)------------------|
D|-0-0-0-10-10-10-0-0-0-10-10-10-(8)------------------|

Verse 
Pre-chorus
Chorus

Bridge-2x     play the (88-88) after the 2nd time 
e|------------------------------------------------------|
B|------------------------------------------------------|
G|----14-14/15-----14-14/15-----------------------------|
D|-00--X--X/ X--00--X--X/ X-88-88-(88-88)---------------|
A|-00-12-12/13--00-12-12/13-88-88-(88-88)---------------|
D|-00-----------00----------88-88-(88-88)---------------|
   ..           ..
Bridge cont. 4x               on some of the notes pull off 0

e|------------------------------------------|
B|------------------------------------------|
G|--------7---------------------------------|
D|-00-8-7---8-7-8-00-8-7-00-8-7--8-10-------|
A|-------------------------------8-10-------|
D|-------------------------------8-10-------|
   ..             ..       ..

Pre-chorus
Chorus 

Outro 
e|-------------------------------------------------------------|
B|-------------------------------------------------------------|
G|----------------------------------------------------------7*-|
D|-0000-0000-0000-888-0000-0000-0000-888-0000-0000-0000--------|
A|-0000-0000-0000-888-0000-0000-0000-888-0000-0000-0000--------|
D|-0000-0000-0000-888-0000-0000-0000-888-0000-0000-0000--------|
============================================================================
============================================================================
============================================================================
============================================================================

Song:  Razorblades
Artist: Story of The Year
Album: Page Avenue
Tuning: Standard E Tuning

-|----------------------------------------------------------------------------
-|----------------------------------------------------------------------------
-|----------------------------------------------------------------------------
-|------1111111111111111-12-12-12-12-11-11-11-11----------5-5-5-5-5-5-5-5-5-5-
-|-------9-9-9-9-9-9-9-9--9--9--9--9--9--9--9--9----------5-5-5-5-5-5-5-5-5-5-
-|-------7-7-7-7-7-7-7-7--7--7--7--7--7--7--7--7----------3-3-3-3-3-3-3-3-3-3-
  INTRO clean(light dist).......................    Heavy                     

-|----------------------------------------------------------------------------
-|----------------------------------------------------------------------------
-|----------------------------------------------------------------------------
-|------1111111111111111--7-7-7-7-12-12-12-11-11-11---77--5-5-5-5-5-5-5-5-5-5-
-|-------9-9-9-9-9-9-9-9--9-9-9-9--9--9--9--9--9--9---77--5-5-5-5-5-5-5-5-5-5-
-|-------7-7-7-7-7-7-7-7--7-7-7-7--7--7--7--7--7--7---55--3-3-3-3-3-3-3-3-3-3-
     clean......................................... Heavy                     

-|----------------------------------------------------------------------------
-|----------------------------------------------------------------------------
-|----------------------------------------------------------------------------
-|----------------------------------------------------------------------------
-|----------------------------------------------------------------------------
-|----------------------------------------------------------------------------
  VERSE clean  *Same as INTRO*  Just adding something with Gtr.2.......       

-|----------------------------------------------------------------------------
-|----------------------------------------------------------------------------
-|----------------------------------------------------------------------------
-|-------------------5-5-5-5-5-5-5-5-5-5--------------------------------------
-|-------------------5-5-5-5-5-5-5-5-5-5--------------------------------------
-|-------------------3-3-3-3-3-3-3-3-3-3--------------------------------------
    1st time   Heavy                                                          

-|----------------------------------------------------------------------------
-|----------------------------------------------------------------------------
-|----------------------------------------------------------------------------
-|--------------------77--5-5-5-5-5-5-5-5-5-5------------------------x--------
-|--------------------77--5-5-5-5-5-5-5-5-5-5------------------------x--------
-|--------------------55--3-3-3-3-3-3-3-3-3-3------------------------x--------
   2nd time  Heavy                                        then stop           

-|----------------------------------------------------------------------------
-|----------------------------------------------------------------------------
-|---------7-7-7-7-7----------------------------------------------------------
-|---------7-7-7-7-7--7-7-7-7-7---9-9--5-5----9-9--5-5------------------------
-|---------5-5-5-5-5--7-7-7-7-7---9-9--5-5----9-9--5-5------------------------
-|--------------------5-5-5-5-5---7-7--3-3----7-7--3-3------------------------
  CHORUS                                                                      

-|----------------------------------------------------------------------------
-|----------------------------------------------------------------------------
-|---7--7--7--7-7-7-----------------------------------------------------------
-|---7--7--7--7-7-7--7-7-7-7-7--9-9--5-5----9-9--5-5--------------------------
-|---5--5--5--5-5-5--7-7-7-7-7--9-9--5-5----9-9--5-5--------------------------
-|-------------------5-5-5-5-5--7-7--3-3----7-7--3-3--------------------------
                                                     then back to VERSE 2...  

-|----------------------------------------------------------------------------
-|----------------------------------------------------------------------------
-|-------------7--7--7--7--7--7-7-7-7-7-7-------------------------------------
-|-------------7--7--7--7--7--7-7-7-7-7-7-------------------------------------
-|-------------5--5--5--5--5--5-5-5-5-5-5-------------------------------------
-|----------------------------------------------------------------------------
  INTERLUDE                              let ring.....                        

-|----------------------------------------------------------------------------
-|----------------------------------------------------------------------------
-|-----7-xxx---7--777---------------------------------------------------------
-|-----7-xxx---7--777-----------------------5-5-5-5-5-5-5-5-5-5---------------
-|-----5-xxx---5--555-----------------------5-5-5-5-5-5-5-5-5-5---------------
-|------------------------------------------3-3-3-3-3-3-3-3-3-3---------------
  "go"     or  PM....   repeat 4 times then                      repeat all   

-|----------------------------------------------------------------------------
-|----------------------------------------------------------------------------
-|--7-7-v-v-7-7-v-v--------------------7-7-v-v-7-7-v-v------------------------
-|--7-7-v-v-7-7-v-v--7-7-v-v-7-7-v-v---7-7-v-v-7-7-v-v-7-7-v-v-7-7-v-v--------
-|--5-5-----5-5------7-7-v-v-7-7-v-v---5-5-----5-5-----7-7-v-v-7-7-v-v--------
-|-------------------5-5-----5-5-----------------------5-5-----5-5------------
                                                                              

-|----------------------------------------------------------------------------
-|----------------------------------------------------------------------------
-|--7-------------------------------------------------------------------------
-|--7-------------------------------------------------------------------------
-|--5-------------------------------------------------------------------------
-|----------------------------------------------------------------------------
      let ring through......      then back to chorus                         

-|----------------------------------------------------------------------------
-|----------------------------------------------------------------------------
-|------------7--777----7--777------------------------------------------------
-|------------7--777----7--777-----7-7-7-7-7--9-9--5-5----9-9--5-5------------
-|------------5--555----5--555-----7-7-7-7-7--9-9--5-5----9-9--5-5------------
-|---------------------------------5-5-5-5-5--7-7--3-3----7-7--3-3------------
  BEFORE END  PM....    PM....                                                

-|----------------------------------------------------------------------------
-|----------------------------------------------------------------------------
-|--------------------------------------------7-xxx-----7--777----------------
-|-------------9-9--5-5----9-9--5-5-----------7-xxx-----7--777----------------
-|-------------9-9--5-5----9-9--5-5-----------5-xxx-----5--555----------------
-|-------------7-7--3-3----7-7--3-3-------------------------------------------
    contiune                            "go"       or   PM....    repeat 3X   

-|----------------------------------------------------------------------------
-|----------------------------------------------------------------------------
-|-----------77-----77-----------------7--------------------------------------
-|--------5--77--5--77--------5--5-----7--------------------------------------
-|--------5--55--5--55--------5--5-----5--------------------------------------
-|--------3------3------------3--3--------------------------------------------
  END                                     let ring.....................       
============================================================================
============================================================================
============================================================================
============================================================================

Song:  Falling Down
Artist: Story of The Year
Album: Page Avenue
Tuning: Drop D (D-A-D-G-B-E)

x - After the note is struck do a palm mute

Intro:

e|---------------------------------------------------------------------------
B|---------------------------------------------------------------------------
G|---------------------------------------------------------------------------
D|-2-2---5-5---6-6---8-8-----------------------------------------------------
A|-2-2---5-5---6-6---8-8-----------------------------------------------------
E|-0-0---3-3---4-4---6-6-----------------------------------------------------

Verse: ( The Same As The Intro)

Chorus:

e|---------------------------------------------------------------------------|
B|---------------------------------------------------------------------------|
G|-4-4-4-4-5-5-5-5-2-2-2-2----------5-5-5-5----------5-5-5-5-----------------|
D|-4-4-4-4-5-5-5-5-2-2-2-2-2x2x2x2x-3-3-3-3-2x2x2x2x-3-3-3-3-----------------|
A|-2-2-2-2-3-3-3-3-0-0-0-0-2x2x2x2x-3-3-3-3-2x2x2x2x-3-3-3-3-----------------|
E|-------------------------0x0x0x0x---------0x0x0x0x-------------------------|

Bridge:

e|---------------------------------------------------------------------------|
B|---------------------------------------------------------------------------|
G|-------------------------7-7-5-3-3-5---------------------------------------|
D|5x5x5x5x5x5x5x5x---------7-7-5-3-3-5---------------------------------------|
A|5x5x5x5x5x5x5x5x---------5-5-3-1-1-3---------------------------------------|
E|5x5x5x5x5x5x5x5x-----------------------------------------------------------|

Well Theres the entire album for ya,  I know its not 100% correct, but its the best I could do.

If you have any quetions you can e-mail me at

Volcom_Prophecy@hotmail.com
comments
print report bad tab
4 comments total. Showing first comments.
0 reply
Ncsk8erdude wrote on September 14 2004, 12:00 am

great job

0 reply
guitar_freak91 wrote on April 11 2006, 04:41 pm

nice job. but the intro you people always get wrong. its this:

|------7--------7---|
|---5-5-5-5--5-5-5-5|
|--6-6---6----6---6-|
|-------------------|
|-------------------|
|-------------------|
Pm .... ... ... ...

an easy chord. played up the neck. simple. but yo, seriously, great job on the tabs. i'm printing them out.

0 reply
koolass wrote on October 2 2006, 11:11 am

what the f?guitar freak that is so wrong.was that supposed to be down half a step?but the intro on the tab is right!

I want to post or [tab]
guest
You may want to rate the tab now too:
select rating
Please do not post tabs as comments. Select "correction" instead!