Oops, an error
Loading. Please wait.

Page Avenue Tab

ver2
ver2

Album

Whole song

More versions @911Tabs.com
978 views 1 this week
1 commentread comment
1 2 3 4 5
accurate
x 2
Autoscroll
+/-
esc
set tempo
stop
Contributor
Difficulty
Tuning
intermediate
D A D G B E
NEW! There's an official Ultimate Guitar app which is ideal
for learning songs when you're away from computer. Get the app
WARNING: You are trying to view
                                    content from Ultimate-Guitar.com
                                    in an unauthorized application,
                                    which is prohibited.

                                    Please use an official Ultimate
                                    Guitar Tabs application for iPhone,
                                    iPad or Android to access legitimate
                                    chords, guitar, bass, and drum tabs
                                    from Ultimate-Guitar.com database.

                                    Type "ultimate guitar tabs" in Apple
                                    App Store's or Android Market's
                                    search to find the application.
Artist: Story Of The Year
Album: Page Avenue

Track Listing:
1.	"And The Hero Will Drown" 
2.	"Until The Day I Die" 
3.	"Anthem Of Our Dying Day" 
4.	"In The Shadows" 
5.	"Dive Right In It" 
6.	"Swallow The Knife" 
7.	"Burning Years" 
8.	"Page Avenue" 
9.	"Sidewalks" 
10.	"Divide And Conquer" 
11.	"Razorblades" 
12.	"Falling Down" 


Ok guys heres the tab for Story Of The Year’s Debut album Page Avenue.

Enjoy, and please rat and comment


1. And The Hero Will Drown

Tuning: Drop D
Intro  
(let the high e (1st string open)  ring)

||---0-----------------12---14---15---17------| 
||---5---7---8---7----------------------------| 
||---------------9----------------------------|
||--------------------------------------------|
||--------------------------------------------|
||--------------------------------------------|

Before verse
|--------------------------------------------|
|--------------------------------------------| 
|--------------------------------------------|
|---2-2-2-2-2------0--2----------------------|
|---2-2-2-2-2------0--2----------------------|
|---2-2-2-2-2------0--2----------------------|    p.m.xxxxxxxxx


Verse 1  (x2)
|-----------------------------------------------| 
|-----------------------------------------------|
|-----------------------------------------------| 
|-3-2-0-2--3-2-0-2--3-2-0-2---22222222-00000000-|
|-3-2-0-2--3-2-0-2--3-2-0-2---22222222-00000000-|
|-3-2-0-2--3-2-0-2--3-2-0-2---22222222-00000000-|

Other thing in between
|----0-0-0-0-0-0-0--0-0-0-0-------------| 
|----3-3-3-3-3-3-3--5-5-5-5-------------|
|---------------------------------------| 
|---------------------------------------|
|---------------------------------------|
|---------------------------------------|
p.m.xxxxxxxxxxxxxxxxxxxxxxxx 

Chorus 1   (x2)
|--------------------------------------| 
|--------------------------------------|
|--99999999-44444444-55555555-77777777-| 
|--99999999-44444444-55555555-77777777-|
|--77777777-22222222-33333333-55555555-|
|--------------------------------------|

Verse 2
 1st time:

|-----------------------------------------------| 
|-----------------------------------------------|
|-----------------------------------------------| 
|-3-2-0-2--3-2-0-2--3-2-0-2---22222222-00000000-|
|-3-2-0-2--3-2-0-2--3-2-0-2---22222222-00000000-|
|-3-2-0-2--3-2-0-2--3-2-0-2---22222222-00000000-|

 2nd time:
|---------------------------------------------------| 
|---------------------------------------------------|
|---------------------------------------------------| 
|-3-2-0-2--22222222--3-2-0-2-0-22-0-2-0-22-22222222-|
|-3-2-0-2--22222222--3-2-0-2-0-22-0-2-0-22-22222222-|
|-3-2-0-2--22222222--3-2-0-2-0-22-0-2-0-22-22222222-|
       p.m.xxxxxxxx                    p.m.xxxxxxxx

|-------------------------------------| 
|-------------------------------------|
|-------------------------------------| 
|-3-2-0-2--22222222-00000000----------|
|-3-2-0-2--22222222-00000000----------|
|-3-2-0-2--22222222-00000000----------|



Chorus 2 (x4)
|--------------------------------------| 
|--------------------------------------|
|--99999999-44444444-55555555-77777777-| 
|--99999999-44444444-55555555-77777777-|
|--77777777-22222222-33333333-55555555-|
|--------------------------------------|

 
After Chorus 2
|---------------------------------------------| 
|---------------------------------------------|
|--5555555555555555-7777777777777777----------| 
|--5555555555555555-7777777777777777--3-2-0-2-|
|--3333333333333333-5555555555555555--3-2-0-2-|
|-------------------------------------3-2-0-2-|


Interlude Thing
Gtr.1 (with Wah) (not sure how many times)
|-------------------------------| 
|-------------------------------|
|-------------------------------| 
|-------------------------------|
|--1p000000-1p000000------------|
|-------------------------------| 



Gtr.2
|-----------------------------------| 
|-----------------------------------|
|-----------------------------------| 
|--2-22------2-22------2-22---------|
|--2-22------2-22------2-22---------|
|--2-22------2-22------2-22---------| 


Interlude part 2 (x2)
|------------|----------------| 
|------------|----------------|
|--------555-|-------555------| 
|--2-22--555-|-2-22--555------|
|--2-22--555-|-2-22--555------|
|--2-22—-555-|-2-22--555------|
Harmonics***         ***


Interlude part 3  (x4)
|--------------|--------------| 
|--------------|--------------|
|--------------|--------------| 
|--2-2-2--0000-|-2-2-2--0000--|
|--2-2-2--0000-|-2-2-2--0000--|
|--2-2-2--0000-|-2-2-2--0000--|

Chorus 3 (clean)

|--0----------------------------| 
|--0------8---------------------|
|--0-(x8)-x-(x8)-7------7-------|
|--2------4------5-(x8)-7-------|
|----------------3------5-(x4)--|
|-----------------------0------—|

|----------0-----------------|
|----------0-(x8)--8---------|
|----------0-------x-(x8)----|
|----------2-------4---------|
|--0-(x4)--------------------|
|--0-------------------------|

Right after that, change to distortion and go  

|--------------------------------------| 
|--------------------------------------|
|--5555555555555555--------------------| 
|--5555555555555555--------------------|
|--3333333333333333--------------------|
|--------------------------------------|

Chorus 4   (x2)
|--------------------------------------| 
|--------------------------------------|
|--99999999-44444444-55555555-77777777-| 
|--99999999-44444444-55555555-77777777-|
|--77777777-22222222-33333333-55555555-|
|--------------------------------------|

Outro (x2)
|-------------|-------------| 
|-------------|-------------|
|---------555-|-------555---| 
|---2-22--555-|-2-22--555---|
|---2-22--555-|-2-22--555---|
|---2-22--555-|-2-22--555---|


Outro part 2 (x2)
|--------------|---------------| 
|--------------|---------------|
|--------------|---------------| 
|--2--000---2--|--2--000---2---|
|--2--000---2--|--2--000---2---|
|--2--000---2--|--2--000---2---|
   p.m.xxx       p.m.xxx



2. Until The Day I Die

Tuning: Drop D
intro
e|---------------------------------------------| 
B|---------10-------------------10-------------| 
G|-----7------7---7-------7---7----7---7-------| 
D|-9-9---9------9-----------9--------9---------|
A|---------------------------------------------| 
D|---------------------------------------------| 

e|------------------------------------------------| 
B|------------------------------------------------| 
G|------------------------------------------------| 
D|-121212-121212--1111-111111--777-777--77-777----|
A|--9-9-9--9-9-9---9-9--9-9-9--555-555--55-555----| 
D|--9-9-9--9-9-9---9-9--9-9-9--555-555--55-555----| 

verse

guitar 1 plays intro
guitar 2-
e|---------------------------------------------| 
B|---------------------------------------------| 
G|---------------------77777777----------------| 
D|-99999999--55555555--77777777--77777777------|
A|-99999999--55555555--55555555--77777777------| 
D|-99999999--55555555------------77777777------| 

chorus*CHORUS* (1:10-1:29) 
e|------------------------------------------------------| 
B|------------------------------------------------------| 
G|------------------------------------------------------| 
D|-5-5-5--7-7-7--1212121212121212-1111111111111111------|
A|-5-5-5--7-7-7---9-9-9-9-9-9-9-9--9-9-9-9-9-9-9-9------| 
D|-5-5-5--7-7-7---9-9-9-9-9-9-9-9--9-9-9-9-9-9-9-9------|

thats it 4 most of the song but the last 3 chords are

e|------------------------| 
B|------------------------| 
G|------------------------| 
D|-9-9---7-7---5-5~~------|
A|-9-9---7-7---5-5~~------| 
D|-9-9---7-7---5-5~~------|


3. Anthem Of Our Dying Day

Tuning: Drop D

GUITAR 1'S PARTS:
-----------------
Intro:  (You figure out strumming)
e|-------------------------------------|
B|-------------------------------------|
G|---------11>----9>--------11>---9~---|
D|---7>----11>----9>---7>---11>---9~---|
A|---4>-----9>----7>---4>----9>---7~---|
D|---4>-----0>----0>---4>----0>---0~---|

Intro Cont'd:  "Stars will cry..."  (3x)  (You figure out strumming)
e|---------------------------------------------------------------------------|
B|---------------------------------------------------------------------------|
G|--------11>---9>-----------------------------------------------------------|
D|---7>---11>---9>-----------------------------------------------------------|
A|---7>----9>---7>-----------------------------------------------------------|
D|---4>----0>---0>-----------------------------------------------------------|

Intro Cont'd:
e|---------------------------------------------------------------------------|
B|---------------------------------------------------------------------------|
G|--------11>---9-9-9-9-----9-9-9-9-----9-9-9-9-----9-9-9-9------------------|
D|---7>---11>---x-x-x-x-x-x-x-x-x-x-x-x-x-x-x-x-x-x-x-x-x-x-x-x--------------|
A|---7>----9>---7-7-7-7-x-x-7-7-7-7-x-x-7-7-7-7-x-x-7-7-7-7-x-x--------------|
D|---4>----0>---0-0-0-0-x-x-0-0-0-0-x-x-0-0-0-0-x-x-0-0-0-0-x-x--------------|

Chorus:  "From up here..."  (You figure out strumming)
e|---------------------------------------------------------------------------|
B|---------------------------------------------------------------------------|
G|---------------------------------------------------------------------------|
D|---7>---2>---7>---7>--7>---------------------------------------------------|
A|---7>---2>---4>---4>--5>---------------------------------------------------|
D|---7>---2>---4>------------------------------------------------------------|

Bridge:  (Harmonics)
e|-------------------------------------------------|
B|-------------------------------------------------|
G|-------------------------------------------------|
D|-------7----------7----------7-------------------|
A|---7-----7----7-----7----7-----7--0-0-0-0-0-0x---|
D|-----7----------7----------7------0-0-0-0-0-0x---|
                                    ...........

Verse:  "For a second I..."  (play this one on 2x, 3x and 4th time)
e|----------------------|----------------------------------------------------|
B|----------------------|------------(All harmonics)-------------------------|
G|------9b11r9--9b10r9--|----------------------------------------------------|
D|----------------------|----------7-----------7-----------7-----------7-----|
A|----------------------|------7-----7-----7-----7-----7-----7-----7-----7---|
D|----------------------|--9-9---7-----9-9---7-----9-9---7-----9-9---7-------|

Verse Cont'd:                (2nd half of 4th measure)
e|------------------------|--------------------------------------------------|
B|------------------------|--------------------------------------------------|
G|------------------------|-9-9-9-9-----9-9-9-9-----9-9-9-9-----9-9-9-9------|
D|0-0-0-0-0-0-0-0-0-0-0-0-|-x-x-x-x-x-x-x-x-x-x-x-x-x-x-x-x-x-x-x-x-x-x-x-x--|
A|0-0-0-0-0-0-0-0-0-0-0-0-|-7-7-7-7-x-x-7-7-7-7-x-x-7-7-7-7-x-x-7-7-7-7-x-x--|
D|0-0-0-0-0-0-0-0-0-0-0-0-|-0-0-0-0-x-x-0-0-0-0-x-x-0-0-0-0-x-x-0-0-0-0-x-x--|

Repeat Chorus

2nd Bridge:  "...of our dying day..."
e|---------------------------------------------------------------------------|
B|---------------------------------------------------------------------------|
G|-----------------------7-7-7------------------------7-7-7------------------|
D|-4-4-4-4-4x--4-4-4-4-x-7-7-7--4-4-4-4-4x--4-4-4-4-x-7-7-7--7-7-7-7---------|
A|-4-4-4-4-4x--4-4-4-4-x-5-5-5--4-4-4-4-4x--4-4-4-4-x-5-5-5--5-5-5-5---------|
D|-4-4-4-4-4x--4-4-4-4-x--------4-4-4-4-4x--4-4-4-4-x------------------------|
                                                             .......

2nd Bridge Cont'd:
e|---------------------------------------------------------------------------|
B|---------------------------------------------------------------------------|
G|-----------------------7-7-7----------------------------------7-7-7---7-7-7|
D|-4-4-4-4-4x--4-4-4-4-x-7-7-7--4-4-4-4-4x--0-0-0-0-4-4-4-4-4-x-7-7-7-x-7-7-7|
A|-4-4-4-4-4x--4-4-4-4-x-5-5-5--4-4-4-4-4x--0-0-0-0-4-4-4-4-4-x-5-5-5-x-5-5-5|
D|-4-4-4-4-4x--4-4-4-4-x--------4-4-4-4-4x--0-0-0-0-4-4-4-4-4-x-------x------|
                                            .......

2nd Bridge Cont'd:
e|-------------------|
B|-------------------|
G|--7-7-7---7-7-7x---|
D|x-7-7-7-x-7-7-7x---|
A|x-5-5-5-x-5-5-5x---|
D|x-------x----------|

2nd Verse:  "For a second I..."  (bend a little on the octaves)
e|---------------------------------------------------------------------------|
B|---------------------------------------------------------------------------|
G|--------------9-9-9-9-----9-9-9-9-----9-9-9-9-----9-9-9-9------------------|
D|--------------x-x-x-x-x-x-x-x-x-x-x-x-x-x-x-x-x-x-x-x-x-x-x-x--------------|
A|--------------7-7-7-7-x-x-7-7-7-7-x-x-7-7-7-7-x-x-7-7-7-7-x-x--------------|
D|-Feedback-----0-0-0-0-x-x-0-0-0-0-x-x-0-0-0-0-x-x-0-0-0-0-x-x--------------|

Clean Chorus:  "From up here..."
e|-0>---0>---2>-------------|
B|-2>---0>---2>-------------|
G|-2>---1>---2>-------------|
D|-2>---2>---4>---7>--7>----|
A|-0>---2>---4>---4>--5>----|
D|------2>---4>-------------|

Repeat Chorus:  (2x)

1st Outro part:
e|------------------------------------------------|
B|------------------------------------------------|
G|------------------------------------------------|
D|-------7----------7----------7------------------|
A|---7-----7----7-----7----7-----7--0-0-0-0-0-0x--|
D|-----7----------7----------7------0-0-0-0-0-0x--|
                                    ...........

e|---------------------------------------------------------------------------|
B|---------------------------------------------------------------------------|
G|---------------------------------------------------------------------------|
D|-------7----------7----------7----x-0-0-0-x-0-0-0-x-0-0-0------------------|
A|---7-----7----7-----7----7-----7--x-0-0-0-x-0-0-0-x-0-0-0-0-0-0-0-0-0x-----|
D|-----7----------7----------7------x-0-0-0-x-0-0-0-x-0-0-0-0-0-0-0-0-0x-----|
                                                            ...........

2nd Outro Part:  (Clean)
e|-0>---0>---2>-----------|
B|-2>---0>---2>-----------|
G|-2>---1>---2>-----------|
D|-2>---2>---4>---7>--7>--|
A|-0>---2>---4>---4>--5>--|
D|------2>---4>-----------|

GUITAR 2'S PARTS:
-----------------
Intro:  (Only guitar 1, til distortion comes in)

End of intro:  "...exactly, exactly what I need"
e|----------------------------------------|
B|----------------------------------------|
G|----------------------------------------|
D|--x-x-x-x---x-x-x-x--x-x-x-x--x-x-x-x---|
A|--x-x-x-x---x-x-x-x--x-x-x-x--x-x-x-x---|
D|--x-x-x-x---x-x-x-x--x-x-x-x--x-x-x-x---|

Chorus:  (Play same as guitar 1)

Bridge:
e|-------------------------------|
B|-------------------------------|
G|-------------------------------|
D|-4x---4x---4x------------------|
A|-4x---4x---4x---0-0-0-0-0-0x---|
D|-4x---4x---4x---0-0-0-0-0-0x---|
                  ...........

Verse:  "For a second I..."
e|---------------------------------------------------------------------------|
B|-------------------------------------------- (Fade in and out)-------------|
G|--------------------------------------9-9-9-9-9-9-9-9-9-9-9-9-9-9-9-9-9-9-9|
D|--------------0-0-0-0-0-0-0-0-0-0-0-0--------------------------------------|
A|--------------0-0-0-0-0-0-0-0-0-0-0-0--------------------------------------|
D|--------------0-0-0-0-0-0-0-0-0-0-0-0--------------------------------------|
                                        .....................................

e|---------------------------------------------------------------------------|
B|------------------------------------------------------(Fade in and out)----|
G|9-9-9-9---9-9-9-9---9-9-9-9---9-9-9-9---9-9-9-9-9-9-9-9-9-9-9-9-9-9-9-9-9-9|
D|--------0---------0---------0---------0------------------------------------|
A|--------0---------0---------0---------0------------------------------------|
D|--------0---------0---------0---------0------------------------------------|
  .......   .......   .......   .......   ...................................

Verse Cont'd:
e|---------------------------------------------------------------------------|
B|---------------------------------------------------------------------------|
G|9-9-9-9-9-9-9-9-9-9-------------------------9-9-9-9-9-9-9-9-9-9-9-9-9-9-9-9|
D|--------------------0-0-0-0-0-0-0-0-0-0-0-0--------------------------------|
A|--------------------0-0-0-0-0-0-0-0-0-0-0-0--------------------------------|
D|--------------------0-0-0-0-0-0-0-0-0-0-0-0--------------------------------|

Verse Cont'd:
e|----------------------------------------------------------|
B|----------------------------------------------------------|
G|9-9-9-9-9-9-9-9-------------------------------------------|
D|----------------0-0-x-x-0-0-0-x-x-0-0-0-x-x-0-0-0-x-x-----|
A|----------------0-0-x-x-0-0-0-x-x-0-0-0-x-x-0-0-0-x-x-----|
D|----------------0-0-x-x-0-0-0-x-x-0-0-0-x-x-0-0-0-x-x-----|

Repeat Chorus

2nd Bridge:  "...of our dying day..."
e|---------------------------------------------------------------------------|
B|---------------------------------------------------------------------------|
G|-----------------------7-7-7------------------------7-7-7------------------|
D|-4-4-4-4-4x--4-4-4-4-x-7-7-7--4-4-4-4-4x--4-4-4-4-x-7-7-7--7-7-7-7---------|
A|-4-4-4-4-4x--4-4-4-4-x-5-5-5--4-4-4-4-4x--4-4-4-4-x-5-5-5--5-5-5-5---------|
D|-4-4-4-4-4x--4-4-4-4-x--------4-4-4-4-4x--4-4-4-4-x------------------------|
                                                             .......

2nd Bridge Cont'd:
e|---------------------------------------------------------------------------|
B|---------------------------------------------------------------------------|
G|-----------------------7-7-7----------------------------------7-7-7---7-7-7|
D|-4-4-4-4-4x--4-4-4-4-x-7-7-7--4-4-4-4-4x--0-0-0-0-4-4-4-4-4-x-7-7-7-x-7-7-7|
A|-4-4-4-4-4x--4-4-4-4-x-5-5-5--4-4-4-4-4x--0-0-0-0-4-4-4-4-4-x-5-5-5-x-5-5-5|
D|-4-4-4-4-4x--4-4-4-4-x--------4-4-4-4-4x--0-0-0-0-4-4-4-4-4-x-------x------|
                                            .......

2nd Bridge Cont'd:
e|---------------------|
B|---------------------|
G|--7-7-7---7-7-7x-----|
D|x-7-7-7-x-7-7-7x-----|
A|x-5-5-5-x-5-5-5x-----|
D|x-------x------------|

2nd Verse:  "For a second I..."  (bend a little on the octaves)
e|---------------------------------------------------------------------------|
B|---------------------------------------------------------------------------|
G|---------------------------------------------------------------------------|
D|--------------0-0-x-x-x-x-0-0-x-x-x-x-0-0-x-x-x-x-0-0-x-x-x-x--------------|
A|--------------0-0-x-x-x-x-0-0-x-x-x-x-0-0-x-x-x-x-0-0-x-x-x-x--------------|
D|-Feedback-----0-0-x-x-x-x-0-0-x-x-x-x-0-0-x-x-x-x-0-0-x-x-x-x--------------|

Clean Chorus:  (Only guitar 1)

Repeat Chorus:  (Pickslide into it)

1st Outro Part:
e|---------------------------------------------------------------------------|
B|---------------------------------------------------------------------------|
G|---------------------------------------------------------------------------|
D|-4x---4x---4x---------------4x---4x---4x---x-0-0-0-x-0-0-0-x-0-0-0---------|
A|-4x---4x---4x---0-0-0-0-0-0-4x---4x---4x---x-0-0-0-x-0-0-0-x-0-0-0-0-0-0-0-|
D|-4x---4x---4x---0-0-0-0-0-0-4x---4x---4x---x-0-0-0-x-0-0-0-x-0-0-0-0-0-0-0-|
                  ...........                                        .......

e|------|
B|------|
G|------|
D|------|
A|0-0x--|
D|0-0x--|
  ...

2nd Outro Part:  (Only guitar 1)


4. In The Shadows

Tuning: Drop D

INTRO: let each chord ring out
   
   C    E minor
E--3----7--
B--3----8--
G--5----9--
D--5----9--
A--3----7--
D----------

E--333--------333------333--------333--
B--333--------333------333--------333--
G--555--------555------555--------555--
D--555--------555------555--------555--
A--333--0000--333--00--333--0000--333--
d--333--0000--333--00--333--0000--333--


VERSE: "WE BOTH TAKE THE.. HARDEST PUNCHES...!"

E---------------------------------    E--3333333-----333555-
B---------------------------------    B--3333333-----333555-
G-------------------55------------X8  G--5555555-X3--555777-
D-------------------55------------    D--5555555-----555777-
A--2-2--2-0----2-2--33--5-5--0-0--    A--3333333-----333555-
D--2-2--2-0----2-2------5-5--0-0--    D---------------------


CHORUS: 

E----------------3333333333----------------3333333333--5-5-5----------------
B----------------3333333333----------------3333333333--5-5-5----------------
G----------------5555555555----------------5555555555--7-7-7----------------
D----------------5555555555----------------5555555555--7-7-7----------------
A--22222--00000--3333333333--22222--00000--3333333333--5-5-5---22222--00000-
D--22222--00000--------------22222--00000----------------------22222--00000-

--33333-33333------------------3-3-3-3--------5-5-5-5--
--33333-33333------------------3-3-3-3--------5-5-5-5--
--55555-55555------------------5-5-5-5--------7-7-7-7--
--55555-55555------------------5-5-5-5--------7-7-7-7--
--33333-33333--22222--00000----3-3-3-3--0000--5-5-5-5--
---------------22222--00000-------------0000-----------

IT THEN GOES BACK TO THE VERSE BUT THE GUITARS DONT COME IN UNTIL AFTER 4 MEASURES...: 


E----------------------------33------------   E--3333333-----333555--
B----------------------------33------------   B--3333333-----333555--
G----------------------------55------------   G--5555555-X3--555777--
D----------------------------55------------X4 D--5555555-----555777--
A--0-0-0----2-2--2-0----2-2--33--5-5--0-0--   A--3333333-----333555--
D--0-0-0----2-2--2-0----2-2------5-5--0-0--   D---------------------- 


CHORUS:


BRIGDE: "AFTER ALL... WE'RE STILL THE SAME..."

   E minor  C major 7
E--7--------3----
B--8--------5----
G--9--------4---- go back and forth between these chords in the bridge
D--9--------5----
A--7--------3----
D---------------- 


E-------------------33------------
B-------------------33------------
G-------------------55------------
D-------------------55------------X2
A--2-2--2-0----2-2--33--5-5--0-0--
D--2-2--2-0----2-2------5-5--0-0--

 "AHHHHH!!!!!"  "WITH A CLOSED FIST!!! WITH A CLOSED FIST!!!" 

E-------------------33------------      E--3333333--2222222--
B-------------------33------------      B--3333333--2222222--
G-------------------55------------X6    G--5555555--5555555--X2
D-------------------55------------      D--5555555--5555555--
A--2-2--2-0----2-2--33--5-5--0-0--      A--3333333--2222222--
D--2-2--2-0----2-2------5-5--0-0--      D-------------------- 

E------------333333333333--
B------------333333333333--
G------------555555555555--  BACK TO CHORUS AGAIN
D------------555555555555--
A--2-2--0-0--333333333333--
D--2-2--0-0---------------- 

E---------------------------33-----------------------------33---------------
B---------------------------33-----------------------------33---------------
G---------------------------55-----------------------------55---------------
D---------------------------55-----------------------------55---------------
A--0-0-0----2-2--2-0---2-2--33--5-5--0-0--2-2--2-0----2-2--33--5-5--0-0-----
D--0-0-0----2-2--2-0---2-2------5-5--0-0--2-2--2-0----2-2------5-5--0-0--2-2



5. Dive Right In

Tuning: Drop D

E|------------8----------------------||
B|---6-5-6-5-6--6-5-6-5-6-5-6-5~-----||
G|--5---5---5--5---5---5---5---------||
D|-----------------------------------||
A|-5---------------------------------||
D|-----------------------------------||


E|-----------------------------------------------------------
B|-----------------------------------------------------------
G|--------------10-10-10----------10-10-10-10101010-9-9-1010-
D|-12\-000-0000-8--8--8--000-0000-8--8--8--------------------
A|-12\-000-0000-8--8--8--000-0000-8--8--8--8-8-8-8--7-7-8-8--
D|-12\-000-0000----------000-0000----------------------------
       ..  ....          ... ....                                 2X

                                                                  
E|-------------------------------------||
B|-------------------------------------||
G|-12-12-12-12-12-12-12-12-------------||
D|-------------------------------------||
A|-10-10-10-10-10-10-10-10-------------||
D|-------------------------------------||



E|-------0h1--------0h1--------0h1--------0h1----0h1------||
B|----------1----------1----------1----------1------1-----||
G|--------------------------------------------------------||
D|-0-0-0------0-0-0------0-0-0------0-0-0-----------------||
A|-0-0-0------0-0-0------0-0-0------0-0-0-----------------||
D|-0-0-0------0-0-0------0-0-0------0-0-0-----------------||
   . .        . .        . .



E|-------------------------------------||
B|-------------------------------------||
G|-------------------------------------||
D|-0000000000000000-8-8888888888888888-||
A|-0000000000000000-8-8888888888888888-||
D|-0000000000000000-8-8888888888888888-||
   ................   ................

E|----------------------------------------------------------||
B|----------------------------------------------------------||
G|----------------------------------------------------------||
D|-10101010101010101010101010101010-77777777-8~-------------||
A|-10101010101010101010101010101010-77777777-8~-------------||
D|-10101010101010101010101010101010-77777777-8~-------------||
    ' ' ' ' ' ' ' ' ' ' ' ' ' ' ' '



E|---------------------------------------------------------------------------||
B|---------------------------------------------------------------------------||
G|----------101010----------101010-10101010-9-9-1010-12-12-12-12-12-12-12-12-||
D|-000-0000-8-8-8--000-0000-8-8-8--------------------------------------------|| 2X
A|-000-0000-8-8-8--000-0000-8-8-8--8-8-8-8--7-7-8-8--10-10-10-10-10-10-10-10-||
D|-000-0000--------000-0000--------------------------------------------------||
   ..  ....        ..  ....



E|---------------------------||
B|---------------------------||
G|---------------------------||
D|-000--0--000---00--000--0--||
A|-000--0--000---00--000--0--||
D|-000--0--000---00--000--0--||

Then play the pre-chorus
Then the chorus 4X




E|--------------------------------------------
B|--------------------------------------------
G|--------------------------------------------
D|-0~-0-3h5-0-1-000----10-000----10-888888-8--
A|-0~-0-3-3-0-1-000-7h8---000-7h8---888888-8--
D|-0~-0-3-3-0-1-000-------000-------888888-8--         
                ...       ...          ..


E|---------------------------------------------------
B|---------------------------------------------------
G|---------------------------------------------------
D|-3h5-0-1-000-5h7--000-5h7---------------3-5-0-1-0~--
A|-3-3-0-1-000----8-000-----8-555-55777-9-3-3-0-1-0~--
D|-3-3-0-1-000------000-------000-00000-0-3-3-0-1-0~--
                              ,,, ,,,,, ,

(this part of it is kinda the post chorus part)
E|--------------------------------------------------------------||
B|--------------------------------------------------------------||
G|--------------------------------------------------------------||
D|-~0~--8~s10101010101010101010101010101010101010101010101010\0-||
A|-~0~--8~s10101010101010101010101010101010101010101010101010\0-||
D|-~0~--8~s10101010101010101010101010101010101010101010101010\0-||

play chorus 4X 

then theres the ending
E|----------------------------
B|----------------------------
G|----------------------------
D|-0~----8~----10~----7~--8~--
A|-0~----8~----10~----7~--8~--
D|-0~----8~----10~----7~--8~--


E|------------8--------------8----------8----------------8------------||
B|---6-5-6-5-6--6-5-6-5-6-5-6--6-5-6-5-6--6-5-6-5-6-5---6--6-5-6-5----||
G|------5---5--5---5---5---5--5---5---5--5---5---5-----5--5---5-------||
D|--0-------------------------------------------------------------0~--||
A|----------------------------------------------------------------0~--||
D|-0--------------------------------------------------------------0~--||


6. Swallow the Knife

Tuning: Drop D

Intro
(clean)
E|----------------------------------------|
B|----------------------------------------|
G|-888888888888888888888888---------------|
D|-666666666666666666666666---------------|
A|-444444444444444444444444---------------|
D|----------------------------------------|

Verse (figure out rhytmn)

E|--------------------------------------|
B|--------------------------------------|
G|-888888--666666--888888--666666-------|
D|-666666--666666--666666--666666-------|
A|-444444--444444--444444--444444-------|
D|--------------------------------------|

E|---------000000----------000000-----------|
B|---------000000----------000000-----------|
G|-444444--444444--444444--444444-----------|
D|-444444--444444--444444--444444-----------|
A|-222222--222222--222222--222222-----------|
D|------------------------------------------|

Pre-Chorus (clean)


E|------------------------|
B|------------------------|
G|-222222222222222-4-444--|
D|-222222222222222-4-444--|
A|-000000000000000-2-222--|
D|------------------------|


E|------------------------|
B|------------------------|
G|-222222222222222-4-444--|
D|-222222222222222-4-444--|
A|-000000000000000-2-222--|
D|------------------------|

Chorus (clean)
E|------------------------------------|
B|------------------------------------|
G|-666666--999999--444444--444444-----|
D|-666666--999999--444444--444444-----|
A|-444444--777777--222222--222222-----|
D|------------------------------------|

E|-------------------------|
B|-------------------------|
G|-666666--999999--4-~-----|
D|-666666--999999--4-~-----|
A|-444444--777777--2-~-----|
D|-------------------------|

2nd verse

E|---------------------|
B|---------------------|
G|-888888--666666------|
D|-666666--666666------|
A|-444444--444444------|
D|---------------------|

E|---------000000------|
B|---------000000------|
G|-444444--444444------|
D|-444444--444444------|
A|-222222--222222------|
D|---------------------|

Chorus (Distortion)

The first guitar (probably phil)does this:
E|------------------------------------|
B|------------------------------------|
G|-666666--999999--444444--444444-----|
D|-666666--999999--444444--444444-----|
A|-444444--777777--222222--222222-----|
D|------------------------------------|

E|------------------------------------|
B|------------------------------------|
G|-666666--999999--444444--444444-----|
D|-666666--999999--444444--444444-----|
A|-444444--777777--222222--222222-----|
D|------------------------------------| (x2)

Gtr 2(The Nose probably)

E|------------------------------------|
B|------------------------------------|
G|-666666--999999--444444--444444-----|
D|-666666--999999--444444--444444-----|
A|-444444--777777--222222--222222-----|
D|-666666--999999--222222--222222-----|

E|------------------------------------|
B|------------------------------------|
G|-666666--999999--444444--444444-----|
D|-666666--999999--444444--444444-----|
A|-444444--777777--222222--222222-----|
D|-666666--999999--222222--222222-----| ( x 2)

Bridge “ words are spoken...”
E|--------------------------|
B|--------------------------|
G|-222222222222222222-444---|
D|-222222222222222222-444---|
A|-000000000000000000-222---|
D|--------------------------|

E|--------------------------|
B|--------------------------|
G|-222222222222222222-444---|
D|-222222222222222222-444---|
A|-000000000000000000-222---|
D|--------------------------|

     “ so lets make this night...”
E|-----------------------------------|
B|-----------------------------------|
G|-----------------------------------|
D|-11-11-11-11-11-11--666666--777777-|
A|-11-11-11-11-11-11--666666--777777-|
D|-11-11-11-11-11-11--666666--777777-|

E|---------------------------------------|
B|---------------------------------------|
G|---------------------------------------|
D|-11-11-11-11-11-11--666666--77777777---|
A|-11-11-11-11-11-11--666666--77777777---|
D|-11-11-11-11-11-11--666666--77777777---|

“ be our best mistake..”
E|---------------------|
B|---------------------|
G|---------------------|
D|-99996666------------|
A|-99996666------------|
D|-99996666------------|
   “ so lets take the time...”
E|-------------------------------------|
B|-------------------------------------|
G|-------------------------------------|
D|-11------66666666-77777777-99999999--|
A|-11-(x8)-66666666-77777777-99999999--|
D|-11------66666666-77777777-99999999--|

Interlude
E|------------------------------------|
B|------------------------------------|
G|------------------------------------|
D|-777-7--777-7--777-7----------------|
A|-777-7--777-7--777-7----------------|
D|-777-7--777-7--777-7----------------|


E|------------------------------|
B|------------------------------|
G|------9--------------9--------|
D|-9-11---11-99---9-11---11-99--|
A|------------------------------|
D|------------------------------| Repeat that a lot
then the chorus repeats a few times then

“ broken down.....”
E|--000000-----|
B|--xxxxxx-----|
G|--666666-----|
D|--666666-----| (x4)
A|--444444-----|
D|-------------|

end on B:
E|-------------|
B|-------------|
G|--4~---------|
D|--4~---------|
A|--2~---------|
D|-------------|



7. Burning Years

Tuning: Drop D

E|------------------------------0--------0-----------------------------|
b|----------------------------6--6-6------3----------------------------|
G|--777-101010-999-5555555-----7--7---2--------------------------------|
D|---------------------------7-------2--2------------------------------|
A|--555—-8-8-8-777-3333333--5-------0--3-------------------------------|
D|---------------------------------------------------------------------|


e|---------------------------------------------------------------------|
b|---------------------------------------------------------------------|
G|-1010-1010—-5\\7----7----1010-1010—-5\\7----7------------------------|
D|-1010-1010—-5\\7-00-7-00-1010-1010—-5\\7-00-7-00---------------------|
A|--8-8--8-8—-3\\5-00-5-00--8-8--8-8—-3\\5-00-5-00---------------------|
D|-----------------00---00-----------------00---00---------------------|


e|---------------------------------------------------------------------|
b|---------------------------------------------------------------------|
G|1010-1010-9-1212121210910--------------------------------------------|
D|1010-1010-9-1212121210910--------------------------------------------|
A|-8-8--8-8-7-10101010-87-8--------------------------------------------|
D|-8-8--8-8-7-10101010-87-8--------------------------------------------|


e|---------------------------------------------------------------------|
b|---------------------------------------------------------------------|
G|-1010101010101010-55555555-77777777----------------------------------|
D|--x-x-x-x-x-x-x-x-xxxxxxxx-xxxxxxxx----------------------------------|
A|--8-8-8-8-8-8-8-8-33333333-55555555----------------------------------|
D|---------------------------------------------------------------------|



8. Page Avenue

Tuning: Drop D

RIFF A _
e|---------------------------------------------------------------------------|
B|---------------0-----------------------------------------------------------|
G|-----------------0----------------------0----0-----------------------------|
D|---------10--------10----------10----10---10---10--------------------------|
A|-0h10h12----12---------0h10h12----12---------------------------------------|
D|---------------------------------------------------------------------------|
PM         ............          ..................



RIFF B *
e|---------------------------------------------------------------------------|
B|---------------------------------------------------------------------------|
G|---------------------------------------------------------------------------|
D|-7--7--7--7--7--7--7--0--3--3--3--3--3--3--3--0----------------------------|
A|-7--7--7--7--7--7--7--0--3--3--3--3--3--3--3--0----------------------------|
D|-7--7--7--7--7--7--7--0--3--3--3--3--3--3--3--0----------------------------|

e|---------------------------------------------------------------------------|
B|---------------------------------------------------------------------------|
G|---------------------------------------------------------------------------|
D|-7--7--7--7--7--7--7--7--7--7--7--7--7--7--7--9~---------X~~~~Pick Slide~~~|
A|-5--5--5--5--5--5--5--5--5--5--5--5--5--5--5--7~---------X~~~~Pick Slide~~~|
D|-5--5--5--5--5--5--5--5--5--5--5--5--5--5--5--7~---------X~~~~Pick Slide~~~|



RIFF C *
e|-------------------------3--3--3--3--3--3--3--3----------------------------|
B|-1--1--1--1--1--1--1--1--1--1--1--1--0--0--0--0----------------------------|
G|-2--2--2--2--2--2--2--2--------------0--0--0--0----------------------------|
D|---------------------------------------------------------------------------|
A|---------------------------------------------------------------------------|
D|---------------------------------------------------------------------------|
PM ..............................................



RIFF D *
e|---------------------------------------------------------------------------|
B|---------------------------------------------------------------------------|
G|-4--5--4----4--5--4-----4--5--4-----4--5--4--------------------------------|
D|----------5----------5-----------5-----------5-----------------------------|
A|---------------------------------------------------------------------------|
D|---------------------------------------------------------------------------|
PM .............................................


RIFF E *
e|---------------------------------------------------------------------------|
B|-------------------------0-------------------------------------------------|
G|-4--5--4--5--4--5--4--5--0-------------------------------------------------|
D|---------------------------------------------------------------------------|
A|---------------------------------------------------------------------------|
D|---------------------------------------------------------------------------|
LET RING                   -|


RIFF F *
e|-3--3--3--3--3--3--3--3----------------------------------------------------|
B|-1--0--1--0--1--0--1--0--0-------------------------------------------------|
G|-0--0--0--0--0--0--0--0--0-------------------------------------------------|
D|---------------------------------------------------------------------------|
A|---------------------------------------------------------------------------|
D|---------------------------------------------------------------------------|
LET RING                   -|



RIFF G *
e|---------------------------------------------------------------------------|
B|----------1--1--1--1--1----------------------------------------------------|
G|-2--2--2--2--2--2--2--2-----------5--5--5--5--5----------------------------|
D|-2--2--2--2--2--2--2--2--3--3--3--3--3--3--3--3----------------------------|
A|-0--0--0--0--0--0--0--0--3--3--3--3--3--3--3--3----------------------------|
D|-------------------------3--3--3--3--3--3--3--3----------------------------|


e|---------------------------------------------------------------------------|
B|---------------------------------------------------------------------------|
G|-7--7--7--7--7--7--7--7--7--7--7--7--7--7--7--7----------------------------|
D|-5--5--5--5--5--5--5--5--5--5--5--5--5--5--5--5----------------------------|
A|-5--5--5--5--5--5--5--5--5--5--5--5--5--5--5--5----------------------------|
D|-5--5--5--5--5--5--5--5--5--5--5--5--5--5--5--5----------------------------|



RIFF H *
e|---------------------------------------------------------------------------|
B|---------------------------------------------------------------------------|
G|----------9--9--9--9--9-----------5--5--5--5--5----------------------------|
D|-7--7--7--7--7--7--7--7--3--3--3--3--3--3--3--3----------------------------|
A|-7--7--7--7--7--7--7--7--3--3--3--3--3--3--3--3----------------------------|
D|-7--7--7--7--7--7--7--7--3--3--3--3--3--3--3--3----------------------------|

e|---------------------------------------------------------------------------|
B|---------------------------------------------------------------------------|
G|-7--7--7--7--7--7--7--7--7--7--7--7--7--7--7--7----------------------------|
D|-5--5--5--5--5--5--5--5--5--5--5--5--5--5--5--5----------------------------|
A|-5--5--5--5--5--5--5--5--5--5--5--5--5--5--5--5----------------------------|
D|-5--5--5--5--5--5--5--5--5--5--5--5--5--5--5--5----------------------------|



RIFF I *
e|---------------------------------------------------------------------------|
B|---------------------------------------------------------------------------|
G|-17--17--17--17--17--17--17--17--17--17--17--17--16--16--16----------------|
D|--x---x---x---x---x---x---x---x---x---x---x---x---x---x---x----------------|
A|-15--15--15--15--15--15--15--15--15--15--15--15--14--14--14----------------|
D|---------------------------------------------------------------------------|

e|---------------------------------------------------------------------------|
B|---------------------------------------------------------------------------|
G|-9--9--9--9--9--9--9--9--9--9--9--9--9--9--9--9----------------------------|
D|-x--x--x--x--x--x--x--x--x--x--x--x--x--x--x--x----------------------------|
A|-7--7--7--7--7--7--7--7--7--7--7--7--7--7--7--7----------------------------|
D|---------------------------------------------------------------------------|

e|---------------------------------------------------------------------------|
B|---------------------------------------------------------------------------|
G|-10--10--10--10--10--10--10--10-/12--12--12--12--12--12--12--12\-7---------|
D|--x---x---x---x---x---x---x---x-/-x---x---x---x---x---x---x---x\-x---------|
A|--8---8---8---8---8---8---8---8-/10--10--10--10--10--10--10--10\-5---------|
D|---------------------------------------------------------------------------|



RIFF J *
e|---------------------------------------------------------------------------|
B|---------------------------------------------------------------------------|
G|---------------------------------------------------------------------------|
D|-3--3--3--3--3--3--3--3--3--3--3--3--5--5--5--5----------------------------|
A|-3--3--3--3--3--3--3--3--3--3--3--3--5--5--5--5----------------------------|
D|-3--3--3--3--3--3--3--3--3--3--3--3--5--5--5--5----------------------------|

e|---------------------------------------------------------------------------|
B|---------------------------------------------------------------------------|
G|---------------------------------------------------------------------------|
D|-7--7--7--7--7--7--7--7--7--7--7--7--7--7--7--7----------------------------|
A|-7--7--7--7--7--7--7--7--7--7--7--7--7--7--7--7----------------------------|
D|-7--7--7--7--7--7--7--7--7--7--7--7--7--7--7--7----------------------------|

e|---------------------------------------------------------------------------|
B|---------------------------------------------------------------------------|
G|---------------------------------------------------------------------------|
D|-8--8--8--8--8--8--8--8--10--10--10--10--10--10--10--10--0-----------------|
A|-8--8--8--8--8--8--8--8--10--10--10--10--10--10--10--10--0-----------------|
D|-8--8--8--8--8--8--8--8--10--10--10--10--10--10--10--10--0-----------------|
LET RING                                                   -|


RIFF K _ 
e|---------------------------------------------------------------------------|
B|---------------------------------0-----0-----------------------------------|
G|------------------------------------0-----0--------------------------------|
D|---------10------10------10------------------10------10--------------------|
A|-12--12------12------12------12------------------12------12----------------|
D|---------------------------------------------------------------------------|
PM ......
LET RING   --------------------------------------------------|



RIFF L _
e|-0--0--0--0--0--0--0--0--0--0--0--0--0--0--0--0----------------------------|
B|-1--1--1--1--1--1--1--1--0--0--0--0--0--0--0--0----------------------------|
G|-2--2--2--2--2--2--2--2--2--2--2--2--2--2--2--2----------------------------|
D|-2--2--2--2--2--2--2--2--2--2--2--2--2--2--2--2----------------------------|
A|-0--0--0--0--0--0--0--0--0--0--0--0--0--0--0--0----------------------------|
D|-0--0--0--0--0--0--0--0--0--0--0--0--0--0--0--0----------------------------|
LET RING                   ----------------------|



RIFF M *
e|---------------------------------------------------------------------------|
B|---------------------------------------------------------------------------|
G|---------------------------------------------------------------------------|
D|-7--7--7--7--7--7--7--7--5--5--5--5--5--5--5--5----------------------------|
A|-7--7--7--7--7--7--7--7--5--5--5--5--5--5--5--5----------------------------|
D|-7--7--7--7--7--7--7--7--5--5--5--5--5--5--5--5----------------------------|
PM ..............................................



RIFF N
e|---------------------------------------------------------------------------|
B|-------------------------------------------------------------------------0-|
G|-------------------------------------------------------------------------0-|
D|-3--3--3--3--3--3--3--3--3--3--3--3--3--3--3--0--5--5--5--5--5--5--5--5----|
A|-3--3--3--3--3--3--3--3--3--3--3--3--3--3--3--0--5--5--5--5--5--5--5--5----|
D|-3--3--3--3--3--3--3--3--3--3--3--3--3--3--3--0--5--5--5--5--5--5--5--5----|
PM ......................
LET RING                                                                   -|



9. Sidewalks

Tuning: Standard

Intro/Outro
e|-----------------
B|----4---5-4---4--
G|------4-----4----
D|-----------------  x4
A|--4--------------
E|-----------------

Verse
First time on first verse only
  \    /
e|-----|---------
B|-----|---------
G|--6--|--2-4-6--
D|--6--|--2-4-6--  x4
A|--4--|--0-2-4--
E|-----|---------
"The bridges are crumbled..."
"Out on the front porch..."

Chorus
e|-----------
B|-----------
G|----2---2--
D|--2-2-2-2--  x2
A|--2-0-2-0--
E|--0---0----
"Over the sidewalks..."

Post-Chorus
e|---------
B|---------
G|--5-4----
D|------4--  x4
A|---------
E|---------

Bridge
e|-----------
B|-----------
G|--6-4-2-4--
D|--6-4-2-4--  x2
A|--4-2-0-2--
E|-----------
"All of the days..."

e|---------
B|---------
G|--6-4-0--
D|--6-4-0--  x4
A|--4-2-2--
E|---------
"Away..."

e|-----------
B|-----------
G|----4-6-4--
D|--2-4-6-4--
A|--2-2-4-2--
E|--0--------
"Sidewalks, running away from the streets we knew..."


10. Divide and Conquer

Tuning: Drop D 

Verse 3x  
e|--------------------------------------------------|
B|--------------------------------------------------|
G|---------------7h8-7------------7h8-7-------------|
D|-0000-0000-----------h10-7h8----------h10-7h8-----|
A|-0000-0000----------------------------------------|
D|-0000-0000----------------------------------------|   
   .... ....                                                          

Last time of the verse
e|-------------------------------|
B|-------------------------------|
G|-----------7h8p7h8p7h8p7h8-88--|
D|-0000-0000---------------------|
A|-0000-0000---------------------|
D|-0000-0000---------------------|
   .... ....

Pre-Chorus 1x                                           
e|-------------------------------------|
B|-------------------------------------|
G|-10~---------------------------------|
D|--8~----------10~----10-10-10--------|
A|--8~----------10~----10-10-10--------|
D|--8~----------10~----10-10-10--------|

Chorus
e|----------------------------------------------------|
B|----------------------------------------------------|
G|----------------------------------------------------|
D|-0-0-0-10-10-10-0-0-0-10-10-10-(8)------------------|
A|-0-0-0-10-10-10-0-0-0-10-10-10-(8)------------------|
D|-0-0-0-10-10-10-0-0-0-10-10-10-(8)------------------|

Verse 
Pre-chorus
Chorus

Bridge-2x     play the (88-88) after the 2nd time 
e|------------------------------------------------------|
B|------------------------------------------------------|
G|----14-14/15-----14-14/15-----------------------------|
D|-00--X--X/ X--00--X--X/ X-88-88-(88-88)---------------|
A|-00-12-12/13--00-12-12/13-88-88-(88-88)---------------|
D|-00-----------00----------88-88-(88-88)---------------|
   ..           ..
Bridge cont. 4x               on some of the notes pull off 0

e|------------------------------------------|
B|------------------------------------------|
G|--------7---------------------------------|
D|-00-8-7---8-7-8-00-8-7-00-8-7--8-10-------|
A|-------------------------------8-10-------|
D|-------------------------------8-10-------|
   ..             ..       ..

Pre-chorus
Chorus 

Outro 
e|-------------------------------------------------------------|
B|-------------------------------------------------------------|
G|----------------------------------------------------------7*-|
D|-0000-0000-0000-888-0000-0000-0000-888-0000-0000-0000--------|
A|-0000-0000-0000-888-0000-0000-0000-888-0000-0000-0000--------|
D|-0000-0000-0000-888-0000-0000-0000-888-0000-0000-0000--------|


11. Razorblades

Tuning:Drop D 

INTRO (0:00)

e|-------------------------------------------------------------------|
B|-------------------------------------------------------------------|
G|-------------------------------------------------------------------|
D|--1111111111111111111111111111111112121212121212121111111111111111-|
A|--9-9-9-9-9-9-9-9-9-9-9-9-9-9-9-9-9-9-9-9-9-9-9-9-9-9-9-9-9-9-9-9--|
D|--9-9-9-9-9-9-9-9-9-9-9-9-9-9-9-9-9-9-9-9-9-9-9-9-9-9-9-9-9-9-9-9--|

e|----------------------------------------|
B|----------------------------------------|
G|----------------------------------------|
D|--77777777777777777777777777777777------|
A|--55555555555555555555555555555555------|
D|--55555555555555555555555555555555------|

e|--------------------------------------------------------------------|
B|--------------------------------------------------------------------|
G|--------------------------------------------------------------------|
D|--12121212121212121111111111111111777777771212121212121212----------|
A|--9-9-9-9-9-9-9-9-9-9-9-9-9-9-9-9-99999999-9-9-9-9-9-9-9-9----------|
D|--9-9-9-9-9-9-9-9-9-9-9-9-9-9-9-9-99999999-9-9-9-9-9-9-9-9----------|

e|----------------------------------------|
B|----------------------------------------|
G|----------------------------------------|
D|--77777777777777777777777777777777------|
A|--55555555555555555555555555555555------|
D|--55555555555555555555555555555555------|

VERSE (0:17)

Gtr. I
e|-------------------------------------------------------------------|
B|-------------------------------------------------------------------|
G|-------------------------------------------------------------------|
D|-99999999999999999999999999999999-55555555555555555555555555555555-|
A|-99999999999999999999999999999999-55555555555555555555555555555555-|\
D|-99999999999999999999999999999999-55555555555555555555555555555555-| \
                                                                        2x
e|-------------------------------------------------------------------| /
B|-------------------------------------------------------------------|/
G|-------------------------------------------------------------------|
D|-9999999999999999999999999999-x-7-55555555555555555555555555555555-|
A|-9999999999999999999999999999-x-7-55555555555555555555555555555555-|
D|-9999999999999999999999999999-x-7-55555555555555555555555555555555-|

   1.             2.
e|--------------|------------|
B|--------------|------------|
G|--------------|------------|
D|-8~--x-7-7-7--|-8~~--------|
A|-8~--x-7-7-7--|-8~~--------|
D|-8~--x-7-7-7--|-8~~--------|


Gtr. II
e|-------------------------------------------------|
B|--11----11----11----11----9----9----9----9-------|
G|-----12----12----12----12---12---12---12---12----| 4x
D|-------------------------------------------------|
A|-------------------------------------------------|
D|-------------------------------------------------|

CHORUS(0:56)

e|-------------------------------------------|
B|-------------------------------------------|
G|-------------------------------------------|
D|-0~0~-7~7~-9~-5~-9~-5~-0~0~-7~7~-9~9~-5~5~-|
A|-0~0~-7~7~-9~-5~-9~-5~-0~0~-7~7~-9~9~-5~5~-|
D|-0~0~-7~7~-9~-5~-9~-5~-0~0~-7~7~-9~9~-5~5~-|

VERSE 2(1:14)

Gtr. I
e|-------------------------------------------------------------------|
B|-------------------------------------------------------------------|
G|-------------------------------------------------------------------|
D|-99999999999999999999999999999999-55555555555555555555555555555555-|
A|-99999999999999999999999999999999-55555555555555555555555555555555-|
D|-99999999999999999999999999999999-55555555555555555555555555555555-|

e|-------------------------------------------------------------------|
B|-------------------------------------------------------------------|
G|-------------------------------------------------------------------|
D|-9999999999999999999999999999-x-7-55555555555555555555555555555555-|
A|-9999999999999999999999999999-x-7-55555555555555555555555555555555-|
D|-9999999999999999999999999999-x-7-55555555555555555555555555555555-|

Gtr. II
e|-------------------------------------------------|
B|--11----11----11----11----9----9----9----9-------|
G|-----12----12----12----12---12---12---12---12----| 2x
D|-------------------------------------------------|
A|-------------------------------------------------|
D|-------------------------------------------------|

CHORUS 2(1:31)

e|-----------------------------------------|
B|-----------------------------------------|
G|-----------------------------------------|
D|-0~0~-7~7~-9~-5~-9~-5~-0~0~-7~7~-9~9~-7~-|
A|-0~0~-7~7~-9~-5~-9~-5~-0~0~-7~7~-9~9~-5~-|
D|-0~0~-7~7~-9~-5~-9~-5~-0~0~-7~7~-9~9~-5~-|

BRIDGE(1:50)

e|-------------------------------------|
B|-------------------------------------|
G|-------------------------------------| 2x
D|-0~-00-00~-00-00~-00-00-0-7~7~-7~7~--|
A|-0~-00-00~-00-00~-00-00-0-5~5~-5~5~--|
D|-0~-00-00~-00-00~-00-00-0-5~5~-5~5~--|
      ** *   ** *   ** ** *
e|-------------------------------------------------------------------|
B|-------------------------------------------------------------------|
G|-------------------------------------------------------------------|
D|--1111111111111111111111111111111112121212121212121111111111111111-|
A|--9-9-9-9-9-9-9-9-9-9-9-9-9-9-9-9-9-9-9-9-9-9-9-9-9-9-9-9-9-9-9-9--|
D|--9-9-9-9-9-9-9-9-9-9-9-9-9-9-9-9-9-9-9-9-9-9-9-9-9-9-9-9-9-9-9-9--|

e|----------------------------------------|
B|----------------------------------------|
G|----------------------------------------|
D|--77777777777777777777777777777777------|
A|--55555555555555555555555555555555------|
D|--55555555555555555555555555555555------|

e|--------------------------------------------------------------------|
B|--------------------------------------------------------------------|
G|--------------------------------------------------------------------|
D|--12121212121212121111111111111111777777771212121212121212----------|
A|--9-9-9-9-9-9-9-9-9-9-9-9-9-9-9-9-99999999-9-9-9-9-9-9-9-9----------|
D|--9-9-9-9-9-9-9-9-9-9-9-9-9-9-9-9-99999999-9-9-9-9-9-9-9-9----------|

e|----------------------------------------|
B|----------------------------------------|
G|----------------------------------------|
D|--77777777777777777777777777777777------|
A|--55555555555555555555555555555555------|
D|--55555555555555555555555555555555------|

CHORUS 3(2:25)

e|-------------------------------------------|
B|-------------------------------------------|
G|-------------------------------------------|
D|-0~0~-7~7~-9~-5~-9~-5~-0~0~-7~7~-9~9~-5~5~-|
A|-0~0~-7~7~-9~-5~-9~-5~-0~0~-7~7~-9~9~-5~5~-|
D|-0~0~-7~7~-9~-5~-9~-5~-0~0~-7~7~-9~9~-5~5~-|

e|-----------------------------------------------------------|
B|-----------------------------------------------------------|
G|-----------------------------------------------------------|
D|-0000-7777-995~-5-995~5-000-xx-xxx-x7777-99999999-55555555-|
A|-0000-7777-995~-5-995~5-000-xx-xxx-x7777-99999999-55555555-|
D|-0000-7777-995~-5-995~5-000-xx-xxx-x7777-99999999-55555555-|

ENDING(3:00)

e|--------------------------------------------------------------|
E|--------------------------------------------------------------|
G|--------------------------------------------------------------|
D|-555555555555555-0~-00-00~-00-00~-00-07-00-7-00-7-7-0~--------|
A|-555555555555555-0~-00-00~-00-00~-00-05-00-5-00-5-5-0~--------|
D|-555555555555555-0~-00-00~-00-00~-00-05-00-5-00-5-5-0~--------|
   ***************    ** *   ** *   ** *  **   **


12. Falling Down

Tuning:Drop D





Intro:
e|--------------------------------|
B|--------------------------------|
G|---7~~----9~~-------------------|
D|---7~~----0~~-------------------|
A|---0~~----7~~-----888888--10----|
D|---0~~----0~~-----888888--10----|
                    ......


Verse 1A:
e|----------------------------------------|
B|----------------------------------------|
G|--------10101010--10101010--12121212----|
D|--0000--10101010--10101010--12121212----| x4
A|--0000--8-8-8-8---8-8-8-8---10101010----|
D|--0000--8-8-8-8---8-8-8-8---10101010----|


                         "I can't forget.."

Verse 1B:
e|----------------------------------------|
B|----------------------------------------|
G|--------10101010--10101010--9999--------|
D|--0000--10101010--10101010--7777--------|
A|--0000--8-8-8-8---8-8-8-8---7777--------|
D|--0000--8-8-8-8---8-8-8-8---7777--------|

e|----------------------------------------|
B|----------------------------------------|
G|--------10101010--10101010--12121212----|
D|--0000--10101010--10101010--12121212----|  x2
A|--0000--8-8-8-8---8-8-8-8---10101010----|
D|--0000--8-8-8-8---8-8-8-8---10101010----|


Chorus:
"I stand alone.."
e|----------------------------------------|
B|----------------------------------------|
G|--7777-9999-10101010-12121212-----------|
D|--7777-xxxx-x-x-x-x--x-x-x-x------------|
A|--5555-7777-8-8-8-8--10101010-----------|
D|----------------------------------------|
"I'm on my own.."
e|----------------------------------------|
B|----------------------------------------|
G|--5555-9999-10101010-12121212-----------|
D|--5555-xxxx-x-x-x-x--x-x-x-x------------|
A|--3333-7777-8-8-8-8--10101010-----------|
D|----------------------------------------|

"My    hands   will    bleeeed"
e|--------------------------------------------------|
B|--------------------------------------------------|
G|--------------------------10101010------9999------|
D|--77777777-77777777--0000-x-x-x-x--0000-xxxx------| x2
A|--77777777-77777777--0000-8-8-8-8--0000-7777------|
D|--77777777-77777777--0000----------0000-----------|
                       ....          ....
^^^
ON THE END OF THE 2 TIME AROUND PLAY THIS INSTEAD OF WHATS ABOVE:

e|--------------------------------|
B|--------------------------------|
G|----------------------------7~--|
D|--0000-0000--10-10-10-12----7~--|
A|--0000-0000--10-10-10-12----0~--|
D|--0000-0000--10-10-10-12----0~--|
    .... ....

Verse 2:
There is no guitar in the 2nd verse so play this right before the chorus starts again
e|--------------------------------|
B|--------------------------------|
G|--------------------------------|
D|---8-xxx-10-xxx-----------------|
A|---8-xxx-10-xxx-----------------|
D|---8-xxx-10-xxx-----------------|


Chorus:
"I stand alone.."
e|----------------------------------------|
B|----------------------------------------|
G|--7777-9999-10101010-12121212-----------|
D|--7777-xxxx-x-x-x-x--x-x-x-x------------|
A|--5555-7777-8-8-8-8--10101010-----------|
D|----------------------------------------|
"I'm on my own.."
e|----------------------------------------|
B|----------------------------------------|
G|--5555-9999-10101010-12121212-----------|
D|--5555-xxxx-x-x-x-x--x-x-x-x------------|
A|--3333-7777-8-8-8-8--10101010-----------|
D|----------------------------------------|

"My    hands   will    bleeeed"
e|--------------------------------------------------------|
B|--------------------------------------------------------|
G|--------------------------10/9-10/9-------10/9-10/9-----|
D|--77777777-77777777--0000-x-/x-x-/x--0000-x-/x-x-/x-----| x2
A|--77777777-77777777--0000-8-/7-8-/7--0000-8-/7-8-/7-----|
D|--77777777-77777777--0000------------0000---------------|
                       ....            ....

Bridge:
e|------------------------------------------|
B|------------------------------------------|
G|------------------------------------------|
D|--0000-8--0000-8--0000-8----3333333-00----| x3
A|--0000-8--0000-8--0000-8----3333333-00----|
D|--0000-8--0000-8--0000-8----3333333-00----|
    ....    ....    ....

e|------------------------------------------|
B|------------------------------------------|
G|------------------------------------------|
D|--0000-7777-8888-10101010-----------------| x2
A|--0000-7777-8888-10101010-----------------|
D|--0000-7777-8888-10101010-----------------|


Chorus:
"I stand alone.."
e|----------------------------------------|
B|----------------------------------------|
G|--7777-9999-10101010-12121212-----------|
D|--7777-xxxx-x-x-x-x--x-x-x-x------------|
A|--5555-7777-8-8-8-8--10101010-----------|
D|----------------------------------------|
"I'm on my own.."
e|----------------------------------------|
B|----------------------------------------|
G|--5555-9999-10101010-12121212-----------|
D|--5555-xxxx-x-x-x-x--x-x-x-x------------|
A|--3333-7777-8-8-8-8--10101010-----------|
D|----------------------------------------|

"My    hands   will    bleeeed"
e|---------------------------------------------|
B|---------------------------------------------|
G|--------------------------10-99-------9------|
D|--77777777-77777777--0000-x--xx--0000-x------| x2
A|--77777777-77777777--0000-8--77--0000-7------|
D|--77777777-77777777--0000--------0000--------|
                       ....        ....

^^^
ON THE END OF THE 2 TIME AROUND PLAY THIS INSTEAD OF WHATS ABOVE:

e|--------------------------------|
B|--------------------------------|
G|--7-7-7-7-------------7~--------|
D|--7-7-7-7-00000000000-7~--------|
A|--0-0-0-0-00000000000-0~--------|
D|--0-0-0-0-00000000000-0~--------|
            ...........


Outro:
e|--------------------------------|
B|--------------------------------|
G|--7---------------7-9-7-3-3-7---|
D|--x-000-0-0-0-000-x-x-x-x-x-x---| x3
A|--5-000-0-0-0-000-5-7-5-1-1-5---|
D|----000-0-0-0-000---------------|
      ... . . . ...

e|--------------------------------|
B|--------------------------------|
G|--7---------------7-7-7-3-------|
D|--x-000-0-0-0-000-7-7-7-3-------|
A|--5-000-0-0-0-000-5-5-5-1-------|
D|----000-0-0-0-000---------------|
      ... . . . ...






comments
We did not receive enough feedback on this tab! Please rate:
print report bad tab
1 2 3 4 5
1 comment total.
0 reply
brenzo wrote on January 18 2007, 07:38 pm

Absoulutely marvellous

this is the only tab ive seen for this album thats right the whole way through

5*

great job

I want to post or [tab]
guest
You may want to rate the tab now too:
select rating
Please do not post tabs as comments. Select "correction" instead!