Oops, an error
Loading. Please wait.

Black Diamond Tab

ver2
ver2

Whole song

More versions @911Tabs.com
6,901 views 9 this week
1 commentread comment
1 2 3 4 5
worth learning
x 1
Autoscroll
+/-
esc
set tempo
stop
Contributor
WARNING: You are trying to view
                                    content from Ultimate-Guitar.com
                                    in an unauthorized application,
                                    which is prohibited.

                                    Please use an official Ultimate
                                    Guitar Tabs application for iPhone,
                                    iPad or Android to access legitimate
                                    chords, guitar, bass, and drum tabs
                                    from Ultimate-Guitar.com database.

                                    Type "ultimate guitar tabs" in Apple
                                    App Store's or Android Market's
                                    search to find the application.
.........INTRO...................   
|--------------------------------| 
|--------------------------------| 
|--7---------3--(3)-----5-----7--| 
|--7---------3--(3)-----5-----7--| 
|--5---------1--(1)-----3-----5--| 
|--------------------------------| 

............................................................                                    
|----------------------------|                             .
|----------------------------|                             .
|----------------------------|     ALL OF THIS REPEAT      .
|----------------------------|         2 times             .
|---5555555555555555331111111|                             .
|----------------------------|                             .
                                                           .
|--------------------------------------------------|       .
|--------------------------------------------------|       .
|--------------------------------------------------|       .
|--------------------------------------------------|       .
|111111133551133333333333333011335555555555555555--|       .
|--------------------------------------------------|       .  
............................................................

ENDS with 
 
---------|
---------|
---7-----|
---7-----|          
---5-----|


AND starts with
---------| ........................................... .
---------|                                             .
---7-----|                                             .
---7-----|                                    2x       .
---5-----|                                             .
---------|                                             .
                                                       .
FIRST VERSE                                            .
|-----------------------------------------|            .
|-----------------------------------------|            . 
|--------3------3-----------3------3------|            .
|-2------3------3----2------3------3------|            .
|-1-1111-1-1111-1-11-1-1111-1-1111-1-11---|            .
|-----------------------------------------|            .
                                                       .
                                                       .
|-----------------------------------------------|      .
|-----------------------------------------------|      .
|-5-----3-----5----------6666-------------------|      .
|-5-----3-----5----7---------8888-77------------|      .
|-3-----1-----3----7----------------999-8888----|      .
|------------------5----------------------------|      .
........................................................


 CHORUS 2x
|----------------------------|
|----------------------------|
|----------------------------|
|----------------------------|
|---5555555555555555331111111|
|----------------------------|   

|------------------------------------------------------|
|------------------------------------------------------|
|------------------------------------------------------|
|------------------------------------------------------|
|111111133551133333333333333011335555555555555555------|
|------------------------------------------------------|

SOLO
|----------------------------------------------------------17-17-15
|----15-17-18-17-15-18-17-------------15-17-18-17-15-18-17---------
|-14----------------------15-14-12-14------------------------------
|------------------------------------------------------------------
|------------------------------------------------------------------
|------------------------------------------------------------------

        2x                   in the second time
-18-17-15---------------|-----17-17-17--18-17-15----------------------|
----------18-17-15------|--17--------------------18-17-15-------------|
-------------------17-15|---------------------------------17-15---14v-|
------------------------|---------------------------------------------|
------------------------|---------------------------------------------|
------------------------|---------------------------------------------|

END SOLO 1

|--------------------------------|
|--------------------------------|
|-7-------7-------------------7--|
|-7---7---7----7----8--10-----7--|
|-5---7---5----7----8--10-----5--|
|-----5--------5----6--8---------|

START SOLO 2

|-----------------------------------------------------------------|
|-5-000-7-000-8-000-5-000-7-000-8-000-10-000-7-000-12-000-10-000--|
|-----------------------------------------------------------------|
|-----------------------------------------------------------------|
|-----------------------------------------------------------------|
|-----------------------------------------------------------------|

           
|------------------------------------------------------------|
|-8-000-7-000-8-000-7-000-5-000-4-000-5/8-8-8/12-12-12/17-17-|
|------------------------------------------------------------|
|------------------------------------------------------------|
|------------------------------------------------------------|
|------------------------------------------------------------|

|-----------------------------17-19-17------------------|
|-19-20-19---19h20h1917h19h20----------20-19-17---------|
|-----------------------------------------------19-18-16|
|-------------------------------------------------------|
|-------------------------------------------------------|
|-------------------------------------------------------|

|-------------------------------------------------------|
|----------17-19-20-20-19-17----------------------------|
|-16-18-19-------------------19-18-16-------------------|
|-------------------------------------19-18-17----------|
|-------------------------------------------------------|
|-------------------------------------------------------|

RITHM FOR SOLOS

|-------------------------------------------------------|
|-------------------------------------------------------|
|-------------------------------------------------------|
|-------------------------------------------------------|
|--------------------22-444444444444---22---------------|
|-22222222222444-555----------------------55-44-22222222|

--------------------------------|
----------------------18--18/20-|
------------------15------------|
--------------17----------------|
----------17--------------------|
---15--18-----------------------|

e:---------------------------------------------------------------------------|
B:-20~--20--18--16----------------------16--18--20--18--16-------------------|
G:------------------19--17--15--17--19----------------------19--17--16-------|
D:----------------------------------------------------------------------18--1|
A:---------------------------------------------------------------------------|
E:---------------------------------------------------------------------------|


e:---------------------------------------------------------------------------|
B:---------------------------------------------------------------------------|
G:-------19--17--16----------------------------------------------15--17--19~-|
D:7--15--------------18--17--15----------------------15--17--18--------------|
A:-------------------------------18--17--15--17--18--------------------------|
E:---------------------------------------------------------------------------|
                     Gtr
e:--------------------21--21~--21--19--17--------------21--19--17------------|
B:-|-Keyboard-Solo-|-----------------------21--19--17--------------21--19--17|
G:-|---------------|---------------------------------------------------------|
D:-|---------------|---------------------------------------------------------|
A:-|---------------|---------------------------------------------------------|
E:---------------------------------------------------------------------------|


e:----------------------------------------------------------18~--------------|
B:----------------------------------------------17--19--21------|-Keyboard-So|
G:--20--18--16----------------------16--18--20------------------|------------|
D:--------------19--18--16--18--19------------------------------|------------|
A:--------------------------------------------------------------|------------|
E:---------------------------------------------------------------------------|
       Gtr
e:--------14~------13--14--16--14--13------16--14--14~--13-----------13--14--|
B:lo-|---------16----------------------16-------------------16~--16----------|
G:---|-----------------------------------------------------------------------|
D:---|-----------------------------------------------------------------------|
A:---|-----------------------------------------------------------------------|
E:---------------------------------------------------------------------------|


e:16--16--14~----16--14--13------13--------------16--14--13------------------|
B:---------------------------16------16--14--12--------------16--14--12------|
G:-----------------------------------------------------------------------15--|
D:---------------------------------------------------------------------------|
A:---------------------------------------------------------------------------|
E:---------------------------------------------------------------------------|

-----------------------------|
|-Repeat-Chorus-Until-the-End|
|----------------------------|
|----------------------------|
|----------------------------|
-----------------------------|
comments
We did not receive enough feedback on this tab! Please rate:
1 2 3 4 5
1 comment total.
0 reply
vinc3nt wrote on November 5 2008, 08:26 pm

ok i guess....

I want to post or [tab]
guest
You may want to rate the tab now too:
select rating
Please do not post tabs as comments. Select "correction" instead!