Oops, an error
Loading. Please wait.

Black Diamond Tab

ver3
ver3

Whole song

Interactive

More versions @911Tabs.com
12,900 views 24 this week
1 commentread comment
1 2 3 4 5
excellent!
x 5
add to favorites launch autoscroll
font size
0
reset
Autoscroll
+/-
esc
set tempo
stop
Contributor
Tuning
D# G# C# F# A# D#
WARNING: You are trying to view
                                    content from Ultimate-Guitar.com
                                    in an unauthorized application,
                                    which is prohibited.

                                    Please use an official Ultimate
                                    Guitar Tabs application for iPhone,
                                    iPad or Android to access legitimate
                                    chords, guitar, bass, and drum tabs
                                    from Ultimate-Guitar.com database.

                                    Type "ultimate guitar tabs" in Apple
                                    App Store's or Android Market's
                                    search to find the application.
#----------------------------------PLEASE NOTE---------------------------------#
#This file is the author's own work and represents their interpretation of the #
#song. You may only use this file for private study, scholarship, or research. #
#------------------------------------------------------------------------------#

BLACK DIAMOND
As recorded by Stratovarius
(From the 1997 Album VISIONS)

Transcribed by mpamps
	

Words by Timo Kotipelto Music by Timo Tolkki

D5
x 5 7 x x x
	
C5
x 3 5 x x x
	
Bb5
x 1 3 x x x
	
A5
x 0 2 x x x
A7/C#
x 4 2 0 x x
	
G5
3 5 x x x x
	
B5
x 2 4 x x x
	
F#5
2 4 x x x x
E5
0 2 x x x x
	
D5/A
x x 7 7 x x
	
Bb
x x 8 7 x x
	
C
x x x 5 5 x

Gtr I (Eb Ab Db Gb Bb Eb) - 'Untitled'
Gtr II (Eb Ab Db Gb Bb Eb) - 'Untitled'
Gtr III (Eb Ab Db Gb Bb Eb) - 'Untitled'
Gtr IV (Eb Ab Db Gb Bb Eb) - 'Untitled'
Gtr V (Eb Ab Db Gb Bb Eb) - 'Untitled'
Gtr VI (Eb Ab Db Gb Bb Eb) - 'Untitled'

 Intro
  Q=152
  Dm                                    Bb
 4/4
  Gtr II
  E E E  E E E E E   E  E E E E E E E   E E E  E E E E E   E E E E E E E E
|---5-3--5---5---5-|----5-3-5---5---5-|---6-5--6---6---6-|---6-5-6---6---6-|
|----------6---5---|-3--------6---5---|----------8---6---|-5-------8---6---|
|------------------|------------------|-7----------------|-----------------|
|-0----------------|------------------|------------------|-----------------|
|------------------|--------------3---|------------------|-----------------|
|------------------|------------------|-6----------------|-----------------|
  Q   H.             H.           Q     Q   H.


  C                                    Dm
  E E E  E E E E E   E E E E E E E E   E E E  E E E E E   E  E E E E E E E
|---3----3---3---3-|---3---3-------6-|-5-5----5---5---5-|----5---5---5---5-|
|-5---6----5---3---|-----6---5-6-8---|-----8----6---5---|------8---6---5---|
|------------------|-5---------------|------------------|-7----------------|
|------------------|-----------------|-0----------------|------------------|
|-3----------------|-----------------|------------------|--------------0---|
|------------------|-----------------|------------------|------------------|
  Q   H.                               Q   H.             H.           Q


  D5                                     Bb5
  Gtrs I, III
  W                  +W                  Q   Q    H          W
  |                   |                  |
  /                   /                  /

  E E E  E E E E E    E  E E E E E E E   E E E  E E E E E    E  E E E E E E E
|---5-3--5---5---5-|-----5-3-5---5---5-|---6-5--6---6---6-|-----6-5-6---6---6-|
|----------6---5---|--3--------6---5---|----------8---6---|--5--------8---6---|
|------------------|-------------------|-7----------------|-------------------|
|-0----------------|-------------------|------------------|-------------------|
|------------------|---------------3---|------------------|-------------------|
|------------------|-------------------|-6----------------|-------------------|
| Q   H.              H.           Q     Q   H.
|
| Gtr IV
| W                  +W                  W                  +W
|------------------|-------------------|------------------|-------------------|
|------------------|-------------------|------------------|-------------------|
|-7----------------|-(7)---------------|-7----------------|-(7)---------------|
|-7----------------|-(7)---------------|-8----------------|-(8)---------------|
|------------------|-------------------|------------------|-------------------|
|------------------|-------------------|------------------|-------------------|


  C5                                     D5
  W                  +W                  W                  +W
  |                   |                  |                   |
  /                   /                  /                   /

  E E E  E E E E E    E  E E E E E E E   E E E  E E E E E    E  E E E E E E E
|---3----3---3---3-|-----3---3-------6-|-5-5----5---5---5-|-----5---5---5---5-|
|-5---6----5---3---|-------6---5-6-8---|-----8----6---5---|-------8---6---5---|
|------------------|--5----------------|------------------|--7----------------|
|------------------|-------------------|-0----------------|-------------------|
|-3----------------|-------------------|------------------|-------------------|
|------------------|-------------------|------------------|-------------------|
| Q   H.                                 Q   H.
|
| W                  +W                  W                  +W
|------------------|-------------------|------------------|-------------------|
|-5----------------|-(5)---------------|------------------|-------------------|
|-5----------------|-(5)---------------|-7----------------|-(7)---------------|
|------------------|-------------------|-7----------------|-(7)---------------|
|------------------|-------------------|------------------|-------------------|
|------------------|-------------------|------------------|-------------------|


    Dm
    Gtrs I, III
      PM-------------------------------------------------------------|
    E S S S  S S S S S S S S S S S    S  S S S S S S S S S S S S S S S
||---------------------------------|-----------------------------------|
||o--------------------------------|-----------------------------------|
||---------------------------------|-----------------------------------|
||--7------------------------------|-----------------------------------|
||o-5-5-5-5--5-5-5-5-5-5-5-5-5-5-5-|--5--5-5-5-5-5-5-5-5-5-5-5-3-3-3-3-|
||---------------------------------|-----------------------------------|
|
|   Gtr II
|   E E   E    E   E   E   E   E      E    E   E   E   E   E   E   E
||----5---3----5-------5-------5---|-------5---3---5-------5-------5---|
||o----------------6-------5-------|--3----------------6-------5-------|
||---------------------------------|-----------------------------------|
||--0------------------------------|-----------------------------------|
||o--------------------------------|---------------------------3-------|
||---------------------------------|-----------------------------------|
|   Q     H.                          H.                       Q
|
|   Gtr IV
|   W                                +W
||---------------------------------|-----------------------------------|
||o--------------------------------|-----------------------------------|
||--7------------------------------|-(7)-------------------------------|
||--7------------------------------|-(7)-------------------------------|
||o--------------------------------|-----------------------------------|
||---------------------------------|-----------------------------------|


  Bb
  PM-----------------------------------------------------------------|
  S S S S S  S S S S S S S S S S S    S  S S S S S S S S S S S S S S S
|----------------------------------|-----------------------------------|
|----------------------------------|-----------------------------------|
|----------------------------------|-----------------------------------|
|----------------------------------|-----------------------------------|
|-1-1-1-1-1--1-1-1-1-1-1-1-1-1-1-1-|--1--1-1-1-1-1-1-1-1-1-3-3-5-5-1-1-|
|----------------------------------|-----------------------------------|
|
| E   E   E    E   E   E   E   E      E    E   E   E   E   E   E   E
|-----6---5----6-------6-------6---|-------6---5---6-------6-------6---|
|------------------8-------6-------|--5----------------8-------6-------|
|-7--------------------------------|-----------------------------------|
|----------------------------------|-----------------------------------|
|----------------------------------|-----------------------------------|
|-6--------------------------------|-----------------------------------|
| Q       H.
|
| W                                  +W
|----------------------------------|-----------------------------------|
|----------------------------------|-----------------------------------|
|-7--------------------------------|-(7)-------------------------------|
|-8--------------------------------|-(8)-------------------------------|
|----------------------------------|-----------------------------------|
|----------------------------------|-----------------------------------|


  C
  PM-----------------------------------------------------------------|
  S S S S S  S S S S S S S S S S S    S  S S S S S S S S S S S S S S S
|----------------------------------|-----------------------------------|
|----------------------------------|-----------------------------------|
|----------------------------------|-----------------------------------|
|----------------------------------|-----------------------------------|
|-3-3-3-3-3--3-3-3-3-3-3-3-3-3-3-3-|--3--3-3-3-3-3-3-3-----------------|
|----------------------------------|-------------------3-3-5-5-6-6-3-3-|
|
| E   E   E    E   E   E   E   E      E    E   E   E   E   E   E   E
|-----3--------3-------3-------3---|-------3-------3---------------6---|
|-5-------6--------5-------3-------|-----------6-------5---6---8-------|
|----------------------------------|--5--------------------------------|
|----------------------------------|-----------------------------------|
|-3--------------------------------|-----------------------------------|
|----------------------------------|-----------------------------------|
| Q       H.
|
| W                                  +W
|----------------------------------|-----------------------------------|
|-5--------------------------------|-(5)-------------------------------|
|-5--------------------------------|-(5)-------------------------------|
|----------------------------------|-----------------------------------|
|----------------------------------|-----------------------------------|
|----------------------------------|-----------------------------------|


  Dm
  PM-------------------------------------------------|
  S S S S S  S S S S S S S S S S S    S  S S S S S S S S S S S S S S S
|----------------------------------|------------------------------------||
|----------------------------------|-----------------------------------o||
|----------------------------------|-------------------2h3---2----------||
|----------------------------------|-----------------------5---3h5-2h3--||
|-5-5-5-5-5--5-5-5-5-5-5-5-5-5-5-5-|--5--5-5-5-5-5-5-5-----------------o||
|----------------------------------|------------------------------------||
|
| E   E   E    E   E   E   E   E      E    E   E   E   E   E   E   E
|-5---5--------5-------5-------5---|-------5-------5-------5-------5----||
|---------8--------6-------5-------|-----------8-------6-------5-------o||
|----------------------------------|--7---------------------------------||
|-0--------------------------------|------------------------------------||
|----------------------------------|-----------------------------------o||
|----------------------------------|------------------------------------||
| Q       H.
|
| W                                  +W
|----------------------------------|------------------------------------||
|----------------------------------|-----------------------------------o||
|-7--------------------------------|-(7)--------------------------------||
|-7--------------------------------|-(7)--------------------------------||
|----------------------------------|-----------------------------------o||
|----------------------------------|------------------------------------||


   Verses 1 & 2
    D5                      Bb5
                              PM----|   PM----|   PM|
    W          +W           E S S S S E S S S S E S S
||-----------|------------|---------------------------|
||o----------|------------|---------------------------|
||--2--------|-(2)--------|---------------------------|
||--0--------|-(0)--------|-3---------3---------3-----|
||o----------|------------|-1-1-1-1-1-1-1-1-1-1-1-1-1-|
||-----------|------------|---------------------------|


  Bbb5                Bb5
    PM----|   PM----|   PM|
  E S S S S E S S S S E S S
|----------------------------|
|----------------------------|
|----------------------------|
|-2---------2---------3------|
|-1-1-1-1-1-1-1-1-1-1-1-1-1--|
|----------------------------|


  D5                      Bb5
                            PM----|   PM----|   PM|
  W          +W           E S S S S E S S S S E S S
|----------|------------|---------------------------|
|----------|------------|---------------------------|
|----------|------------|---------------------------|
|-7--------|-(7)--------|-3---------3---------3-----|
|-5--------|-(5)--------|-1-1-1-1-1-1-1-1-1-1-1-1-1-|
|----------|------------|---------------------------|


  Bbb5
    PM----|   PM----|   PM|
  E S S S S E S S S S E S S
|-----------------------------||
|-----------------------------||
|-----------------------------||
|-2---------2---------2-------||
|-1-1-1-1-1-1-1-1-1-1-1-1-1---||
|-----------------------------||


 Pre-Chorus
  C                       Bb                      C
  W          +W           W          +W           W          +W
|----------|------------|----------|------------|----------|--------|
|----------|------------|----------|------------|----------|--------|
|----------|------------|----------|------------|----------|--------|
|-5--------|-(5)--------|-3--------|-(3)--------|-5--------|-(5)----|
|-3--------|-(3)--------|-1--------|-(1)--------|-3--------|-(3)----|
|----------|------------|----------|------------|----------|--------|
|
| Gtr IV
| W          +W           W          +W           W          +W
|-3--------|-(3)--------|-1--------|-(1)--------|-3--------|-(3)----|
|-5--------|-(5)--------|-3--------|-(3)--------|-5--------|-(5)----|
|-5--------|-(5)--------|-3--------|-(3)--------|-5--------|-(5)----|
|----------|------------|----------|------------|----------|--------|
|----------|------------|----------|------------|----------|--------|
|----------|------------|----------|------------|----------|--------|


  A
  Gtrs I, III
             PM----------------------|
  H    +Q.   S S    E  S S E S S E S S E +E
|----------------|-----------------------------||
|----------------|----------------------------o||
|-2----(2)---6-6-|--6--------------------------||
|-2----(2)-------|-----8-8-8-7-7-7-5-5-5-(5)\--||
|-0----(0)-------|----------------------------o||
|----------------|-----------------------------||
|
| Gtr IV
| W                +W
|-0--------------|-(0)-------------------------||
|-2--------------|-(2)------------------------o||
|-2--------------|-(2)-------------------------||
|----------------|-----------------------------||
|----------------|----------------------------o||
|----------------|-----------------------------||


   Chorus
    Dm
    Gtrs I, III
      PM-------------------------------------------------------------|
    E S S S  S S S S S S S S S S S    S  S S S S S S S S S S S S S S S
||---------------------------------|-----------------------------------|
||o--------------------------------|-----------------------------------|
||---------------------------------|-----------------------------------|
||--7------------------------------|-----------------------------------|
||o-5-5-5-5--5-5-5-5-5-5-5-5-5-5-5-|--5--5-5-5-5-5-5-5-5-5-5-5-3-3-3-3-|
||---------------------------------|-----------------------------------|
|
|   Gtr II
|   E E   E    E   E   E   E   E      E    E   E   E   E   E   E   E
||----5---3----5-------5-------5---|-------5---3---5-------5-------5---|
||o----------------6-------5-------|--3----------------6-------5-------|
||---------------------------------|-----------------------------------|
||--0------------------------------|-----------------------------------|
||o--------------------------------|---------------------------3-------|
||---------------------------------|-----------------------------------|
|   Q     H.                          H.                       Q
|
|   Gtr IV
|   W                                +W
||---------------------------------|-----------------------------------|
||o--------------------------------|-----------------------------------|
||--7------------------------------|-(7)-------------------------------|
||--7------------------------------|-(7)-------------------------------|
||o--------------------------------|-----------------------------------|
||---------------------------------|-----------------------------------|


  Bb
  PM-----------------------------------------------------------------|
  S S S S S  S S S S S S S S S S S    S  S S S S S S S S S S S S S S S
|----------------------------------|-----------------------------------|
|----------------------------------|-----------------------------------|
|----------------------------------|-----------------------------------|
|----------------------------------|-----------------------------------|
|-1-1-1-1-1--1-1-1-1-1-1-1-1-1-1-1-|--1--1-1-1-1-1-1-1-1-1-3-3-5-5-1-1-|
|----------------------------------|-----------------------------------|
|
| E   E   E    E   E   E   E   E      E    E   E   E   E   E   E   E
|-----6---5----6-------6-------6---|-------6---5---6-------6-------6---|
|------------------8-------6-------|--5----------------8-------6-------|
|-7--------------------------------|-----------------------------------|
|----------------------------------|-----------------------------------|
|----------------------------------|-----------------------------------|
|-6--------------------------------|-----------------------------------|
| Q       H.
|
| W                                  +W
|----------------------------------|-----------------------------------|
|----------------------------------|-----------------------------------|
|-7--------------------------------|-(7)-------------------------------|
|-8--------------------------------|-(8)-------------------------------|
|----------------------------------|-----------------------------------|
|----------------------------------|-----------------------------------|


  C
  PM-----------------------------------------------------------------|
  S S S S S  S S S S S S S S S S S    S  S S S S S S S S S S S S S S S
|----------------------------------|-----------------------------------|
|----------------------------------|-----------------------------------|
|----------------------------------|-----------------------------------|
|----------------------------------|-----------------------------------|
|-3-3-3-3-3--3-3-3-3-3-3-3-3-3-3-3-|--3--3-3-3-3-3-3-3-----------------|
|----------------------------------|-------------------3-3-5-5-6-6-3-3-|
|
| E   E   E    E   E   E   E   E      E    E   E   E   E   E   E   E
|-----3--------3-------3-------3---|-------3-------3---------------6---|
|-5-------6--------5-------3-------|-----------6-------5---6---8-------|
|----------------------------------|--5--------------------------------|
|----------------------------------|-----------------------------------|
|-3--------------------------------|-----------------------------------|
|----------------------------------|-----------------------------------|
| Q       H.
|
| W                                  +W
|----------------------------------|-----------------------------------|
|-5--------------------------------|-(5)-------------------------------|
|-5--------------------------------|-(5)-------------------------------|
|----------------------------------|-----------------------------------|
|----------------------------------|-----------------------------------|
|----------------------------------|-----------------------------------|


  Dm
  PM-------------------------------------------------|
  S S S S S  S S S S S S S S S S S    S  S S S S S S S S S S S S S S S
|----------------------------------|------------------------------------||
|----------------------------------|-----------------------------------o||
|----------------------------------|-------------------2h3---2----------||
|----------------------------------|-----------------------5---3h5-2h3--||
|-5-5-5-5-5--5-5-5-5-5-5-5-5-5-5-5-|--5--5-5-5-5-5-5-5-----------------o||
|----------------------------------|------------------------------------||
|
| E   E   E    E   E   E   E   E      E    E   E   E   E   E   E   E
|-5---5--------5-------5-------5---|-------5-------5-------5-------5----||
|---------8--------6-------5-------|-----------8-------6-------5-------o||
|----------------------------------|--7---------------------------------||
|-0--------------------------------|------------------------------------||
|----------------------------------|-----------------------------------o||
|----------------------------------|------------------------------------||
| Q       H.
|
| W                                  +W
|----------------------------------|------------------------------------||
|----------------------------------|-----------------------------------o||
|-7--------------------------------|-(7)--------------------------------||
|-7--------------------------------|-(7)--------------------------------||
|----------------------------------|-----------------------------------o||
|----------------------------------|------------------------------------||


 Interlude
  Q=76
  D5                           A5
  Gtr III
  q           Q                 H
  |                             |
  /                             /

  Gtr I
                                ~~~
                 |--3--|
  S  S  S  S  S  T  T  T  S  S  E. S  E E
|------10-12-13-12h13p12p10-13-12--9------|
|---10-------------------------------10-8-|
|-----------------------------------------|
|-----------------------------------------|
|-----------------------------------------|
|-----------------------------------------|
|
| Gtr V
|                               ~~~
|                |--3--|
| S  S  S  S  S  T  T  T  S  S  E. S  E E
|------10-12-13-12h13p12p10-13-12--9------|
|---10-------------------------------10-8-|
|-----------------------------------------|
|-----------------------------------------|
|-----------------------------------------|
|-----------------------------------------|
|
| Gtr IV
| q           Q                 H
|-----------------------------------------|
|-6-----------------------------5---------|
|-7-----------------------------6---------|
|-7-----------------------------7---------|
|-----------------------------------------|
|-----------------------------------------|


  D5                           A5
  q           Q                 H
  |                             |
  /                             /

                                ~~~
                 |--3--|
  S  S  S  S  S  T  T  T  S  S  E.   S  E  E
|------10-12-13-12h13p12p10-13-12--/18-17-15-|
|---10---------------------------------------|
|--------------------------------------------|
|--------------------------------------------|
|--------------------------------------------|
|--------------------------------------------|
|
|                               ~~~
|                |--3--|
| S  S  S  S  S  T  T  T  S  S  E.   S  E  E
|------10-12-13-12h13p12p10-13-12--/18-17-15-|
|---10---------------------------------------|
|--------------------------------------------|
|--------------------------------------------|
|--------------------------------------------|
|--------------------------------------------|
|
| q           Q                 H
|--------------------------------------------|
|-6-----------------------------5------------|
|-7-----------------------------6------------|
|-7-----------------------------7------------|
|--------------------------------------------|
|--------------------------------------------|


  Bb5                          A7/C#
  q                 Q          H
  |                            |
  /                            /

        |--3--|                      |--3--|
  S  S  T  T  T  S  S  S  S  S S  S  T  T  T  S  S  S  S  S
|-----------------------------------------------------------|
|---20-18h20p18-17---------------22-20h22p20-18-------------|
|------------------19-18------------------------21-19-18----|
|------------------------20-19---------------------------20-|
|-----------------------------------------------------------|
|-----------------------------------------------------------|
|
|       |--3--|                      |--3--|
| S  S  T  T  T  S  S  S  S  S S  S  T  T  T  S  S  S  S  S
|---18-17h18p17-15---------------21-18h21p18-17-------------|
|------------------18-17-15---------------------20-18-17----|
|---------------------------18---------------------------19-|
|-----------------------------------------------------------|
|-----------------------------------------------------------|
|-----------------------------------------------------------|
|
| q                 Q          H
|------------------------------3----------------------------|
|-6----------------------------5----------------------------|
|-7----------------------------6----------------------------|
|-8---------------------------------------------------------|
|-----------------------------------------------------------|
|-----------------------------------------------------------|


  D5           A5
   q      Q     H
   |            |
   /            /

   E.  S  E  E  T  T  T  T  T  T  T  T  T  T  T  T  E
|-----------15-18p17p15--------------------------------|
|-----17-18-------------18p17p15-----------------------|
|-19-----------------------------18p15s14--------------|
|-----------------------------------------17p15p14-17--|
|------------------------------------------------------|
|------------------------------------------------------|
|
|  E.  S  E  E  T  T  T  T  T  T  T  T  T  T  T  T  E
|-----15-17-18-18p17p15--------------------------------|
|-18--------------------18p17p15-----------------------|
|--------------------------------18p15s14----------15--|
|-----------------------------------------17p15p14-----|
|------------------------------------------------------|
|------------------------------------------------------|
|
|  q      Q     H
|------------------------------------------------------|
|--6------------5--------------------------------------|
|--7------------6--------------------------------------|
|--7------------7--------------------------------------|
|------------------------------------------------------|
|------------------------------------------------------|


  D5                       A5
   q            Q          H
   |                       |
   /                       /

  Gtrs I, V
   S  S  Q.                H
|-------------------------------------------------|
|-------------------------------------------------|
|-14-12-10----------------------------------------|
|-15-14-12----------------------------------------|
|-------------------------------------------------|
|-------------------------------------------------|
|
| Gtr II
|  S  S  S   S  S  S  S  S S  S  S  S  S  S  S  S
|-10-----------------------9----------------------|
|----10-----10----10----10---10----10----10----10-|
|-------12-----10----12---------12----10----12----|
|-------------------------------------------------|
|-------------------------------------------------|
|-------------------------------------------------|
|
| Gtr IV
|  H                       H
|-------------------------------------------------|
|--6-----------------------5----------------------|
|--7-----------------------6----------------------|
|-------------------------------------------------|
|-------------------------------------------------|
|-------------------------------------------------|


  D5                      A5
   q           Q          H
   |                      |
   /                      /

   W
|------------------------------------------------|
|------------------------------------------------|
|------------------------------------------------|
|------------------------------------------------|
|------------------------------------------------|
|------------------------------------------------|
|
|  S  S  S  S  S  S  S  S S  S  S  S  S  S  S  S
|-10----------------------9----------------------|
|----10----10----10----10---10----10----10----10-|
|-------12----10----12---------12----10----12----|
|------------------------------------------------|
|------------------------------------------------|
|------------------------------------------------|
|
|  H                      H
|------------------------------------------------|
|--6----------------------5----------------------|
|--7----------------------6----------------------|
|------------------------------------------------|
|------------------------------------------------|
|------------------------------------------------|


  Bb5             A7/C#
  q       Q       H
  |               |
  /               /

  Gtr II
  S S S S S S S S S  S S  S  S  S S  S
|-6---------6-5-6-9--------------------|
|---8-7-8-----------10-8-10----10---10-|
|---------7-----------------10----9----|
|--------------------------------------|
|--------------------------------------|
|--------------------------------------|
|
| Gtr IV
| H               H
|-----------------5--------------------|
|-6---------------5--------------------|
|-7---------------6--------------------|
|-8------------------------------------|
|--------------------------------------|
|--------------------------------------|


  D5
   H..                                     +E
   |                                        |
   /                                        /

   S    S  S  S  S  S  S  S  S  S  S  S  Q
|-10------10-12-13-10----10----10----10-------||
|------14-------------11----10----------------||
|---------------------------------12----10----||
|---------------------------------------------||
|---------------------------------------------||
|---------------------------------------------||
|
|  W
|---------------------------------------------||
|--6------------------------------------------||
|--7------------------------------------------||
|--7------------------------------------------||
|---------------------------------------------||
|---------------------------------------------||


 Guitar Solo 1
  Q=152
  Em
  Gtr I
  S S S S S S S S S S S S S S S S   S S S S S S S S  S S S S S S S S
|---------------------------------|----------------------------------|
|-5-0-0-0-7-0-0-0-8-0-0-0-5-0-0-0-|-7-0-0-0-8-0-0-0-10-0-0-0-7-0-0-0-|
|---------------------------------|----------------------------------|
|---------------------------------|----------------------------------|
|---------------------------------|----------------------------------|
|---------------------------------|----------------------------------|
|
| Gtr III
| PM---------------------------------------------------------------|
| S S S S S S S S S S S S S S S S   S S S S S S S S  S S S S S S S S
|---------------------------------|----------------------------------|
|---------------------------------|----------------------------------|
|---------------------------------|----------------------------------|
|---------------------------------|----------------------------------|
|---------------------------------|------------------------------0-0-|
|-0-0-0-0-0-0-0-0-0-0-0-0-0-0-0-0-|-0-0-0-0-0-0-0-0--0-0-2-2-3-3-----|


  B
   S S S S  S S S S S S S S S S S S   S S S S S S S S S S S S S S S S
|-----------------------------------|---------------------------------|
|-12-0-0-0-10-0-0-0-8-0-0-0-7-0-0-0-|-8-0-0-0-7-0-0-0-5-0-0-0-4-0-0-0-|
|-----------------------------------|---------------------------------|
|-----------------------------------|---------------------------------|
|-----------------------------------|---------------------------------|
|-----------------------------------|---------------------------------|
|
|  PM-----------------------------------------------|
|  S S S S  S S S S S S S S S S S S   S S S S S S S S S S S S S S S S
|-----------------------------------|---------------------------------|
|-----------------------------------|---------------------------------|
|-----------------------------------|---------------------------------|
|-----------------------------------|---------------------------------|
|--2-2-2-2--2-2-2-2-2-2-2-2-2-2-2-2-|-2-2-2-2-2-2-2-2-2h3p2p0-2p0-----|
|-----------------------------------|-----------------------------3p2-|


  Em
  Q.           +S  S Q.           +S   S    Q.            +S   S  Q        +E     S      +S
|----------------------------------------|---------------------------------------------------|
|-5------------(5)s8-8------------(8)s12-|-12------------(12)s17-17-------(17)---19b20==(19)r|
|----------------------------------------|---------------------------------------------------|
|----------------------------------------|---------------------------------------------------|
|----------------------------------------|---------------------------------------------------|
|----------------------------------------|---------------------------------------------------|
|
| PM------------------------------------------------------------------------------------------
| S  S S S S S  S  S S  S S S S S  S   S    S  S S S S S   S   S  S S S S   S  S  S       S
|----------------------------------------|---------------------------------------------------|
|----------------------------------------|---------------------------------------------------|
|----------------------------------------|---------------------------------------------------|
|----------------------------------------|---------------------------------------------------|
|----------------------------------------|----------------------------------------0-------0--|
|-0--0-0-0-0-0--0--0-0--0-0-0-0-0--0---0-|--0--0-0-0-0-0---0---0--0-0-2-2---3--3-------------|


  B
                       |--------5--------|  |--------5--------|
   +Q.            E    S  S    S    S    S  S  S    S    S    S
|----------------------------------------------------------------|
|-(19)-----------17---16-17---16------------------------16---17--|
|----------------------------------17---16-17-18---19------------|
|----------------------------------------------------------------|
|----------------------------------------------------------------|
|----------------------------------------------------------------|
|
|----------------------------------------------------------|
|   S  S S S S S  S S  S    S    S    S     S    S    S    S
|----------------------------------------------------------------|
|----------------------------------------------------------------|
|----------------------------------------------------------------|
|----------------------------------------------------------------|
|---2--2-2-2-2-2--2-2--2----2----2----2-----2----2----2----2-----|
|----------------------------------------------------------------|


   |--------6---------|              |--------5--------|  |--------6---------|
   S  S    S  S  S    S  S  S  S  S  S  S    S    S    S  S  S    S  S  S    S
|----15---17-19p17p==15-17p15---------------------------------------------------||
|-19--------------------------19-17-16-19---17---16-----------------------------||
|-----------------------------------------------------19-17-16------------------||
|----------------------------------------------------------------19-17-16-------||
|---------------------------------------------------------------------------19--||
|-------------------------------------------------------------------------------||
|
|  PM----------------------------|
|  S    S     S    S     S  S  S  S  S    S    S    S     S    S     S    S
|-------------------------------------------------------------------------------||
|-------------------------------------------------------------------------------||
|-------------------------------------------------------------------------------||
|-------------------------------------------------------------------------------||
|--2----2-----2----2-----2--2--2--2--2h===3p===2p===0-----2p===0----------------||
|--------------------------------------------------------------------3p===2-----||


 Keyboard Solo 1
  Em
  Gtr VI
   |--3---|
   S  S   S S S  S S   S    S S  S  S S  S  S S  S
|-------------------------------------8------------|
|--8h10p==8-------------------8-10-12---12-10-8----|
|-----------9------8---9---11-------------------11-|
|-------------9-10---------------------------------|
|--------------------------------------------------|
|--------------------------------------------------|
|
| Gtr I
|  Q.                 +E      H
|--------------------------------------------------|
|--------------------------------------------------|
|--------------------------------------------------|
|-16-----------------(16)\-------------------------|
|--------------------------------------------------|
|--------------------------------------------------|
|
| Gtr III
|  PM-----------------------------------------------
|  S    S   S S  S S   S    S S  S  S S  S  S S  S
|--------------------------------------------------|
|--------------------------------------------------|
|--------------------------------------------------|
|--------------------------------------------------|
|--------------------------------------------------|
|--0----0---0-0--0-0---0----0-0--0--0-0--0--0-0--0-|


   S S  S S  S S  S  S S  S  S S S  S S S
|-----------------------------------------|
|-10-8------------------------------------|
|------11-9----9--------------------------|
|-----------12---12-10-9-12-10-9-7--------|
|----------------------------------10-9-7-|
|-----------------------------------------|
|
|  W
|-----------------------------------------|
|-----------------------------------------|
|-----------------------------------------|
|-----------------------------------------|
|-----------------------------------------|
|-----------------------------------------|
|
|---------------------------------------|
|  S S  S S  S S  S  S S  S  S S S  S S S
|-----------------------------------------|
|-----------------------------------------|
|-----------------------------------------|
|-----------------------------------------|
|-------------------------------------0-0-|
|--0-0--0-0--0-0--0--0-0--0--2-2-3--3-----|


  B
  ~
                |--3---| |-------6-------|  |-------6--------|
  Q       S  S  S S    S S  S   S  S S   S  S S    S  S  S   S
|--------------------------------------------------------------|
|---------------------------------------------8h==10h12p10p==8-|
|------------------------------------8h==9-11------------------|
|-----------------9---10p9------9h10---------------------------|
|-6-------9h10h12----------12----------------------------------|
|--------------------------------------------------------------|
|
| Gtr III
| PM------------------------------------------------------------
| S S S S S  S  S   S    S    S    S   S    S   S     S    S
|--------------------------------------------------------------|
|--------------------------------------------------------------|
|--------------------------------------------------------------|
|--------------------------------------------------------------|
|-2-2-2-2-2--2--2---2----2----2----2---2----2---2-----2----2---|
|--------------------------------------------------------------|


   |--3--|          |-------6--------|  |--------6---------|  |---3---|
   S S   S T T T T  S  S   S S  S    S  S  S    S  S  S    S  S  S    S  T  T  T  T
|--------------------------------------------------------------------------------11-|
|-----------------------------------------10h==12h13p12---10------------10h12h13----|
|-11p9p==8h9p8-7h8---------8h9h10h==11-12--------------------12-11---12-------------|
|------------------10h11------------------------------------------------------------|
|-----------------------------------------------------------------------------------|
|-----------------------------------------------------------------------------------|
|
|---------------------------------|
|  S   S   S   S    S    S   S    S     S    S     S    S     S    S     S     S
|-----------------------------------------------------------------------------------|
|-----------------------------------------------------------------------------------|
|-----------------------------------------------------------------------------------|
|-----------------------------------------------------------------------------------|
|--2---2---2---2----2----2---2----2-----2h===3p====2p===0-----2p===0----------------|
|------------------------------------------------------------------------3p====2----|


  Em
   Q.            S  S  H
|-12------------14-15-12b14================|
|------------------------------------------|
|------------------------------------------|
|------------------------------------------|
|------------------------------------------|
|------------------------------------------|
|
|  PM---------------------------------------
|  S  S S S S S  S  S  S     S S S S S S S
|------------------------------------------|
|------------------------------------------|
|------------------------------------------|
|------------------------------------------|
|------------------------------------------|
|--0--0-0-0-0-0--0--0--0-----0-0-0-0-0-0-0-|


               |---3---|  |--------6---------|        |---3---|  |--------6---------|
   +S    T  T  S  S    S  S  S    S  S  S    S  S  S  S  S    S  S  S    S  S  S    S
|-(12)r-12-14------------12--------------------------12--------------------------------|
|-------------16-12h==14----14------12h16p==12----------12-----------------------------|
|--------------------------------14---------------14---------14-12s11---14-12-11-------|
|----------------------------------------------16----------------------------------12--|
|--------------------------------------------------------------------------------------|
|--------------------------------------------------------------------------------------|
|
|--------------------------------------------------------------------------------|
|   S    S     S    S     S    S     S    S     S  S  S    S     S    S     S    S
|--------------------------------------------------------------------------------------|
|--------------------------------------------------------------------------------------|
|--------------------------------------------------------------------------------------|
|--------------------------------------------------------------------------------------|
|---------------------------------------------------------------------------0----0-----|
|---0----0-----0----0-----0----0-----0----0-----0--0--2----2-----3----3----------------|


  B
   |--------6---------|   |---------6---------|  |--------6---------|
   S  S    S  S  S    S  +S   S    S  S  S    S  S  S    S  S  S    S  T  T  T  T T  T  T  T
|---------------------------------------------------------------------------------------------|
|------------------------------------12-13---12---------12------------------------------------|
|--------------------11-(11)-12---14------------14p12------14p12---14-14p12p11----------------|
|-13---------13-14-------------------------------------------------------------14---14p13p11--|
|----14---15----------------------------------------------------------------------------------|
|---------------------------------------------------------------------------------------------|
|
|  PM----------------------------------------------------------------------------------|
|  S    S     S    S      S     S     S    S     S    S     S    S     S     S    S     S
|---------------------------------------------------------------------------------------------|
|---------------------------------------------------------------------------------------------|
|---------------------------------------------------------------------------------------------|
|---------------------------------------------------------------------------------------------|
|--2----2-----2----2------2-----2-----2----2-----2----2-----2----2-----2-----2----2-----2-----|
|---------------------------------------------------------------------------------------------|


   W
                                       ~~
         |---3---|  |-------5--------|
   S  S  S  S    S  S  S    S   S    S Q.          E
|------------------------------------------------------||
|------------------------------------------------------||
|------------------------------------------------------||
|----11-13p11--------------10---9----------------------||
|-14------------14-12s10------------12-9---------------||
|------------------------------------------------------||
|
|  PM-----------------------------|
|  S  S  S    S     S    S    S   S    S S S S S S S S
|------------------------------------------------------||
|------------------------------------------------------||
|------------------------------------------------------||
|------------------------------------------------------||
|--2--2--2----2-----2----2----2---2----2h3p2p0-2p0-----||
|--------------------------------------------------3p2-||


 Guitar Solo2
  G5
  Gtr III
   W
   |
   /

  Gtr I
                 ~~~~~~~~~~~~~
         |-3--|
   E S S S S  S  E  +Q    +E   S  S
|----------6-10-15-(15)--(15)-13p11--|
|--------8---------------------------|
|------7-----------------------------|
|----8-------------------------------|
|-10---------------------------------|
|------------------------------------|
|
| Gtr IV
|  H                 H
|--------------------6---------------|
|--8---------------------------------|
|--7---------------------------------|
|------------------------------------|
|------------------------------------|
|------------------------------------|
   W


  G5
  +W
   |
   /

                |------6-------|  |-----5-----|            |--3--|
   S   S  S  S  S  S  S  S  S  S  S  S  S  S  S T  T  T  T S  S  S
|-----------------11-13-15p13p11-10-11-13-11-10-8-10-11-10-8-------|
|-15--13-11-13-15--------------------------------------------11-10-|
|------------------------------------------------------------------|
|------------------------------------------------------------------|
|------------------------------------------------------------------|
|------------------------------------------------------------------|
|
| +Q            Q                 Q             Q
|-(6)-----------6-----------------5--------------------------------|
|-(8)-------------------------------------------8------------------|
|-(7)--------------------------------------------------------------|
|------------------------------------------------------------------|
|------------------------------------------------------------------|
|------------------------------------------------------------------|
  +W


  D5
  H                               Q            Q
  |                               |            |
  /                               /            /

  |------6------|  |-----6------| |----6-----|
  S  S  S S  S  S  S S  S S  S  S S S  S S S S S S S S
|---------8-10h11p10p8-10p8-----------------------------|
|-8-10-11-------------------11p10p8s7-10p8p7-------7-8--|
|--------------------------------------------8-7-8------|
|-------------------------------------------------------|
|-------------------------------------------------------|
|-------------------------------------------------------|
|
| H                               H
|-5-----------------------------------------------------|
|---------------------------------7---------------------|
|-7-----------------------------------------------------|
|-------------------------------------------------------|
|-------------------------------------------------------|
|-------------------------------------------------------|
  W


                                                       Keyboard Solo 2
  D5                                                    B5
   Q           Q          H                              W
   |           |          |                              |
   /           /          /                              /

   |--3--|     |---5----| |-----6-----| |-3--|
   S  S  S S S S S S S  S S S  S S S  S S  S S  S  S     W
|----------------------------------------------------||-------------------|
|-----8h10p8p7-8p7----------------------8h10-8h10h11s||=15p===============|
|------------------8p7-----------7h8h10--------------||-------------------|
|----------------------10-7h8h10---------------------||-------------------|
|----------------------------------------------------||-------------------|
|----------------------------------------------------||-------------------|
|
|                                                       Gtr VI
|  W                                                     H     +E   E  Q
|----------------------------------------------------||-------------------|
|----------------------------------------------------||-15----(15)-15-14--|
|----------------------------------------------------||-------------------|
|----------------------------------------------------||-------------------|
|----------------------------------------------------||-------------------|
|----------------------------------------------------||-------------------|
|
| Gtr IV
|  H                      H                              W
|-(5)------------------------------------------------||-10----------------|
|-------------------------8--------------------------||-------------------|
|-(7)------------------------------------------------||-11----------------|
|----------------------------------------------------||--9----------------|
|----------------------------------------------------||-------------------|
|----------------------------------------------------||-------------------|
  +W


   +H                                      Q                 Q
    |                                      |                 |
    /                                      /                 /

    S      E.              +Q              H
|--------------------------------------------------------------------------|
|--14p====12--------------(12)---------------------------------------------|
|--------------------------------------------------------------------------|
|--------------------------------------------------------------------------|
|--------------------------------------------------------------------------|
|--------------------------------------------------------------------------|
|
|   |---------6---------|   |-----5-----|  |------6-------|  |-----5-----|
|   S   S      S  S  S  S   S  S  S  S  S  S  S  S  S  S  S  S  S  S  S  S
|--------------------------------------------------------------------------|
|--15---------15-14--------------------------------------------------------|
|------16-----------14-----16p13----16p13----------------------------------|
|----------------------16--------14----------12h14h16p14p12----14-14p12----|
|-----------------------------------------16----------------16----------14-|
|--------------------------------------------------------------------------|
|
|  +Q                       Q              Q                 Q
|-(10)---------------------10--------------9-------------------------------|
|-----------------------------------------------------------12-------------|
|-(11)---------------------------------------------------------------------|
|--(9)---------------------------------------------------------------------|
|--------------------------------------------------------------------------|
|--------------------------------------------------------------------------|
   +W


  F#5
   W
   |
   /

   W
|--------------------------------------|
|--------------------------------------|
|--------------------------------------|
|--------------------------------------|
|--------------------------------------|
|--------------------------------------|
|
|  ~~~                             ~~
|       |------5-------|
|  Q    S  S  S     S  S  E  S  S  Q
|--------------------------------------|
|--------------------------------------|
|--------------------------------------|
|--------------------------------------|
|-13---13h14h16p===15h16-17-16-14-13---|
|--------------------------------------|
|
|  Q.            E        Q        Q
|--9-----------------------------------|
|---------------10-------10------------|
|-11-----------------------------------|
|--------------------------------------|
|--------------------------------------|
|--------------------------------------|
   W


  F#5
    Q               Q                 Q                 Q
    |               |                 |                 |
    /               /                 /                 /

    H                                 Q                 Q
|-------------------------------------------------------x/---------------||
|------------------------------------------------------------------------||
|------------------------------------------------------------------------||
|------------------------------------------------------------------------||
|------------------------------------------------------------------------||
|------------------------------------------------------------------------||
|
|   |-----5------|  |------6-------|  |------6-------|  |------6-------|
|   S   S  S  S  S  S  S  S  S  S  S  S  S  S  S  S  S  S  S  S  S  S  S
|------------------------------------------------------------------------||
|------------------------------------------------------------------------||
|------------------------------------------------------------------------||
|------11h12p11----------11h12p11----------11h12p11----------11h12p11----||
|--14-----------14-13h14----------14-13h14----------14-13h14----------14-||
|------------------------------------------------------------------------||
|
|  +W
|--(9)-------------------------------------------------------------------||
|------------------------------------------------------------------------||
|-(11)-------------------------------------------------------------------||
|---------------------------11-------11----------------------------------||
|------------------------------------------------------------------------||
|------------------------------------------------------------------------||
    Q.                       E        H


 Guitar Solo 3
  A5
   E.    S      +E   E +H
   |     |       |   |  |
   /     /       /   /  /

                                  |-----5-----|
   E.    S      +E   E  E   S  S  S  S  S  S  S
|-19b20-19b20==(19)-19-19r-19p17-15h17h19p17p15-|
|-----------------------------------------------|
|-----------------------------------------------|
|-----------------------------------------------|
|-----------------------------------------------|
|-----------------------------------------------|
|
| Gtr IV
|  W
|--8--------------------------------------------|
|-10--------------------------------------------|
|-----------------------------------------------|
|-----------------------------------------------|
|-----------------------------------------------|
|-----------------------------------------------|


   +W
    |
    /

    |-----5------|              |------6-------|  |--3--|
    S   S  S  S  S  S  S  S  S  S  S  S  S  S  S  S  S  S  T  T  T  T
|--13h=15h17p15p13-13p12----------------12h13h15-13p12----12-----------|
|------------------------15-13-12h13h15----------------15----15p13p12--|
|----------------------------------------------------------------------|
|----------------------------------------------------------------------|
|----------------------------------------------------------------------|
|----------------------------------------------------------------------|
|
|   Q               Q           Q                 Q
|--(8)--------------8-----------7--------------------------------------|
|-(10)-------------------------------------------10--------------------|
|----------------------------------------------------------------------|
|----------------------------------------------------------------------|
|----------------------------------------------------------------------|
|----------------------------------------------------------------------|
   +W


  E5
   W
   |
   /

   |------6-------|  |--3--|       |----5-----|
   S  S  S  S  S  S  S  S  S  S  S S  S  S  S S  S S  S S
|----------10h12h13p12p10-12p10---------------------------|
|-10h12h13----------------------13-9h10h12p10p9---------9-|
|-----------------------------------------------10p9-10---|
|---------------------------------------------------------|
|---------------------------------------------------------|
|---------------------------------------------------------|
|
|  Q.                         E    Q.                 E
|--7------------------------------------------------------|
|-----------------------------9----9----------------------|
|--9------------------------------------------------------|
|---------------------------------------------------------|
|---------------------------------------------------------|
|---------------------------------------------------------|
   W


  E5
   E.        S +E       E       E.        S +E     E
   |         |  |       |       |         |  |     |
   /         /  /       /       /         /  /     /

                |-----6------|  |-3--|
   S   S  S  S  S  S S  S  S S  S S  S  S S  S  S  S  S
|--------------------------------------------------------||
|--9h=10h12p10p=9-10p9----------------------------10-11--||
|----------------------12-10p9------------9-10-12--------||
|------------------------------12p9h10h12----------------||
|--------------------------------------------------------||
|--------------------------------------------------------||
|
|  Q.                   E       H
|-(7)----------------------------------------------------||
|--------------------------------------------------------||
|-(9)----------------------------------------------------||
|-----------------------9-------9------------------------||
|--------------------------------------------------------||
|--------------------------------------------------------||
  +W


 Keyboard Solo 3
  G5
   W
   |
   /

   S  S  S   S  +H                      +Q
|----10h12-/18-(18)--------------------(18)\----------------|
|-13--------------------------------------------------------|
|-----------------------------------------------------------|
|-----------------------------------------------------------|
|-----------------------------------------------------------|
|-----------------------------------------------------------|
|
| Gtr VI
|  ~~~~~~~~~~~~~~~~~
|                     |------6-------|   |-------6--------|
|  Q             Q    S  S  S  S  S  S   S    S  S  S  S  S
|---------------18---22-------18-20----------20-18----------|
|-----------------------20-22-------20--22---------22p20p18-|
|-----------------------------------------------------------|
|-----------------------------------------------------------|
|-10--------------------------------------------------------|
|-----------------------------------------------------------|
|
| Gtr IV
|  W
|-----------------------------------------------------------|
|-11--------------------------------------------------------|
|-12--------------------------------------------------------|
|-12--------------------------------------------------------|
|-----------------------------------------------------------|
|-----------------------------------------------------------|


   +W
    |
    /

    W
|--------------------------------------------------------------------------|
|--------------------------------------------------------------------------|
|--------------------------------------------------------------------------|
|--------------------------------------------------------------------------|
|--------------------------------------------------------------------------|
|--------------------------------------------------------------------------|
|
|   |-------6-------|  |------6-------|  |-----5-----|  |------6-------|
|   S   S  S  S  S  S  S  S  S  S  S  S  S  S  S  S  S  S  S  S  S  S  S
|--------------------------------------------------------------------------|
|--22p=20p18----------18---------------------------------------------------|
|------------19p18-------19p18----18----------18---------------------------|
|------------------20----------20----20p19p17----20p17-16-20p17p16---------|
|------------------------------------------------------------------19p17---|
|--------------------------------------------------------------------------|
|
|  +Q                  Q                 Q              Q
|--------------------------------------------------------------------------|
|-(11)----------------11----------------10---------------------------------|
|-(12)-------------------------------------------------12------------------|
|-(12)---------------------------------------------------------------------|
|--------------------------------------------------------------------------|
|--------------------------------------------------------------------------|
   +W


  A5
   W
   |
   /

  Gtr VI
         ~~~
             |------6-------|  |------6-------|  |------6-------|
   T  T  E.  S  S  S  S  S  S  S  S  S  S  S  S  S  S  S  S  S  S
|--------------------------21h24p21-------------------------------|
|-----------------------22----------22----------------------------|
|-----------------18h21----------------21p19p18----21p18----------|
|--------------19-------------------------------19-------19-------|
|----17-----19----------------------------------------------19----|
|-21----21-----------------------------------------------------21-|
|
| Gtr IV
|  W
|--5--------------------------------------------------------------|
|-----------------------------------------------------------------|
|--6--------------------------------------------------------------|
|--7--------------------------------------------------------------|
|-----------------------------------------------------------------|
|-----------------------------------------------------------------|


  A5
   Q                 Q       Q   Q
   |                 |       |   |
   /                 /       /   /

                        ~~~~~~~~
   |------6-------|
   S  S  S  S  S  S  S  E.  +H
|------------------------------------||
|------------------------------------||
|----18h21p18------------------------||
|-19----------19---------------------||
|----------------19------------------||
|-------------------21-17--(17)------||
|
|  W
|--9---------------------------------||
|--5---------------------------------||
|--6---------------------------------||
|------------------------------------||
|------------------------------------||
|------------------------------------||


 Interlude 2
  D5
  Gtrs IV, V
   Q   H.               W
   |
   /

  Gtr I
   ~~
                                        |--3--|
   W                   +E   E  E  E  E  S  S  S  E  E
|-17----------------|-(17)-------17-18-17h18p17-------|
|-------------------|------18-20----------------20-18-|
|-------------------|---------------------------------|
|-------------------|---------------------------------|
|-------------------|---------------------------------|
|-------------------|---------------------------------|
|
| Gtr III
|  ~~
|                                       |--3--|
|  W                   +E   E  E  E  E  S  S  S  E  E
|-13----------------|-(13)----12-13-15-13h15p13-12----|
|-------------------|------15----------------------15-|
|-------------------|---------------------------------|
|-------------------|---------------------------------|
|-------------------|---------------------------------|
|-------------------|---------------------------------|
|
| Gtr II
|  E E E  E E E E E     E   E  E  E  E  E        E  E
|----5----5---5---5-|-------5-----5-----5-----------5-|
|------8----6---5---|----------8-----6-----------5----|
|--7----------------|---7-----------------------------|
|-------------------|---------------------------------|
|-------------------|----------------------------3----|
|-------------------|---------------------------------|
                        H.                       Q


  Bb
   W                       W
   ~~~~~~~~~~~~~~          ~~~~~~~~~~~~~
   H         +Q.      E    H        +Q.      E
|-18--------(18)-----17-|------------------------|
|-----------------------|-20-------(20)-----18---|
|-----------------------|------------------------|
|-----------------------|------------------------|
|-----------------------|------------------------|
|-----------------------|------------------------|
|
|  ~~~~~~~~~~~~~~          ~~~~~~~~~~~~~
|  H         +Q.      E    H        +Q.      E
|-15--------(15)-----13-|-12-------(12)----------|
|-----------------------|-------------------15---|
|-----------------------|------------------------|
|-----------------------|------------------------|
|-----------------------|------------------------|
|-----------------------|------------------------|
|
|  E E E  E   E  E E  E    E E E E   E  E E  E
|----6-5--6------6----6-|----6-5-6------6----6---|
|-------------8----6----|--5---------8----6------|
|--7--------------------|------------------------|
|-----------------------|------------------------|
|-----------------------|------------------------|
|--6--------------------|------------------------|
   Q   H.


  C                                                Dm
   ~~~~~~~~~~~~~~          ~~                                     ~~
   H         +Q.      E    H        Q    E  E       Q.         E  H
|-----------------------|---------------17-17b18-|-17b18------17-17-------|
|-20--------(20)-----18-|-17-------20------------|------------------------|
|-----------------------|------------------------|------------------------|
|-----------------------|------------------------|------------------------|
|-----------------------|------------------------|------------------------|
|-----------------------|------------------------|------------------------|
|
|  ~~~~~~~~~~~~~~                                                 ~~
|  H         +Q.      E    H        Q    E  E       Q.         E  H
|-12--------(12)--------|----------12---13-13b15-|-13b15------13-13-------|
|--------------------15-|-13---------------------|------------------------|
|-----------------------|------------------------|------------------------|
|-----------------------|------------------------|------------------------|
|-----------------------|------------------------|------------------------|
|-----------------------|------------------------|------------------------|
|
|  E E E  E   E  E E  E    E E E E  E E  E  E       E    E E   E  E E E E
|----3----3------3----3-|----3---3----------6----|--5----5-----5----5---5-|
|--5---6------5----3----|------6----5-6--8-------|---------8------6---5---|
|-----------------------|--5---------------------|------------------------|
|-----------------------|------------------------|--0---------------------|
|--3--------------------|------------------------|------------------------|
|-----------------------|------------------------|------------------------|
   Q   H.                                           Q      H.


   S   S  S  S  S  S  S  S  S  S  S  S  S  S  S  S
|-22--20-18----20-18-------18-----------------------|
|-----------22-------22-20----22-20-18-22-20-18-17--|
|---------------------------------------------------|
|---------------------------------------------------|
|---------------------------------------------------|
|---------------------------------------------------|
|
|  S   S  S  S  S  S  S  S  S  S  S  S  S  S  S  S
|-18--17-15----17-15-------15-----------------------|
|-----------18-------18-17----18-17-15-18-17-15-----|
|-----------------------------------------------18--|
|---------------------------------------------------|
|---------------------------------------------------|
|---------------------------------------------------|
|
|  E      E     E     E     E     E     E     E
|---------5-----------5-----------5-----------5-----|
|---------------8-----------6-----------5-----------|
|--7------------------------------------------------|
|---------------------------------------------------|
|---------------------------------------0-----------|
|---------------------------------------------------|
   H.                                   Q


  D5/A
  Gtr IV
   W                 +W
   |                  |
   /                  /

   ~~
   W                 +W
|------------------|-------------------|
|-18---------------|-------------------|
|------------------|-------------------|
|--7---------------|-(7)---------------|
|--5---------------|-(5)---------------|
|------------------|-------------------|
|  W
|
|  W                 +W
|------------------|-------------------|
|-15---------------|-------------------|
|------------------|-------------------|
|--7---------------|-(7)---------------|
|--5---------------|-(5)---------------|
|------------------|-------------------|
|  W
|
| Gtr II
|  E E E E E E E E    E  E E E E E E E
|----5---5---5---5-|-----5---5---5---5-|
|------8---6---5---|-------8---6---5---|
|--7---------------|--7----------------|
|------------------|-------------------|
|------------------|-------------------|
|------------------|-------------------|


  Bb
  W                     +W
  |                      |
  /                      /

                         ~~~~
  H       +Q    Q        H.             Q
|--------------------|------------------------|
|--------------------|------------------------|
|--------------------|------------------------|
|-3-------(3)--------|------------------------|
|-1-------(1)---1/---|-/13-------------13\----|
|--------------------|------------------------|
|
|                        ~~~~
| H       +Q    Q        H.            +Q
|--------------------|------------------------|
|--------------------|------------------------|
|--------------------|------------------------|
|-3-------(3)--------|------------------------|
|-1-------(1)---1/---|-/13------------(13)\---|
|--------------------|------------------------|
|
| E E E E  E  E E  E     E  E E E E E   E   E
|---6-5-6-----6----6-|------6-5-6---6-------6-|
|----------8----6----|---5--------8-----6-----|
|-7------------------|------------------------|
|--------------------|------------------------|
|--------------------|------------------------|
|--------------------|------------------------|


  C                                    D5/A
  W                 +W                 W                 +W
  |                  |                 |                  |
  /                  /                 /                  /

  Gtrs I, III
  W                  W                 W                  W
|-----------------|------------------|-----------------|------------------||
|-----------------|------------------|-----------------|------------------||
|-----------------|------------------|-----------------|------------------||
|-5---------------|--5---------------|-7---------------|--7---------------||
|-3---------------|--3---------------|-5---------------|--5---------------||
|-----------------|------------------|-----------------|------------------||
|
| Gtr II
| E E E E E E E E    E E E E E E E E   E E E E E E E E    E E E E E E E E
|---3---3---3---3-|----3---3-------6-|-5-5---5---5---5-|----5---5---5---5-||
|-5---6---5---3---|------6---5-6-8---|-----8---6---5---|------8---6---5---||
|-----------------|--5---------------|-----------------|--7---------------||
|-----------------|------------------|-----------------|------------------||
|-----------------|------------------|-----------------|------------------||
|-----------------|------------------|-----------------|------------------||


   Chorus
    D5/A
    W                                +W
    |                                 |
    /                                 /

      PM-------------------------------------------------------------|
    E S S S  S S S S S S S S S S S    S  S S S S S S S S S S S S S S S
||---------------------------------|-----------------------------------|
||o--------------------------------|-----------------------------------|
||---------------------------------|-----------------------------------|
||--7------------------------------|-----------------------------------|
||o-5-5-5-5--5-5-5-5-5-5-5-5-5-5-5-|--5--5-5-5-5-5-5-5-5-5-5-5-3-3-3-3-|
||---------------------------------|-----------------------------------|
|
|   E E   E    E   E   E   E   E      E    E   E   E   E   E   E   E
||----5---3----5-------5-------5---|-------5---3---5-------5-------5---|
||o----------------6-------5-------|--3----------------6-------5-------|
||---------------------------------|-----------------------------------|
||--0------------------------------|-----------------------------------|
||o--------------------------------|---------------------------3-------|
||---------------------------------|-----------------------------------|
    Q     H.                          H.                       Q


  Bb
  W                                  +W
  |                                   |
  /                                   /

  PM----------------------------------------------------------------|
  S S S S S  S S S S S S S S S S S    S S S S S S S S S S S S S S S S
|----------------------------------|----------------------------------|
|----------------------------------|----------------------------------|
|----------------------------------|----------------------------------|
|----------------------------------|----------------------------------|
|-1-1-1-1-1--1-1-1-1-1-1-1-1-1-1-1-|--1-1-1-1-1-1-1-1-1-1-3-3-5-5-1-1-|
|----------------------------------|----------------------------------|
|
| E   E   E    E   E   E   E   E      E   E   E   E   E   E   E   E
|-----6---5----6-------6-------6---|------6---5---6-------6-------6---|
|------------------8-------6-------|--5---------------8-------6-------|
|-7--------------------------------|----------------------------------|
|----------------------------------|----------------------------------|
|----------------------------------|----------------------------------|
|-6--------------------------------|----------------------------------|
  Q       H.


  C
  W                                  +W
  |                                   |
  /                                   /

  PM----------------------------------------------------------------|
  S S S S S  S S S S S S S S S S S    S S S S S S S S S S S S S S S S
|----------------------------------|----------------------------------|
|----------------------------------|----------------------------------|
|----------------------------------|----------------------------------|
|----------------------------------|----------------------------------|
|-3-3-3-3-3--3-3-3-3-3-3-3-3-3-3-3-|--3-3-3-3-3-3-3-3-----------------|
|----------------------------------|------------------3-3-5-5-6-6-3-3-|
|
| E   E   E    E   E   E   E   E      E   E   E   E   E   E   E   E
|-----3--------3-------3-------3---|------3-------3---------------6---|
|-5-------6--------5-------3-------|----------6-------5---6---8-------|
|----------------------------------|--5-------------------------------|
|----------------------------------|----------------------------------|
|-3--------------------------------|----------------------------------|
|----------------------------------|----------------------------------|
  Q       H.


  D5/A
  W                                  +W
  |                                   |
  /                                   /

  PM------------------------------------------------|
  S S S S S  S S S S S S S S S S S    S S S S S S S S S S S S S S S S
|----------------------------------|-----------------------------------||
|----------------------------------|----------------------------------o||
|----------------------------------|------------------2h3---2----------||
|----------------------------------|----------------------5---3h5-2h3--||
|-5-5-5-5-5--5-5-5-5-5-5-5-5-5-5-5-|--5-5-5-5-5-5-5-5-----------------o||
|----------------------------------|-----------------------------------||
|
| E   E   E    E   E   E   E   E      E   E   E   E   E   E   E   E
|-5---5--------5-------5-------5---|------5-------5-------5-------5----||
|---------8--------6-------5-------|----------8-------6-------5-------o||
|----------------------------------|--7--------------------------------||
|-0--------------------------------|-----------------------------------||
|----------------------------------|----------------------------------o||
|----------------------------------|-----------------------------------||
  Q       H.


    D5/A
    W                                +W
    |                                 |
    /                                 /

    Gtr V
                                               |---3----|
    H              Q       Q          Q        E    E   E   Q       Q
||---------------------------------|----------------------------------------|
||o----------------6-------8-------|-10--------8h==10p==8---6-------8-------|
||-----------------7-------9-------|-10--------9h==10p==9---7-------9-------|
||---------------------------------|----------------------------------------|
||o--------------------------------|----------------------------------------|
||---------------------------------|----------------------------------------|
|                                     Q        E    E   E   Q       Q
|                                              |---3----|
|
|   Gtrs I, III
|     PM------------------------------------------------------------------|
|   E S S S  S S S S S S S S S S S    S  S S S S S    S   S S S S S S S S S
||---------------------------------|----------------------------------------|
||o--------------------------------|----------------------------------------|
||---------------------------------|----------------------------------------|
||--7------------------------------|----------------------------------------|
||o-5-5-5-5--5-5-5-5-5-5-5-5-5-5-5-|--5--5-5-5-5-5----5---5-5-5-5-5-3-3-3-3-|
||---------------------------------|----------------------------------------|
|
|   Gtr II
|   E E   E    E   E   E   E   E      E    E   E      E     E   E   E   E
||----5---3----5-------5-------5---|-------5---3------5---------5-------5---|
||o----------------6-------5-------|--3---------------------6-------5-------|
||---------------------------------|----------------------------------------|
||--0------------------------------|----------------------------------------|
||o--------------------------------|--------------------------------3-------|
||---------------------------------|----------------------------------------|
    Q     H.                          H.                            Q


  Bb
   W                                      +W
   |                                       |
   /                                       /

   H                 +Q.            E      W
|---------------------------------------|----------------------------------|
|-11----------------(11)-----------10---|--8-------------------------------|
|-12----------------(12)-----------10---|--9-------------------------------|
|---------------------------------------|----------------------------------|
|---------------------------------------|----------------------------------|
|---------------------------------------|----------------------------------|
|  H                 +Q.            E      W
|
|  PM--------------------------------------------------------------------|
|  S S S S S  S S S   S  S S S S S  S S    S S S S S S S S S S S S S S S S
|---------------------------------------|----------------------------------|
|---------------------------------------|----------------------------------|
|---------------------------------------|----------------------------------|
|---------------------------------------|----------------------------------|
|--1-1-1-1-1--1-1-1---1--1-1-1-1-1--1-1-|--1-1-1-1-1-1-1-1-1-1-3-3-5-5-1-1-|
|---------------------------------------|----------------------------------|
|
|  E   E   E    E     E    E   E    E      E   E   E   E   E   E   E   E
|------6---5----6----------6--------6---|------6---5---6-------6-------6---|
|---------------------8--------6--------|--5---------------8-------6-------|
|--7------------------------------------|----------------------------------|
|---------------------------------------|----------------------------------|
|---------------------------------------|----------------------------------|
|--6------------------------------------|----------------------------------|
   Q       H.


  C
  W
  |
  /

  Q       Q         Q        Q
|------------------------------------|
|---------8--------10-------11-------|
|---------9--------10-------12-------|
|------------------------------------|
|------------------------------------|
|------------------------------------|
| Q       Q         Q        Q
|
| PM----------------------------------
| S S S S S  S S S  S S S S  S S S S
|------------------------------------|
|------------------------------------|
|------------------------------------|
|------------------------------------|
|-3-3-3-3-3--3-3-3--3-3-3-3--3-3-3-3-|
|------------------------------------|
|
| E   E   E    E    E   E    E   E
|-----3--------3--------3--------3---|
|-5-------6---------5--------3-------|
|------------------------------------|
|------------------------------------|
|-3----------------------------------|
|------------------------------------|
  Q       H.


  +W
   |
   /

               |----3----|
   Q           E    E    E    Q       Q
|--8-----------6h===8p===6--------------------|
|----------------------------10-------8-------|
|-12b14-------12h==14p==12---10-------9-------|
|---------------------------------------------|
|---------------------------------------------|
|---------------------------------------------|
|  Q           E    E    E    Q       Q
|              |----3----|
|
|-------------------------------------------|
|  S    S S S  S S    S    S  S S S S S S S S
|---------------------------------------------|
|---------------------------------------------|
|---------------------------------------------|
|---------------------------------------------|
|--3----3-3-3--3-3----3----3------------------|
|-----------------------------3-3-5-5-6-6-3-3-|
|
|  E      E    E      E       E   E   E   E
|---------3-----------3-------------------6---|
|--------------6--------------5---6---8-------|
|--5------------------------------------------|
|---------------------------------------------|
|---------------------------------------------|
|---------------------------------------------|


  D5/A
   W                                      +W
   |                                       |
   /                                       /

   H                 +Q.            E      W                                3x
|---------------------------------------|-----------------------------------||
|-10----------------(10)-----------11---|-10-------------------------------o||
|-10----------------(10)-----------12---|-10--------------------------------||
|---------------------------------------|-----------------------------------||
|---------------------------------------|----------------------------------o||
|---------------------------------------|-----------------------------------||
|  H                 +Q.            E      W
|
|  PM----------------------------------------------------|
|  S S S S S  S S S   S  S S S S S  S S    S S S S S S S S S S S S S S S S  3x
|---------------------------------------|-----------------------------------||
|---------------------------------------|----------------------------------o||
|---------------------------------------|------------------2h3---2----------||
|---------------------------------------|----------------------5---3h5-2h3--||
|--5-5-5-5-5--5-5-5---5--5-5-5-5-5--5-5-|--5-5-5-5-5-5-5-5-----------------o||
|---------------------------------------|-----------------------------------||
|
|  E   E   E    E     E    E   E    E      E   E   E   E   E   E   E   E    3x
|--5---5--------5----------5--------5---|------5-------5-------5-------5----||
|----------8----------6--------5--------|----------8-------6-------5-------o||
|---------------------------------------|--7--------------------------------||
|--0------------------------------------|-----------------------------------||
|---------------------------------------|----------------------------------o||
|---------------------------------------|-----------------------------------||
   Q       H.


 Chorus riff fades out
  D5/A
  W
  |
  /

  Q     Q         Q        Q
|----------------------------------|
|-------8--------10-------11-------|
|-------9--------10-------12-------|
|----------------------------------|
|----------------------------------|
|----------------------------------|
| Q     Q         Q        Q
|
|   PM------------------------------
| E S S S  S S S  S S S S  S S S S
|----------------------------------|
|----------------------------------|
|----------------------------------|
|-7--------------------------------|
|-5-5-5-5--5-5-5--5-5-5-5--5-5-5-5-|
|----------------------------------|
|
| E E   E    E    E   E    E   E
|---5---3----5--------5--------5---|
|-----------------6--------5-------|
|----------------------------------|
|-0--------------------------------|
|----------------------------------|
|----------------------------------|
  Q     H.


  +W
   |
   /

               |----3----|
   Q           E    E    E    Q       Q
|--8-----------6h===8p===6---------------------|
|----------------------------10-------8--------|
|-12b14-------12h==14p==12---10-------9--------|
|----------------------------------------------|
|----------------------------------------------|
|----------------------------------------------|
|  Q           E    E    E    Q       Q
|              |----3----|
|
|-------------------------------------------|
|  S    S S S  S S    S    S  S S S S S S S S
|----------------------------------------------|
|----------------------------------------------|
|----------------------------------------------|
|----------------------------------------------|
|--5----5-5-5--5-5----5----5--5-5-5-5-3-3-3-3--|
|----------------------------------------------|
|
|  E      E    E      E       E   E   E   E
|---------5----3------5-----------5-------5----|
|--3--------------------------6-------5--------|
|----------------------------------------------|
|----------------------------------------------|
|-------------------------------------3--------|
|----------------------------------------------|
   H.                                 Q


  Bb
   W                                      W
   |                                      |
   /                                      /

   H                 +Q.            E     W
|---------------------------------------|---------------------------------||
|-11----------------(11)-----------10---|-8-------------------------------||
|-12----------------(12)-----------10---|-9-------------------------------||
|---------------------------------------|---------------------------------||
|---------------------------------------|---------------------------------||
|---------------------------------------|---------------------------------||
|  H                 +Q.            E     W
|
|  PM-------------------------------------------------------------------|
|  S S S S S  S S S   S  S S S S S  S S   S S S S S S S S S S S S S S S S
|---------------------------------------|---------------------------------||
|---------------------------------------|---------------------------------||
|---------------------------------------|---------------------------------||
|---------------------------------------|---------------------------------||
|--1-1-1-1-1--1-1-1---1--1-1-1-1-1--1-1-|-1-1-1-1-1-1-1-1-1-1-3-3-5-5-1-1-||
|---------------------------------------|---------------------------------||
|
|  E   E   E    E     E    E   E    E     E   E   E   E   E   E   E   E
|------6---5----6----------6--------6---|-----6---5---6-------6-------6---||
|---------------------8--------6--------|-5---------------8-------6-------||
|--7------------------------------------|---------------------------------||
|---------------------------------------|---------------------------------||
|---------------------------------------|---------------------------------||
|--6------------------------------------|---------------------------------||
   Q       H.


 Outro fades In
  Bb                  A7/C#
  Gtr II
  E E E E E  E  E E    E  E E  E  E  E E  E
|-6-----------------|--9--------------------|
|---8-7-8---11-10-8-|----10-8-10----10---10-|
|-7-------7--7------|------------10----9----|
|---8-7-8-7----10-8-|----11-9-11----11-9-11-|
|-------------------|-12---------12---------|
|-------------------|-----------------------|
  E E E E E  E  E E    E  E E  E  E  E E  E


  Dm
   |-----6-----|
   S S  S S  S S  E  E  E  E  E  E    E  E E  E H
|-10p9h10p9h10p9-10-12-13-10----10-|----10---10------|
|----------------------------10----|-10----8----6----|
|----------------------------------|-----------------|
|-----------------9-11-12----------|-------7---------|
|----------------------------12----|--8---------5----|
|----------------------------------|-----------------|
   Q              E  E  E  E  Q       Q    Q    H


    Dm                       A
     E  E E  E  E  E  E  E   E  E E  E  E  E E  E
||--10---------------------|-9--------------------|
||o----10-8-10----10--8-10-|---10-8-10----10-8-10-|
||-------------10----------|------------9---------|
||-------------------------|-7----7--9-11----7----|
||o-------7-----8----10----|---11-----------------|
||--10---------------------|----------------------|
     Q    Q     Q     Q      E  E E  E  E  E E  E


  Dm                      A
   E  E E  E  E  E E  E   E  E E  E E  E E  E
|-10--------------------|-9--------------------|
|----10-8-10----10-8-10-|---10-8-10---10-8-10--|
|----10-9-10-10-10-9----|-9---------9----------|
|-12---------12------12-|---11-8-11-7-11-9-11--|
|-----------------------|----------------------|
|-----------------------|----------------------|
   E  E E  E  E  E E  E   E  E E  E E  E E  E


  Bb                   A7/C#
  E E E E  E  E  E E    E  E E  E  E  E E  E
|-6------------------|--9--------------------|
|---8-7-8----11-10-8-|----10-8-10----10---10-|
|-7--------7--7------|------------10----9----|
|---8-7-8-------10-8-|----11-9-11----11-9-11-|
|---------10---------|-12---------12---------|
|--------------------|-----------------------|
  E E E E  E  E  E E    E  E E  E  E  E E  E


 1.
  Dm
   |-----6-----|
   S S  S S  S S  E  E  E  E  E  E    E  E E  E H
|-10p9h10p9h10p9-10-12-13-10----10-|----10---10-------||
|----------------------------10----|-10----8----6----o||
|----------------------------------|------------------||
|-----------------9-11-12----------|-------7----------||
|----------------------------12----|--8---------5----o||
|----------------------------------|------------------||
   Q              E  E  E  E  Q       Q    Q    H


  2.
  Bb                                 A7/C#
   |-----6-----|
   S S  S S  S S  E  E  E  E  E  E    E  E E  E H
|-10p9h10p9h10p9-10-12-13-10----10-|----10---10------|
|----------------------------10----|-10----8----6----|
|----------------------------------|-----------------|
|-----------------9-11-12----------|-------7---------|
|----------------------------12----|--8---------5----|
|----------------------------------|-----------------|
   Q              E  E  E  E  Q       Q    Q    H


  Dm
   E  E E  E  E  E  E  E   E  E E  E  E  E E  E
|-10---------------------|-9--------------------*|
|----10-8-10----10--8-10-|---10-8-10----10-8-10-*|
|------------10----------|------------9---------*|
|------------------------|-7----7--9-11----7----*|
|-------7-----8----10----|---11-----------------*|
|-10---------------------|----------------------*|
   Q    Q     Q     Q      E  E E  E  E  E E  E



Duration Legend
---------------
W - whole; H - half; Q - quarter; E - 8th; S - 16th; T - 32nd; X - 64th; a - acciaccatura
+ - note tied to previous; . - note dotted; .. - note double dotted
Uncapitalized letters represent notes that are staccato (1/2 duration)
Irregular groupings are notated above the duration line
Duration letters will always appear directly above the note/fret number it represents the
duration for.  Duration letters with no fret number below them represent rests.  Multi-
bar rests are notated in the form Wxn, where n is the number of bars to rest for.  Low
melody durations appear below the staff

Tablature Legend
----------------
 h   - hammer-on
 p   - pull-off
 b   - bend
 pb  - pre-bend
 r   - bend release (if no number after the r, then release immediately)
 /\  - slide into or out of (from/to "nowhere")
 s   - legato slide
 S   - shift slide
<n> - natural harmonic
[n]  - artificial harmonic
n(n) - tapped harmonic
 ~   - vibrato
 tr  - trill
 T   - tap
 TP  - trem. picking
 PM  - palm muting
\n/  - tremolo bar dip; n = amount to dip
 \n  - tremolo bar down
 n/  - tremolo bar up
/n\  - tremolo bar inverted dip
 =   - hold bend; also acts as connecting device for hammers/pulls
 <> - volume swell (louder/softer)
 x   - on rhythm slash represents muted slash
 o   - on rhythm slash represents single note slash

Misc Legend
-----------
 |  - bar
||  - double bar
||o - repeat start
o|| - repeat end
*|  - double bar (ending)
 :  - bar (freetime)
 $  - Segno
 &  - Coda
Tempo markers - <E/E./Q/Q./H/H.> = BPM(8/16=s8/s16), where s8 = swing 8ths, s16 = swing 16ths

comments
print report bad tab
1 comment total.
0 reply
J_Byrd wrote on January 18 2010, 12:19 pm

Nice Tab, looks really accurate. I'll have to go learn the song. solo looks pretty challenging ;)

I want to post or [tab]
guest
You may want to rate the tab now too:
select rating
Please do not post tabs as comments. Select "correction" instead!