Oops, an error
Loading. Please wait.

Coming Home Tab

ver2
ver2

Whole song

Interactive

More versions @911Tabs.com
3,385 views 6 this week
no commentswrite comment
1 2 3 4 5
please rate
Autoscroll
+/-
esc
set tempo
stop
Contributor
Tuning
D# G# C# F# A# D#
Hey! There's an official Ultimate Guitar app which is ideal
for learning songs when you're away from computer. Get the app
WARNING: You are trying to view
                                    content from Ultimate-Guitar.com
                                    in an unauthorized application,
                                    which is prohibited.

                                    Please use an official Ultimate
                                    Guitar Tabs application for iPhone,
                                    iPad or Android to access legitimate
                                    chords, guitar, bass, and drum tabs
                                    from Ultimate-Guitar.com database.

                                    Type "ultimate guitar tabs" in Apple
                                    App Store's or Android Market's
                                    search to find the application.
#----------------------------------PLEASE NOTE---------------------------------#
#This file is the author's own work and represents their interpretation of the #
#song. You may only use this file for private study, scholarship, or research. #
#------------------------------------------------------------------------------#

COMING HOME
As recorded by Stratovarius
(From the 1994 Album "VISIONS")


	

Words and Music by Timmo Tolkki

C5
x 3 5 x x x
	
B5
x 2 4 x x x
	
A5
x 0 2 x x x
	
E5
0 2 x x x x
D5
x 5 7 x x x

Gtr I (Eb Ab Db Gb Bb Eb) - 'Tolkki 1'
Gtr II (Eb Ab Db Gb Bb Eb) - 'Tollkki 2'
Gtr III (Eb Ab Db Gb Bb Eb) - 'Keyboard'
Gtr IV (Eb Ab Db Gb Bb Eb) - 'Untitled'

 Intro
  Moderately Q=70
  Em          Bm       C           G
 4/4
  Gtr I
  E S S S S E E Q  E   E S S S S E E Q  E
|-3-----3-2-0--------|-0-----0------------|
|---0---------3----3-|---1-----3-1-0----0-|
|-----0---------4----|-----0---------0----|
|--------------------|--------------------|
|-------------2------|-3------------------|
|-0------------------|-------------3------|
|
| Gtr III
| H           H        H           H
|--------------------|--------------------|
|-5------------------|--------------------|
|-------------4------|-4------------------|
|--------------------|-------------5------|
|--------------------|--------------------|
|--------------------|--------------------|


  Am          C           D
  E S S S S E E S S E E   Q  S X X T S S S S E +E  S S
|-------------0-----3---|-2--2h3p2p0-----0---------0-2--|
|-1-----1p0-----1-----1-|------------3-----3------------|
|---2-------2-----0-----|--------------2-----2-(2)------|
|-----2-----------------|-0-----------------------------|
|-0-----------3---------|-------------------------------|
|-----------------------|-------------------------------|
|
| H           H           W
|-----------------------|-------------------------------|
|-----------------------|-3-----------------------------|
|-------------5---------|-------------------------------|
|-7---------------------|-------------------------------|
|-----------------------|-------------------------------|
|-----------------------|-------------------------------|


  Em           Bm        C            G
   E S S S S E  E Q  E    E S S S S E  E Q  E
|--3-----3-2-0---------|--0-----0-------------|
|----0----------3----3-|----1-----3-1--0----0-|
|------0----------4----|------0----------0----|
|----------------------|----------------------|
|---------------2------|--3-------------------|
|--0-------------------|---------------3------|
|
|  H            H         H            H
|--------------19------|--------------15------|
|-24-----------19------|-20-----------15------|
|-24-------------------|-21-----------16------|
|-21-----------21------|-22-------------------|
|----------------------|----------------------|
|-24-----------19------|-20-----------15------|


  Am           C            D
   E S S S S E  E S S E E    E S S S S E +H
|---------------0-----3s5-|--5-----5------------|
|--1-----1p0------1-------|----3-----3----------|
|----2-------2------0-----|------2-----2-(2)----|
|------2------------------|---------------------|
|--0------------3---------|--5------------------|
|-------------------------|---------------------|
|
|  H            H            W
|-------------------------|---------------------|
|-17-----------17---------|-19------------------|
|-17-----------17---------|-19------------------|
|-19-----------17---------|-19------------------|
|-------------------------|-17------------------|
|-17-----------20---------|---------------------|


 Verse
  Em           Bm        C            G
   E S S S S E  E Q  E    E S S S S E  E Q  E
|--3-----3-2-0---------|--0-----0-------------|
|----0----------3----3-|----1-----3-1--0----0-|
|------0----------4----|------0----------0----|
|----------------------|----------------------|
|---------------2------|--3-------------------|
|--0-------------------|---------------3------|
|
|  H            H         H            H
|--------------19------|--------------15------|
|-24-----------19------|-20-----------15------|
|-24-------------------|-21-----------16------|
|-21-----------21------|-22-------------------|
|----------------------|----------------------|
|-24-----------19------|-20-----------15------|


  Am           C            D
   E S S S S E  E S S E E    Q  S X X T S S S S E +E  S S
|---------------0-----3---|--2--2h3p2p0-----0---------0-2---|
|--1-----1p0------1-----1-|-------------3-----3-------------|
|----2-------2------0-----|---------------2-----2-(2)-------|
|------2------------------|--0------------------------------|
|--0------------3---------|---------------------------------|
|-------------------------|---------------------------------|
|
|  H            H            W
|-------------------------|---------------------------------|
|-17-----------17---------|-19------------------------------|
|-17-----------17---------|-19------------------------------|
|-19-----------17---------|-19------------------------------|
|-------------------------|-17------------------------------|
|-17-----------20---------|---------------------------------|


  Em           Bm        C            G
   E S S S S E  E Q  E    E S S S S E  E Q  E
|--3-----3-2-0---------|--0-----0-------------|
|----0----------3----3-|----1-----3-1--0----0-|
|------0----------4----|------0----------0----|
|----------------------|----------------------|
|---------------2------|--3-------------------|
|--0-------------------|---------------3------|
|
|  H            H         H            H
|--------------19------|--------------15------|
|-24-----------19------|-20-----------15------|
|-24-------------------|-21-----------16------|
|-21-----------21------|-22-------------------|
|----------------------|----------------------|
|-24-----------19------|-20-----------15------|


  Am           C            D
   E S S S S E  E S S E E    E S S S S E S S E +Q
|---------------0-----3s5-|--5-----5-----5------------|
|--1-----1p0------1-------|----3-----3-----3----------|
|----2-------2------0-----|------2-----2-----2-(2)----|
|------2------------------|--0------------------------|
|--0------------3---------|---------------------------|
|-------------------------|---------------------------|
|
|  H            H            W
|-------------------------|---------------------------|
|-17-----------17---------|-19------------------------|
|-17-----------17---------|-19------------------------|
|-19-----------17---------|-19------------------------|
|-------------------------|-17------------------------|
|-17-----------20---------|---------------------------|


 Chorus
  C                              Em
   E S S E S S S S S S S S S S    E S S E S S S S S S S S S S
|--3-----3-----5s3-----2p0-----|--3-----3-----5s3-----2p0-----|
|----1-----1-------0-------0---|----0-----0-------0-------0---|
|------0-----0-------0-------0-|------0-----0-------0-------0-|
|------------------------------|--2---------------------------|
|--3---------------------------|------------------------------|
|------------------------------|------------------------------|
|
|  W                              W
|------------------------------|------------------------------|
|-17---------------------------|-17---------------------------|
|-17---------------------------|-16---------------------------|
|-17---------------------------|-17---------------------------|
|------------------------------|-19---------------------------|
|-20---------------------------|------------------------------|


  C                              D
   E S S E S S S S S S S S S S    E E S S S S H
|--3-----3-----5s3-----2h3-----|------3p2----------|
|----1-----1-------0-------0---|----------3---3----|
|------0-----0-------0-------0-|----2-------2------|
|------------------------------|--0----------------|
|--3---------------------------|-------------------|
|------------------------------|-------------------|
|
|  W                              W
|------------------------------|-------------------|
|-17---------------------------|-19----------------|
|-17---------------------------|-19----------------|
|-17---------------------------|-19----------------|
|-15---------------------------|-17----------------|
|------------------------------|-------------------|


  E5        N.C.        D5    D5/AN.C.
  Gtr II
            PM| ~ PM|             PM|
   H    +E  S S E S S    Q.   E E S S S S S S
|---------------------|-----------------------|
|---------------------|-----------------------|
|---------------------|-----------------------|
|---------------------|--7----7-7-----4h5-4---|
|--2----(2)-----------|--5----5-5-5-7-------5-|
|--0----(0)-0-2-3-2-0-|-------5---------------|
|
| Gtr IV
|  W                     W
|---------------------|-----------------------|
|---------------------|-----------------------|
|--9------------------|-----------------------|
|---------------------|-12--------------------|
|---------------------|-----------------------|
|---------------------|-----------------------|
|
| Gtr III
|  W                     W
|---------------------|-----------------------|
|---------------------|-----------------------|
|---------------------|-----------------------|
|-17------------------|-16--------------------|
|-19------------------|-17--------------------|
|-19------------------|-17--------------------|


  E5        N.C.        D5    D5/AN.C.
            PM| ~ PM|             PM|
   H    +E  S S E S S    Q.   E E S S S S S S
|---------------------|-------------------------|
|---------------------|-------------------------|
|---------------------|-------------------------|
|---------------------|--7----7-7-----4h5-4-----|
|--2----(2)-----------|--5----5-5-5-7-------5---|
|--0----(0)-0-2-3-2-0-|-------5-----------------|
|
|  W                     W
|---------------------|-------------------------|
|---------------------|-------------------------|
|--9------------------|-------------------------|
|---------------------|-12----------------------|
|---------------------|-------------------------|
|---------------------|-------------------------|
|
|  W                     W
|---------------------|-------------------------|
|---------------------|-------------------------|
|---------------------|-------------------------|
|-17------------------|-16----------------------|
|-19------------------|-17----------------------|
|-19------------------|-17----------------------|


 Bridge
  E5         N.C.          D5    D5/A   N.C.
             PM|  ~~ PM|                PM|
   H     +E  S S  E  S S    Q.    E  E  S S S S  S  S
|------------------------|----------------------------|
|------------------------|----------------------------|
|------------------------|----------------------------|
|------------------------|--7-----7--7------4h5--4----|
|--2-----(2)-------------|--5-----5--5--5-7---------5-|
|--0-----(0)-0-2--3--2-0-|--------5-------------------|
|
|  H.             E  E      Q.    E  Q.          S  S
|------------------------|----------------------------|
|------------------------|----------10----------------|
|--9-------------12-11---|-------11-------------12-11-|
|------------------------|-12-------------------------|
|------------------------|----------------------------|
|------------------------|----------------------------|
|
|  W                        W
|------------------------|----------------------------|
|------------------------|----------------------------|
|------------------------|----------------------------|
|-17---------------------|-16-------------------------|
|-19---------------------|-17-------------------------|
|-19---------------------|-17-------------------------|


  E5              N.C.          D5      D5/A   N.C.
                  PM| ~  PM|                   PM|
   H          +E  S S E  S  S    Q.      E  E  S S S S  S  S
|-----------------------------|-------------------------------|
|-----------------------------|-------------------------------|
|-----------------------------|-------------------------------|
|-----------------------------|--7-------7--7------4h5--4-----|
|--2----------(2)-------------|--5-------5--5--5-7---------5--|
|--0----------(0)-0-2-3--2--0-|----------5--------------------|
|
|  E Q   E  a  Q.        S  S    E   Q   E  Q.          S  S
|-----------------------------|-------------------------------|
|----------10h12--------10----|------------10-----------------|
|-12-9--12-----------------12-|-11------11-------------12-11--|
|-----------------------------|-----12------------------------|
|-----------------------------|-------------------------------|
|-----------------------------|-------------------------------|
|
|  W                             W
|-----------------------------|-------------------------------|
|-----------------------------|-------------------------------|
|-----------------------------|-------------------------------|
|-17--------------------------|-16----------------------------|
|-19--------------------------|-17----------------------------|
|-19--------------------------|-17----------------------------|


  C5         B5   A5B5     E5
  Gtr II
  W          Q.   E H      W
  |          |    | |      |
  /          /    / /      /

  Gtr IV                   Gtr I
  W          W             S S S S S S S S S S S S S S S S
|----------|-------------|---0-------0-------0-------0-----|
|-8--------|-7-----------|-----0-------0-------0-------0---|
|-9--------|-8-----------|-------0-------0-------0-------0-|
|----------|-------------|-2-------7-------5-------4-------|
|----------|-------------|---------------------------------|
|----------|-------------|---------------------------------|
|
|   Gtr I
| W          W             W
|----------|-------------|---------------------------------|
|----------|-------------|---------------------------------|
|----------|-------------|---------------------------------|
|----------|-------------|---------------------------------|
|----------|-------------|---------------------------------|
|----------|-------------|---------------------------------|


  E5
  +W
   |
   /

   S S S S S S S S S S S S S S S S
|----0-------0-------0-------0--------|
|------0-------0-------0-------0------|
|--------0-------0-------0-------0----|
|--5-------7-------5-------4----------|
|-------------------------------------|
|-------------------------------------|
|
|  S S S S S S S S S S S S S S S S
|-10-------8---0---7-------5----------|
|----9---9---5---5---5---5---5---5----|
|------9---------------4-------4------|
|-------------------------------------|
|-------------------------------------|
|-------------------------------------|


 Verse
  Em          Bm       C           G
  E S S S S E E Q  E   E S S S S E E Q  E
|-3-----3-2-0--------|-0-----0------------|
|---0---------3----3-|---1-----3-1-0----0-|
|-----0---------4----|-----0---------0----|
|--------------------|--------------------|
|-------------2------|-3------------------|
|-0------------------|-------------3------|
|
| Gtr I
| W                    W
|-3------------------|--------------------|
|--------------------|--------------------|
|--------------------|--------------------|
|--------------------|--------------------|
|--------------------|--------------------|
|--------------------|--------------------|


  Am          C           D
  E S S S S E E S S E E   Q  S T T T T S S S E +E  S S
|-------------0-----3---|-2--2h3p2p0-----0---------0-2---|
|-1-----1p0-----1-----1-|------------3-----3-------------|
|---2-------2-----0-----|--------------2-----2-(2)-------|
|-----2-----------------|-0------------------------------|
|-0-----------3---------|--------------------------------|
|-----------------------|--------------------------------|
|
| W                       W
|-----------------------|--------------------------------|
|-----------------------|--------------------------------|
|-----------------------|--------------------------------|
|-----------------------|--------------------------------|
|-----------------------|--------------------------------|
|-----------------------|--------------------------------|


  Em          Bm       C           G
  E S S S S E E Q  E   E S S S S E E Q  E
|-3-----3-2-0--------|-0-----0------------|
|---0---------3----3-|---1-----3-1-0----0-|
|-----0---------4----|-----0---------0----|
|--------------------|--------------------|
|-------------2------|-3------------------|
|-0------------------|-------------3------|
|
| Gtrs II, IV
| H           H        H           H
|--------------------|--------------------|
|-8-----------7------|-5-----------3------|
|-9-----------7------|-5-----------4------|
|--------------------|--------------------|
|--------------------|--------------------|
|--------------------|--------------------|


  Am          C           D
  E S S S S E E S S E E   E S S E S S S S E +Q
|-------------0-----3s5-|-5-----5-----5------------|
|-1-----1p0-----1-------|---3-----3-----3----------|
|---2-------2-----0-----|-----2-----2-----2-(2)----|
|-----2-----------------|-0------------------------|
|-0-----------3---------|--------------------------|
|-----------------------|--------------------------|
|
| H           H           W
|-----------------------|--------------------------|
|-1-----------5---------|-7------------------------|
|-2-----------5---------|-7------------------------|
|-----------------------|--------------------------|
|-----------------------|--------------------------|
|-----------------------|--------------------------|


 Chorus
  C5                  E5         C5                D5
  Gtr IV
  S S S S H.          W          S S S S H.        W
  | | | | |           |          | | | | |         |
  / / / / /           /          / / / / /         /

  Gtr II
    PM--|                          PM--|
  S S S S H     Q     W          S S S S H.        W
|-------------------|----------|-----------------|------||
|-------------------|----------|-----------------|------||
|-------------------|----------|-----------------|------||
|-5-5-5-5-5-----x\--|----------|-5-5-5-5-5-------|-7----||
|-3-3-3-3-3---------|-2--------|-3-3-3-3-3-------|-5----||
|-------------------|-0--------|-----------------|------||


                      Bridge
  E5       N.C.        D5    D5/A   N.C.
  Gtr II
           PM| ~ PM|                PM|
  H    +E  S S E S S    Q.    E  E  S S S S  S  S
|--------------------|----------------------------|
|--------------------|----------------------------|
|--------------------|----------------------------|
|--------------------|--7-----7--7------4h5--4----|
|-2----(2)-----------|--5-----5--5--5-7---------5-|
|-0----(0)-0-2-3-2-0-|--------5-------------------|
|
| Gtr IV
| W                     Q.    E  Q.          S  S
|--------------------|----------------------------|
|--------------------|----------10----------------|
|-9------------------|-------11-------------12-11-|
|--------------------|-12-------------------------|
|--------------------|----------------------------|
|--------------------|----------------------------|


  E5              N.C.          D5      D5/A   N.C.
                  PM| ~  PM|                   PM|
   H          +E  S S E  S  S    Q.      E  E  S S S S  S  S
|-----------------------------|-------------------------------|
|-----------------------------|-------------------------------|
|-----------------------------|-------------------------------|
|-----------------------------|--7-------7--7------4h5--4-----|
|--2----------(2)-------------|--5-------5--5--5-7---------5--|
|--0----------(0)-0-2-3--2--0-|----------5--------------------|
|
|  E Q   E  a  Q.        S  S    E   Q   E  Q.          S  S
|-----------------------------|-------------------------------|
|----------10h12--------10----|------------10-----------------|
|-12-9--12-----------------12-|-11------11-------------12-11--|
|-----------------------------|-----12------------------------|
|-----------------------------|-------------------------------|
|-----------------------------|-------------------------------|


  E5                   D5    D5/A                   C5         B5   A5B5
           PM| ~ PM|                PM|
  H    +E  S S E S S    Q.    E  E  S S S S  S  S   W          Q.   E H
|--------------------|----------------------------|----------|-------------|
|--------------------|----------------------------|----------|-------------|
|--------------------|----------------------------|----------|-------------|
|--------------------|--7-----7--7------4h5--4----|-5--------|-4----2-4----|
|-2----(2)-----------|--5-----5--5--5-7---------5-|-3--------|-2----0-2----|
|-0----(0)-0-2-3-2-0-|--------5-------------------|----------|-------------|
|
| W                     Q.    E  Q.          S  S   W          W
|--------------------|----------------------------|----------|-------------|
|--------------------|----------10----------------|-8--------|-7-----------|
|-9------------------|-------11-------------12-11-|-9--------|-8-----------|
|--------------------|-12-------------------------|----------|-------------|
|--------------------|----------------------------|----------|-------------|
|--------------------|----------------------------|----------|-------------|


  C5         B5   A5B5     C5   D5
  W          Q.   E H      H    H
|----------|-------------|-----------||
|----------|-------------|-----------||
|----------|-------------|-----------||
|-5--------|-4----2-4----|-5----7----||
|-3--------|-2----0-2----|-3----5----||
|----------|-------------|-----------||


  C5   D5     E5
  Gtrs II, IV
              PM----|   PM----------|   PM--|
  H    H      S S S S S S S S S S S S S S S S
|-----------|---------------------------------|
|-----------|---------------------------------|
|-----------|---------4---------------4-------|
|-5----7----|---------2---------------2-------|
|-3----5----|---------------------------------|
|-----------|-3-2-0-0---0-0-0-3-2-0-0---0-0-0-|


  C5   D5     E5
              PM----|   PM----------|   PM--|
  H    H      S S S S S S S S S S S S S S S S
|-----------|------------------------------------|
|-----------|------------------------------------|
|-----------|---------4---------------4----------|
|-5----7----|---------2---------------2----------|
|-3----5----|------------------------------------|
|-----------|-3-2-0-0---0-0-0-3-2-0-0---0-0-0----|


  C5   D5     N.C.          C5         B5
  H    H      Q  Q  Q  Q    W          W
|-----------|-------------|----------|-----------------||
|-----------|-------------|----------|-----------------||
|-----------|-------------|----------|-----------------||
|-5----7----|-5--4--2-----|-5--------|-4---------------||
|-3----5----|----------5--|-3--------|-2---------------||
|-----------|-3--2--0-----|----------|-----------------||
|
| Gtr II
|                                             \4.5/
| W           W             W          H      H
|-----------|-------------|----------|-----------------||
|-----------|-------------|----------|-----------------||
|-----------|-------------|----------|------[14]\------||
|-----------|-------------|----------|-----------------||
|-----------|-------------|----------|-----------------||
|-----------|-------------|----------|-----------------||


 Guitar Solo
  E5                               D5
  Gtr II
                                                          |--3--|
   H.               E      +E       +H      +S   S  S  S  T  T  T  S  S  S
|--------------------------------|--------------12-14-15-14h15p14-12-------|
|-15b17------------15b17==(15)r==|=(15)----(15)----------------------15-12-|
|--------------------------------|-----------------------------------------|
|--------------------------------|-----------------------------------------|
|--------------------------------|-----------------------------------------|
|--------------------------------|-----------------------------------------|
|
| Gtr IV
|              PM|  ~~~~~~  PM-|                    PM|               PM|
|  H       +E  S S  E       S  S     H      +E      S  S  E           S  S
|--------------------------------|-----------------------------------------|
|--------------------------------|-----------------------------------------|
|--------------------------------|-----------------------------------------|
|--------------------------------|---7------(7)-----------4----------------|
|--2-------(2)-------------------|---5------(5)-----5--7--------------7--5-|
|--0-------(0)-0-2--3-------2--0-|-----------------------------------------|


  C5                                          B5
                                                                                            ~~~~~~~
   Q.       a       E   E   E    S  S  S  S    +E   E  a      +E   T      +T   T  T  S   S  E  +Q
|----------------------------------15-------|----------------------------------------------------------|
|-15b17====15pb17r(15)-15--13---13----13-12-|-(12)-12-12b14==(12)r12b14==(12)r12p10--------------------|
|-------------------------------------------|---------------------------------------12--11-11-(11)-----|
|-------------------------------------------|----------------------------------------------------------|
|-------------------------------------------|----------------------------------------------------------|
|-------------------------------------------|----------------------------------------------------------|
|
|                           PM|        PM|
|  H                   +E   S S  E     S  S     H                                   +E      E   E  E
|-------------------------------------------|----------------------------------------------------------|
|-------------------------------------------|----------------------------------------------------------|
|-------------------------------------------|----------------------------------------------------------|
|--5-------------------(5)-------2----------|---4-----------------------------------(4)----------------|
|--3-------------------(3)--3-5--------5--3-|---2-----------------------------------(2)-----0----------|
|-------------------------------------------|---------------------------------------------------3--2---|


  E5
   S  S  S  S  E     S  S      +Q        S   S  S  S
|----------17-17b19----20b22==(20)r====(20)-19-17-19-|
|-17-19-20----------17-------------------------------|
|----------------------------------------------------|
|----------------------------------------------------|
|----------------------------------------------------|
|----------------------------------------------------|
|
|                                  PM|   ~~~~   PM|
|  H                           +E  S S   E      S  S
|----------------------------------------------------|
|----------------------------------------------------|
|----------------------------------------------------|
|----------------------------------------------------|
|--2---------------------------(2)-------------------|
|--0---------------------------(0)-0-2---3------2--0-|


  D5
   |----------------13-----------------|  |-------------11--------------|  |---------------12----------------|  |------------10--------------|
   S  S  S  S  S  S  S  S  S  S  S  S  S  S  S  S  S  S  S  S  S  S  S  S  S   S  S  S  S  S  S  S  S  S  S  S  S  S  S  S  S  S  S  S    S  S
|-20-19-17----19-17----------------17-19-20-19-17-19-17----------------17-19--20-19-17----17----------------------17-----------------------------|
|----------20-------20-19-17-19-20----------------------20-19-17-19-20-----------------20----20-19-17----17-19-20----20-19-17----19-17---15------|
|-----------------------------------------------------------------------------------------------------19----------------------19------------17---|
|------------------------------------------------------------------------------------------------------------------------------------------------|
|------------------------------------------------------------------------------------------------------------------------------------------------|
|------------------------------------------------------------------------------------------------------------------------------------------------|
|
|                                                                                             PM------|                        PM------|
|  H                                                                      +E                  S        S        E              S       S
|------------------------------------------------------------------------------------------------------------------------------------------------|
|------------------------------------------------------------------------------------------------------------------------------------------------|
|------------------------------------------------------------------------------------------------------------------------------------------------|
|--7----------------------------------------------------------------------(7)-----------------------------------4--------------------------------|
|--5----------------------------------------------------------------------(5)-----------------5--------7-----------------------7-------5---------|
|------------------------------------------------------------------------------------------------------------------------------------------------|


  C5
                                                                                                                       ~~
   |--------------12----------------|  |-----------------14-------------------|  |-------------9--------------|
   S  S  S  S  S  S  S  S  S  S  S  S  S  S  S  S  S  S  S  S  S  S  S  S  S  S  S   S  S  S  S    S  S    S  S  S  S  E
|--------------------------------------------------------------------------------------------15-----------15-17-19-19-19---|
|-------------------------------15----------15----15-17----15-16-17----15-16-17-19--15-17-19------17-19--------------------|
|-16-14----------------14-16-17----14-16-17----17-------17----------17-----------------------------------------------------|
|-------17-16-14-16-17-----------------------------------------------------------------------------------------------------|
|--------------------------------------------------------------------------------------------------------------------------|
|--------------------------------------------------------------------------------------------------------------------------|
|
|                                                                                               PM------|              PM|
|  H                                                                            +E              S       S        E     S S
|--------------------------------------------------------------------------------------------------------------------------|
|--------------------------------------------------------------------------------------------------------------------------|
|--------------------------------------------------------------------------------------------------------------------------|
|--5----------------------------------------------------------------------------(5)------------------------------2---------|
|--3----------------------------------------------------------------------------(3)-------------3-------5--------------5-3-|
|--------------------------------------------------------------------------------------------------------------------------|


  B5
  Gtr II
                                   \1.5           |
   ~~                         ~~~~~~~~~~~~~~~~~~~~~~~
      |--3--|
   E  T  T  T  T  T  T  T  T  S.  +Q.            +E.
|-19-17h19p17------------------------------------------|
|-------------20-19-17---------------------------------|
|----------------------20-17-16--(16)-----------(16)---|
|------------------------------------------------------|
|------------------------------------------------------|
|------------------------------------------------------|
|
| Gtr II
|  W
|------------------------------------------------------|
|------------------------------------------------------|
|------------------------------------------------------|
|------------------------------------------------------|
|------------------------------------------------------|
|------------------------------------------------------|
|
| Gtr IV
|  H                                    +E  E E      E
|------------------------------------------------------|
|------------------------------------------------------|
|------------------------------------------------------|
|--4------------------------------------(4)------------|
|--2------------------------------------(2)-0----------|
|---------------------------------------------3------2-|


  E5
    |
   +W
|--------------------------||
|--------------------------||
|-(16)---------------------||
|--------------------------||
|--------------------------||
|--------------------------||
|
|   Q    Q   Q       Q
|--------------------------||
|--12---10----------12-----||
|--12---11--12------12-----||
|--------------------------||
|--------------------------||
|--------------------------||
|
|               PM|  ~~PM|
|   H       +E  S S  E S S
|--------------------------||
|--------------------------||
|--------------------------||
|--------------------------||
|---2-------(2)------------||
|---0-------(0)-0-2--3-2-0-||


  D5                       C5                       B5
  Gtr II
   Q   Q   Q       Q        Q   Q   Q       Q        H     +E   E E  E
|------------------------|------------------------|--------------------|
|-10--------------10-----|------------------------|--------------------|
|-11--12--11------11-----|-12--11---9------12-----|-11----(11)--9-8-11-|
|---------12-------------|-----12--10-------------|------------10-9--7-|
|------------------------|------------------------|--------------------|
|------------------------|------------------------|--------------------|
|
| Gtr IV
|             PM|    PM|               PM|    PM|
|  H      +E  S S  E S S    H      +E  S S  E S S    H     +E   E E  E
|------------------------|------------------------|--------------------|
|------------------------|------------------------|--------------------|
|------------------------|------------------------|--------------------|
|--7------(7)------4-----|--5------(5)------2-----|--4-----(4)---------|
|--5------(5)-5-7----7-5-|--3------(3)-3-5----5-3-|--2-----(2)--0------|
|------------------------|------------------------|---------------3--2-|


   Outro
    E5                       D5
     Q   Q   Q       Q        Q   Q   Q       Q
||-------------------------|------------------------|
||o-12--10----------12-----|-10--------------10-----|
||--12--11--12------12-----|-11--12--11------11-----|
||-------------------------|---------12-------------|
||o------------------------|------------------------|
||-------------------------|------------------------|
|
|               PM|  ~~PM|               PM|    PM|
|    H      +E  S S  E S S    H      +E  S S  E S S
||-------------------------|------------------------|
||o------------------------|------------------------|
||-------------------------|------------------------|
||-------------------------|--7------(7)------4-----|
||o--2------(2)------------|--5------(5)-5-7----7-5-|
||---0------(0)-0-2--3-2-0-|------------------------|


  C5                       B5
   Q   Q   Q       Q        H     +E   E E  E
|------------------------|----------------------|
|------------------------|----------------------|
|-12--11---9------12-----|-11----(11)--9-8-11---|
|-----12--10-------------|------------10-9--7---|
|------------------------|----------------------|
|------------------------|----------------------|
|
|             PM|    PM|
|  H      +E  S S  E S S    H     +E   E E  E
|------------------------|----------------------|
|------------------------|----------------------|
|------------------------|----------------------|
|--5------(5)------2-----|--4-----(4)-----------|
|--3------(3)-3-5----5-3-|--2-----(2)--0--------|
|------------------------|---------------3--2---|


  E5                       D5
   Q   Q   Q       Q        Q   Q   Q       Q
|------------------------|------------------------|
|-12--10----------12-----|-10--------------10-----|
|-12--11--12------12-----|-11--12--11------11-----|
|------------------------|---------12-------------|
|------------------------|------------------------|
|------------------------|------------------------|
|
|             PM|  ~~PM|               PM|    PM|
|  H      +E  S S  E S S    H      +E  S S  E S S
|------------------------|------------------------|
|------------------------|------------------------|
|------------------------|------------------------|
|------------------------|--7------(7)------4-----|
|--2------(2)------------|--5------(5)-5-7----7-5-|
|--0------(0)-0-2--3-2-0-|------------------------|


  C5                       B5
   Q   Q   Q       Q        H     +E   E E  E  3x
|------------------------|---------------------||
|------------------------|--------------------o||
|-12--11---9------12-----|-11----(11)--9-8-11--||
|-----12--10-------------|------------10-9--7--||
|------------------------|--------------------o||
|------------------------|---------------------||
|
|             PM|    PM|
|  H      +E  S S  E S S    H     +E   E E  E  3x
|------------------------|---------------------||
|------------------------|--------------------o||
|------------------------|---------------------||
|--5------(5)------2-----|--4-----(4)----------||
|--3------(3)-3-5----5-3-|--2-----(2)--0------o||
|------------------------|---------------3--2--||



Duration Legend
---------------
W - whole; H - half; Q - quarter; E - 8th; S - 16th; T - 32nd; X - 64th; a - acciaccatura
+ - note tied to previous; . - note dotted; .. - note double dotted
Uncapitalized letters represent notes that are staccato (1/2 duration)
Irregular groupings are notated above the duration line
Duration letters will always appear directly above the note/fret number it represents the
duration for.  Duration letters with no fret number below them represent rests.  Multi-
bar rests are notated in the form Wxn, where n is the number of bars to rest for.  Low
melody durations appear below the staff

Tablature Legend
----------------
 h   - hammer-on
 p   - pull-off
 b   - bend
 pb  - pre-bend
 r   - bend release (if no number after the r, then release immediately)
 /\  - slide into or out of (from/to "nowhere")
 s   - legato slide
 S   - shift slide
 - natural harmonic
[n]  - artificial harmonic
n(n) - tapped harmonic
 ~   - vibrato
 tr  - trill
 T   - tap
 TP  - trem. picking
 PM  - palm muting
\n/  - tremolo bar dip; n = amount to dip
 \n  - tremolo bar down
 n/  - tremolo bar up
/n\  - tremolo bar inverted dip
 =   - hold bend; also acts as connecting device for hammers/pulls
 <> - volume swell (louder/softer)
 x   - on rhythm slash represents muted slash
 o   - on rhythm slash represents single note slash

Misc Legend
-----------
 |  - bar
||  - double bar
||o - repeat start
o|| - repeat end
*|  - double bar (ending)
 :  - bar (freetime)
 $  - Segno
 &  - Coda
Tempo markers -  = BPM(8/16=s8/s16), where s8 = swing 8ths, s16 = swing 16ths

comments
We did not receive enough feedback on this tab! Please rate:
print report bad tab
1 2 3 4 5
I want to post or [tab]
guest
You may want to rate the tab now too:
select rating
Please do not post tabs as comments. Select "correction" instead!