Oops, an error
Loading. Please wait.

50 50 Tab

ver4
ver4

Whole song

Interactive

More versions @911Tabs.com
1,566 views 3 this week
no commentswrite comment
1 2 3 4 5
accurate
x 1
Autoscroll
+/-
esc
set tempo
stop
Contributor
Hey! There's an official Ultimate Guitar app which is ideal
for learning songs when you're away from computer. Get the app
WARNING: You are trying to view
                                    content from Ultimate-Guitar.com
                                    in an unauthorized application,
                                    which is prohibited.

                                    Please use an official Ultimate
                                    Guitar Tabs application for iPhone,
                                    iPad or Android to access legitimate
                                    chords, guitar, bass, and drum tabs
                                    from Ultimate-Guitar.com database.

                                    Type "ultimate guitar tabs" in Apple
                                    App Store's or Android Market's
                                    search to find the application.
the strokes are finaly back

im not sure about the hammer on`s and pull off`s but you have to play real fast without em

INTRO

guitar1

  C#
 --9----------------------------|
 --9----------------------------|
 --10---------------------------|
 --11---------------------------|
 --11---------------------------|
 --9----------------------------|

guitar2

 -------------------------------------|
 -------------------------------------|
 -------------------------------------|
 ----------11--------9-11-9-----------|(...)
 -------------9(h)11---------11(p)9---|
 -(4/9)--9--------------------------9-|


 -------------------------------------|
 -------------------------------------|
 -------------------------------------|
 ---11------9-------------------------|(...)
 ------9h11---------------------------|
 -9-----------------------------------|



 VERSE

 guitar1

 --9------4-----------------------|
 --9------4-----------------------|
 --10-----5-----10b---------------|
 --11-----6-----------------------|
 --11-----6-----------------------|
 ---------------------------------|

 guitar2

 --------------------------------------------------|
 --------------------------------------------------|
 -----6--4-------6-6/8-6-----6-------4-6-4---------|
 ---------6-4------------------4(h)6-------6(p)4---|
 --------------4-----------------------------------|
 --4----------------------2------------------------|

Why's she telling me the story of her life?
All the things you wanna kill will give you spite
And if you've taken all the prisoners inside
As they're doling out their wisdom in the fire

I can take as long as without looking by
Why's she telling me the story of her life
And if you've taken all the prisoners inside
As they've thrown all their wisdom in the fire

 CHORUS

 guitar1
 ------------------------|
-------------------------|
-------------------------|
--6--11-9--14------------|
--6--11-9--14------------|
--4--9--7--12------------|

 guitar2
----------------------|
 ---------------------|
 ----6--4--9----------|
 -6--6--4--9----------|
 -6--4--2--7----------|
 -4-------------------|
I will say!
I will say don't judge me!
I will say!
I will say don't judge me!


 guitar1
-----------------------------|
-----------------------------|
-----------------------------|
--6--11--9--14---------------|
--6--11--9--14---------------|
--4--9---7--12---------------|

guitar2
-----------------------------|
-----------------------------|
---------6---9---------------|
--6--4---6---9---------------|
--6--4---4---7---------------|
--4--2-----------------------|
I wait on a darkened highway!

git1&2

-4---7---|
-4---7---|
-5---8---|
-6---9---|
-6---9---|
-4---7---|

ends with C#
comments
We did not receive enough feedback on this tab! Please rate:
print report bad tab
1 2 3 4 5
I want to post or [tab]
guest
You may want to rate the tab now too:
select rating
Please do not post tabs as comments. Select "correction" instead!