Oops, an error
Loading. Please wait.

Clear Skies Tab

6,883 views 3 this week
1 commentread comment
1 2 3 4 5
worth learning
x 6
Autoscroll
+/-
esc
set tempo
stop
Contributor
Difficulty
novice
WARNING: You are trying to view
                                    content from Ultimate-Guitar.com
                                    in an unauthorized application,
                                    which is prohibited.

                                    Please use an official Ultimate
                                    Guitar Tabs application for iPhone,
                                    iPad or Android to access legitimate
                                    chords, guitar, bass, and drum tabs
                                    from Ultimate-Guitar.com database.

                                    Type "ultimate guitar tabs" in Apple
                                    App Store's or Android Market's
                                    search to find the application.
this is only the intro but it is right so...





[------5--7-------]
[----7---7--7---5-]
[-----------------]
[-----------------]
[-----------------]
[-----------------]

[------5--7-------]
[----7---7--7---7-]
[-----------------]
[-----------------]
[-----------------]
[-----------------]

[-----5--7-------]
[----7---7--7----]
[----------------]
[----------------]
[----------------]
[----------------]

[--------------]
[-----8--7--7--]
[-----7--7--7--]
[-----------7--]
[--------------]
[--------------]




Knowing you
You wait for clear skies
To tell us how changes come about
With the sunlight
So we'll count every drop that falls
While you throw us some old line
This will pass
This will pa-ah-ah-ah-ah-ah-ah-as
And I'm spending the time
Wasting your time
You will, that's all you ever wanted
And I'm spending your time
Wasting your time
You will, that's all you ever 
comments
print report bad tab
1 comment total.
+1 reply
kerrang 182 wrote on December 5 2010, 02:21 pm

pretty much spot on, but i think the last note on the second riff may be 3 instead of 7, ie,

----5---7------
--7---7---7---3

I want to post or [tab]
guest
You may want to rate the tab now too:
select rating
Please do not post tabs as comments. Select "correction" instead!