Oops, an error
Loading. Please wait.

First Impressions Of Earth Bass Tab

5,284 views 6 this week
7 commentsread comments
1 2 3 4 5
not so good
x 6
Autoscroll
+/-
esc
set tempo
stop
Contributor
Hey! There's an official Ultimate Guitar app which is ideal
for learning songs when you're away from computer. Get the app
WARNING: You are trying to view
                                    content from Ultimate-Guitar.com
                                    in an unauthorized application,
                                    which is prohibited.

                                    Please use an official Ultimate
                                    Guitar Tabs application for iPhone,
                                    iPad or Android to access legitimate
                                    chords, guitar, bass, and drum tabs
                                    from Ultimate-Guitar.com database.

                                    Type "ultimate guitar tabs" in Apple
                                    App Store's or Android Market's
                                    search to find the application.
Album: First Impressions of Earth
Band: The Strokes
Bassist: Nikolai Fraiture
Tuning: Standard EADG
Tabbed by: Eau de Vie (formerly known as 1251wasthetime)

It has been a lot of work *phew* but you kids are worth it. Lots of thanks and Love to 
(note you might see some mistakes because english is not my mother language so sorry 
that)
AND FINALLY, PLEASE, IF YOU ARE GOING TO POST THIS WORKS ON ANOTHER SITE, PLEASE GIVE 
TO WHO PUT IT TOGETHER: ME BECAUSE THIS HAS ALREADY HAPPEND TO ME ONCE WHERE SOME PRICK 
THAT HE WOULD POST CLEAR SKIES ON BASSMASTA.NET AND PUT IT UNDER HIS NAME AS IF HE MADE IT.

Key:
T### = Tremolo pick
~ = Let a note ring
Stp### = Staccato Pick
/ = slide down (toward fret 20)
\ = slide up (toward fret 1)
h# = Hammer on
(But otherwise, unless these show up, then the picking pattern is Legato picking or 
standard, eighth/sixteenth-note Measure count, picking.)

____________________________________________________________________________

Track one: You Only Live once
Credit goes to: me

Intro:
E-------------------------------------------------2-2-2-2-2-2-2-2-|
A---------------------------------2-2-2-2-2-2-2-2-----------------|
D-2-2-2-2-2-2-2-2-2-2-2-2-2-2-2-2---------------------------------|
G-----------------------------------------------------------------|X2

Verse:
“Some People think They’re always right….”
E-------------------------------------------------2-2-2-2-2-2-2-2-|
A---------------------------------2-2-2-2-2-2-2-2-----------------|
D-2-2-2-2-2-2-2-2-2-2-2-2-2-2-2-2---------------------------------|
G-----------------------------------------------------------------|X4

Chorus and Guitar’s solo:
“Don’t, don’t, don’t, get out….” (Pick on ‘out’)
E------------------------------|
A-4--7------------2--6---------|
D-------6-4~-/----------4-2~---|
G------------------------------|X4

Interlude & Verse:X2

Chorus & Guitar’s Solo:X4

Outro:
“…Shut me up….”
E-----------------|
A-2~---2~---2~----|
D-----------------|
G-----------------|

End note:
E-----|
A-2~--|
D-----|
G-----|


________________________________________________________________________
Track two: Juicebox
Credit goes to: Mr. Kudos and the person who originally posted this tab on Mxtabs.net
(You’ll probably already know this song)
This song for bass, to get that Juicebox sound, might require some light distortion on your bass. :-)

Intro:
E-0-0-3-0------3-1-|
A----------1-0-----|
D------------------|
G------------------|X24

Verse:
“Everybody sees me….”
E-0-0-3-0------3-1-|
A----------1-0-----|
D------------------|
G------------------|X8

Verse 2:
“WHY WON’T YOU COME OVER HERE?....”
E-------------------------------|
A---------------1-1--0-1-1------|
D-2-2--0-2-2--0------------0-0--|
G-------------------------------|X4


Pre-Chorus:
“Old time grudges….”
E--------0-1-3----|
A-1--1-1--------0-|
D-----------------|
G-----------------|X4
                                             X2
“Will Die so slowly….”
E--------0-1-3---|
A-3--3-3-------0-|
D----------------|
G----------------|X4

Chorus
“You’re so cold, You’re….”
E-6-6-6-6-6-6-0-1/-5-5-5-5-5-5-0-1-3-3-3-3-3-3-0-0-1-1-1-1-1-1-1-1-|
D------------------------------------------------------------------|
A------------------------------------------------------------------|
G------------------------------------------------------------------|

Guitar’s solo:
E-0-0-3-0-----3-1-|
A---------1-0-----|
D-----------------|
G-----------------|X as many times as needed.

E---------------6-6--5-6-6------|
A-7-7--5-7-7--5------------5-5--|
D-------------------------------|
G-------------------------------|X4

Verse

Verse2

Pre-Chorus

Chorus & Chorus Double back:
E------------------------------------------------------------------------|
A-5--5-5-x-x-x-5--5-5-x-x-x-5--5-5-x-x-x-5--5-5-x-x-x-x-x----------------|
D------------------------------------------------------------------------|
G------------------------------------------------------------------------|
“Oh no no no no cold”
Repeat Twice more and End it.

____________________________________________________________________________

Track Three: Heart in a Cage
Credit goes to: Me

Intro:
E--------------------------3----|
A-T333333---3-1--T333333-1---1--|
D---------1---------------------|
G-------------------------------|X2

E------------------------------|
A------------------------------|
D-T666666666666-T333333333333--|
G------------------------------|

E--------------------------3----|
A-T333333---3-1--T333333-1---1--|
D---------1---------------------|
G-------------------------------|X6

Verse
“Well I don’t feel better ….”
E-------------------t44444444-----------|
A-t3333333333333333-----------t66666666-|
D---------------------------------------|
G---------------------------------------|X4

“Oh, The heart beats in it’s cage.”
(For this part, the notes are the same, just in a different note count)
E-----------t44444444-------------------|
A-t33333333-----------t6666666666666666-|
D---------------------------------------|
G---------------------------------------|

Bridge:
(play what is played for the intro)
When Nick plays his scale solo, here’s what you do:
E---------------------------3-----|
A-T333333---3-1*--T333333-1---1---|
D---------1-----------------------|
G---------------------------------|X1 and a half (called ‘1 and a half’ because you stop 
the * and hit A-3)

Crash part: (I’m not exactly sure what to call it)
E----------------------|
A-T333333333333-|
D---------------------|
G---------------------|

Verse

Interlude:
“All our friends, they’re laughin’ at us”
E------5~~--3~~--0h3~-0h3~-6-|
A-3~~------------------------|
D----------------------------|X4
G----------------------------|

Verse

Nick’s Scale Solo:
(play the intro twice…then hit A-3)

The Crash Part! YEs!

Ending:
“No, The Heart beats in it’s cage.”
E----4~-----|
A-3~----6~--|
D-----------|
G-----------|

____________________________________________________________________________

Track Four : Razorblade
Credit goes to : Me
Note: On the verse parts, the bass is very soft sounding

Intro:

E-5-5-5-5-5-5-5-5-2-2-2-2-2-2-2-2---------------------------------|
A---------------------------------2-2-2-2-2-2-2-2-2-2-2-2-2-2-2-2-|
D-----------------------------------------------------------------|
G-----------------------------------------------------------------|

E--------------------------------------------|
A-5--5-5--5-5--5-5-5-5--2--2-2--2-2--2-2-2-2-|
D--------------------------------------------|
G--------------------------------------------|

Verse:
“Oh the razorblade, that’s what….”
E-5-7---5------------7--9---7--------9-10---9------------10-12---10-------|
A-----4---4-5-5/7-4-------5---------------7------12-11-9-------9----------|
D------------------------------stp9-----------11--------------------12~~--|
G-------------------------------------------------------------------------|
(I sympathize wich y’all coz both of these parts are hard to follow, you’ll have to really listen)
E-9-10---9---------|
A------7-----------|
D----------9-7-6\--|
G------------------|

“Anything to Forget everything”
E--------------------------------------------|
A-7--7-7--7-7--7-7-7-7--5--5-5--5-5--5-5-5-5-|
D--------------------------------------------|
G--------------------------------------------|

Repeat

Chorus (which is just the intro)X4
and then…,this.
E-------------------------------------------------|
A-5--5-5--5-5--5-5-5-5--2--2-2--2-2--2-2-2-2--0~~-|
D-------------------------------------------------|
G-------------------------------------------------|

Verse
After the first “anything to forget everything”
play
“He would never talk…”
E-5-5-5-5-5-5-5-5-7-7-7-7-7-7-7-7-----------------|
A---------------------------------4-4-4-4-4-4-4-4-|
D-------------------------------------------------|
G-------------------------------------------------|

E---------------------------------|
A-5-5-5-5-5-5-5-5-4-4-4-4-4-4-4-4-|
D---------------------------------|
G---------------------------------|

“Say it now coz in yo’ heart it’s not. Oh no.”

Chorus

Guitar’s solo (which is the chorus again)

Last Chorus

Ending:
“No, Don’t, Okay.”
E-----------------------|
A-5~~--2~~--0~~---------|
D-----------------------|
G-----------------------|

____________________________________________________________________________


Track Five: On The Other side
Credit goes to : The person who originally posted this tab on Mxtabs.net

Intro:
E---3---3---3----3----3---3---3----3--|
A-5---5---5--5------5---5---5--5------|
D-------------------------------------|
G-------------------------------------|\
                                        X4
E-------------------------------------|/
A---6---6---6----6----6---6---6-----6-|
D-8---8---8--8------8---8---8---8-----|
G-------------------------------------|

E----------------------|
A---6---6----8----8----|
D-8---8---10--10-------|
G----------------------|

Verse
“I’m tired, of everyone…”
E----------------------------------------------|
A--------------------------------8---8---8---8-|
D-8--8-8-8--8-8-8--8-8-8--8-8--8---8---8---8---|
G----------------------------------------------|\
                                                 X4
E----------------------------------------------|/
A--------------------------------6---6---6---6-|
D-6--6-6-6--6-6-6--6-6-6--6-6--6---6---6---6---|
G----------------------------------------------|

The fourth time playing, the bass and everything stops abruptly before entering the Chorus.

Chorus
“On The other side…”
E-6-6-6-6-6-5-6-5-8-8-8-8-8-5-6-8-----------------------------|
A---------------------------------6-6-6-6-6-6-----------------|
D---------------------------------------------5-7-8--8--8--7\-|
G-------------------------------------------------------------|

“Nobody’s Waitin’ for me…”
E-6-6-6-6-6-5-6-5-3-3-3-3-3-0-1-3------------------------6--|
A---------------------------------6-6-6-6-6-6-------8--5----|
D---------------------------------------------5-7-8---------|
G-----------------------------------------------------------|

Intro

Verse

Chorus

Interlude
(For a while the bass doesn’t play but then does come in with the intro again)

Verse

ChorusX2 (you stop in the middle of the chorus two to play the ending)

Ending:
E---------------------|
A-6--T666--3-3-3--1~~-|
D---------------------|
G---------------------|

____________________________________________________________________________

Track Six : Vision of Division
Credit goes to : ME

Intro:
E---5-----5-----5--------5--------|
A-7---5-7---5-7---5-7--5----------|
D---------------------------------|
G---------------------------------|X3

E---------------------------------------|
A-t77777777777777-----------------------|
D-----------------t555555555/t999999999-|
G---------------------------------------|X2

E---------------------------------------|
A-t77777777777777-----------------------|
D-----------------t555555555-t888888888-|
G---------------------------------------|X2

E-------------t888888888-|
A-t6666666666------------|
D------------------------|
G------------------------|

Verse:
"tell me a song..."
E---------------------------------------|
A-t77777777777777-----------------------|
D-----------------t555555555/t999999999-|
G---------------------------------------|X2

"Don't turn it my way..."
E----------------------------------------|
A-tp77777777777777-----------------------|
D------------------t555555555-t888888888-|
G----------------------------------------|X2

"oooooh noooo"
E-------------t888888888-|
A-t6666666666------------|
D------------------------|
G------------------------|

Bass fill
E---------------------------------------|
A-t77777777777777-----------------------|
D-----------------t555555555/t999999999-|
G---------------------------------------|

Verse, Part two
"All that i do..."
(In this measure, those questionable characters are tens.)
E-----------------------------t88888888-t1010101010101010-|
A-t99999999-t1010101010101010-----------------------------|
D---------------------------------------------------------|
G---------------------------------------------------------|X2

Pre-Chorus:
"I can't get along..."
E-----------------8-8-8-8-8-8-8-8-7-7-7-7-7-7-7-7-7-7-7-7-7-|
A-7-7-7-7-7-7-7-7-------------------------------------------|
D-----------------------------------------------------------|
G-----------------------------------------------------------|
                                                             X2
E-8-8-8-8-8-8-8-8-5-5-5-5-5-5-5-5-5-------------------------------|
A-----------------------------------5-5-5-5-5-5-5-5-5-5-5-5-5-5-5-|
D-----------------------------------------------------------------|
G-----------------------------------------------------------------|

Chorus:
"How long must i wait...?"
E---------------------------------------|
A-t77777777777777-----------------------|
D-----------------t555555555/t999999999-|
G---------------------------------------|X2

E---------------------------------------|
A-t77777777777777-----------------------|
D-----------------t555555555-t888888888-|
G---------------------------------------|X2

E-------------t888888888-|
A-t6666666666------------|
D------------------------|
G------------------------|

Guitar's Solo:
E-----------------------------------------------|
A-7-7-7-7-7-7-7-7-7-7-7-7-7-7-7-7-7-7-7-7-7-7-7-|
D-----------------------------------------------|
G-----------------------------------------------|

E---5------5------5-------5-|
A-7---5-7----5-7---5-7--5---|
D---------------------------|
G---------------------------|X6

Interlude to verse
(The verse)

Verse

Verse two

Pre-Chorus

Chorus

End of song. X4
(Which is the First Bass part of this song)

Endnote
E------|
A-7~~--|
D------|
G------|

____________________________________________________________________________

Track Eight: Electricityscape
Credit Goes to: me

Verse one
“Oh with strangers to impress…”
E---------------------t2222222222222222-|
A---------------------------------------|
D-t22222222-t11111111-------------------|
G---------------------------------------|X4


Verse two
“Take me to the water…”
E-----------------2-2-2-2-2-2-2-2-----------------0-0-0-0-0-0-0-0-|
A-2-2-2-2-2-2-2-2-----------------4-4-4-4-4-4-4-4-----------------|
D-----------------------------------------------------------------|
G-----------------------------------------------------------------|

“…I was wrong.”
E-----------------2-2-2-2-2-2-2-2-|
A-2-2-2-2-2-2-2-2-----------------|
D---------------------------------|
G---------------------------------|

Verse one X2

Verse two

Chorus (for this part, you may need that soft bass sound again that we had used in razor blade)
“Change your mind…”
E-----------------------------------------t22222222-|
A---------------------t44444444-t22222222-----------|
D-----------t22222222-------------------------------|
G-t11111111-----------------------------------------|X2

Guitar’s Solo
E---------------------------------2-2-2-2-2-2-2-2-2-2-2-2-2-2-2-2-|
A-2-2-2-2-2-2-2-2-2-2-2-2-2-2-2-2---------------------------------|
D-----------------------------------------------------------------|X2
G-----------------------------------------------------------------|

E------------------------------2-2-2-2-2-2-2-2-2-|
A------2-2-2-2-2-2-2-2-2-------------------------|
D-------------------------4-4--------------------|
G-4-4--------------------------------------------|X2

Verse one

Verse two

Chorus

Verse two

Guitar’s Solo

The End

____________________________________________________________________________

Track nine: Killing Lies
Credit goes to: me
(For this song, to achieve that album, killing lies sound, use the same soft sound that 
have been using for Razorblade and Electricityscape)

Verse
“Say your prayer…”
E----------------------------------------------------|
A-9-9-8-9-9-9---9------------------------------------|
D-------------8---9-9-8-9-9-9---9---9-9-8-9-9-9---9--|
G-----------------------------8-----------------8----|
                                                           X2
E------------------------------------------------------|
A-8-8-6-8-8-8---8---9-9-8-9-9-9---9---9-9-8-9-9-9---9--|
D-------------6-----------------8-----------------8----|
G------------------------------------------------------|

Pre-Chorus
“We might get some…”
E------------------------------------------------------|
A------------------------------------------------------|
D-8-8-6-8-8-8---8---9-9-8-9-9-9---9---9-9-8-9-9-9---9--|
G-------------6-----------------8-----------------8----|
                                                         X2
E------------------------------------------------------|
A-8-8-6-8-8-8---8---9-9-8-9-9-9---9---9-9-8-9-9-9---9--|
D-------------6-----------------8-----------------8----|
G------------------------------------------------------|

Chorus
“Killing lies…”
E----------------------------------------------------|
A-9-9-8-9-9-9---9------------------------------------|
D-------------8---9-9-8-9-9-9---9---9-9-8-9-9-9---9--|
G-----------------------------8-----------------8----|
                                                       X2
E-------------------------------------------------------|
A-8-8-6-8-8-8---8---9-9-8-9-9-9---9---9-9-8-9-9-9---9---|
D-------------6-----------------8-----------------8-----|
G-------------------------------------------------------|


Guitar’s Solo
E------------------------------------------------------|
A------------------------------------------------------|
D-8-8-6-8-8-8---8---9-9-8-9-9-9---9---9-9-8-9-9-9---9--|
G-------------6-----------------8-----------------8----|
                                                         X2
E------------------------------------------------------|
A-8-8-6-8-8-8---8---9-9-8-9-9-9---9---9-9-8-9-9-9---9--|
D-------------6-----------------8-----------------8----|
G------------------------------------------------------|

Verse

Pre-Chorus

Chorus

Guitar’s Solo

Ending
E----------------|
A-9--9--9-9\-----|
D----------------|
G----------------|

____________________________________________________________________________

Track Ten: Fear Of Sleep
Credit Goes to: me

Verse:
“How did anybody find out…”
E---------------------------------4-4-4-4-4-4-4-4-4-4-4-4-4-4-4-4-|
A-6-6-6-6-6-6-6-6-6-6-6-6-6-6-6-6---------------------------------|
D-----------------------------------------------------------------|
G-----------------------------------------------------------------|
“How did anybody find that out?”
E---------------------------------6-6-6-6-6-6-6-6-6-6-6-6-6-6-6-6-|
A-6-6-6-6-6-6-6-6-6-6-6-6-6-6-6-6---------------------------------|
D-----------------------------------------------------------------|
G-----------------------------------------------------------------|

Repeat Measure one

“…Get my fur.”
E---------------------------------6-6-6-6-6-6-6-6-\-1~~-|
A-6-6-6-6-6-6-6-6-6-6-6-6-6-6-6-6-----------------------|
D-------------------------------------------------------|
G-------------------------------------------------------|

Pre-Chorus:
“Fear of sleep…”
E-4-6-----6~-|
A-----8-6----|X2
D------------|
G------------|

E-----------8~-|
A-6-8----------|
D-----10-8-----|
G--------------|X2

E-----------6----|
A------10-8---6~-|
D-10-8-----------|X2
G----------------|

E-----------------8~--8~----6~----8~--8~----6--------------------|
A-------------------6~--6~----6~----6~--6~-----------------------|
D-6-6-6-6-6-6-6-6------------------------------5-8-8-8-8-8-8-8-8-|
G----------------------------------------------------------------|

E-------------------------8-8-6-6-|
A-------------8-8-6-6-5-5---------|
D-8-8-6-6-5-5---------------------|
G---------------------------------|

“Fall asleep!...”
E-------------------------------6-6-6-6-6-6-6-6-6-6-6-6-6-6-6-6-|
A-6-6-6-6-6-6-6-6-6-6-6-6-6-6-6---------------------------------|
D---------------------------------------------------------------|
G---------------------------------------------------------------|

Chorus:
“You’re no fun…”
E-4-4-4-4-4-4-4-4-----------------8-8-8-8-8-8-8-8-6-6-6-6-6-6-6-6-|
A-----------------6-6-6-6-6-6-6-6---------------------------------|
D-----------------------------------------------------------------|riff 1
G-----------------------------------------------------------------|

E-4-4-4-4-4-4-4-4--------------------------------------------------|
A-----------------6-6-6-6-6-6-6-6-----------------6-6-6-6-6-6-6-6--|
D---------------------------------6-6-6-6-6-6-6-6------------------|riff 2
G------------------------------------------------------------------|

E-8-8-8-8-8-8-8-8-6-6-6-6-6-6-6-6-4-4-4-4-4-4-4-4-----------------|
A-------------------------------------------------6-6-6-6-6-6-6-6-|
D-----------------------------------------------------------------|riff 3
G-----------------------------------------------------------------|

Verse

Pre-Chorus

Chorus
riffs 1-3
E---------------------------------8-8-8-8-8-8-8-8-6-6-6-6-6-6-6-6-|
A-----------------6-6-6-6-6-6-6-6---------------------------------|
D-6-6-6-6-6-6-6-6-------------------------------------------------|riff 4
G-----------------------------------------------------------------|

Endin’
E-Stp4-Stp4-Stp4-Stp4-Stp4-Stp4-------|
A---------------------------------6~~-|
D-------------------------------------|
G-------------------------------------|

____________________________________________________________________________

Track Eleven: 15 Minutes
Credit goes to: me

Intro
E----5~--------|
A-5~----5~-----|
D----------7~--|
G--------------|

Verse:
“It was all just a dream…”     “…was it real?..”.
E------7-\-3------------|---------------------|-----5~----5~--|
A-5~---------4~---4~----|-----------5---------|--5~----5~-----|riff1
D----7~---------7~---7~-|--5~-4-2------5-4-2--|---------------|
G-----------------------|---------------------|---------------|X2
(hit the first note for the second measure on ‘real?’ and then the following notes will 
on ‘It-was-real.’.)

‘Everybody’s so inviting...’
E---------------------------------------|
A-7--7-7-7-7--7-7-7-7--7-7-7-7--7-7-7-7-|
----------------------------------------|
D---------------------------------------|
G---------------------------------------|
                                           riff2
E-5--5-5-5-5--5-5-5-5--5-5-5-5--5-5-5-5--|
A----------------------------------------|
D----------------------------------------|
G----------------------------------------|

riff1 X2

(at the end of the solo, play along with the guitar)
E-----------------------------|
A---------7-5-5-5-5-5-5-5-5-5-|
D-5-5-4-4---------------------|
G-----------------------------|

New Verse
‘Can i go ? can i play ? can i watch ?...’
E-----------------------------------------------------------------|
A-----------------7-7-7-7-7-7-7-7-5-5-5-5-5-5-5-5-5-5-5-5-5-5-5-5-|
D-5-5-5-5-5-5-5-5-------------------------------------------------|
G-----------------------------------------------------------------|
                                                                   riff 3
E---------------------------------3-3-3-3-3-3-3-3-3-3-3-3-3-3-3-3-|
A-8-8-8-8-8-8-8-8-3-3-3-3-3-3-3-3---------------------------------|
D-----------------------------------------------------------------|
G-----------------------------------------------------------------|X2

‘Everybody at the Party...’
E-----------------------------------------------------------------|
A-----------------------------------5-5-5-5-5-5-5-5-5-5-5-5-5-5-5-|
D-7-7-7-7-7-7-7-7-7-7-7-7-7-7-7-7-7-------------------------------|riff 4
G-----------------------------------------------------------------|X3

riff 3 X2

Outro
E-3(16)-----------6(16)-------4(16)------2(16)------------5(16)--------|
A------3(16)------------6(16)-------4(16)-----2(16)-------------5(16)--|
D------------3(16)----------------------------------2(16)--------------|
G----------------------------------------------------------------------|

‘Twelve major chords’
E-3-3-3-3-3-3-3-3-3-3-3-3-3-3-3-3-3-3-3-3-3-3-3-3-3-3-3-3-3-3-3-3-3-3-3~-|
A------------------------------------------------------------------------|
D------------------------------------------------------------------------|
G------------------------------------------------------------------------|

____________________________________________________________________________

Track Twelve : Ize of the World
Credit goes to : me

Intro :
E---4-------5-0-3------|   Just play this...
A-4---2---6-------3--2-|
D-------2--------------|
G----------------------|
                        X2
E---4-------5-0-3------|
A-4---2---6-------4--2-|  ...then this...
D-------2--------------|
G----------------------|
                                               ...Twice.
Verse
‘I think i know what you mean,...’
E---9--------------|---7--------|
A-7---9/11-9--7-\6-|-6---6-7--6-|
D------------------|------------|
G------------------|------------|
                                    X4
E---9--------------|---7-----------|
A-7---9/11-9--7-\6-|-6---6---------|
D------------------|-------6--9-6--|
G------------------|---------------|

Pre-Chorus
‘You’re sad but you smile...’
E-t22222222-t44444444-t55555555-t00000000-|
A-----------------------------------------|
D-----------------------------------------|
G-----------------------------------------|

‘your eyes don’t change...’
E-t22222222-t44444444-t5555555555555555-|
A---------------------------------------|
D---------------------------------------|
G---------------------------------------|

Chorus
"An egg to fertilIZE..."
E-t0000000000000000-12\t4444444444444444-|
A----------------------------------------|
D----------------------------------------|
G----------------------------------------|1st and 3rd time

E-t0000000000000000-12\t44444444-4---4---4------|
A----------------------------------2---2---2----|
D-----------------------------------------------|
G-----------------------------------------------|2nd and 4th time

Keep doing the same raff as above just no more slides from 12, no tremolo picking and no 
parts that are like 2nd and 4th.

Then after you do that as instructed for 2 measures go back to tremolo picking until the solo.

Guitar’s solo
E-----------t22222222-----------t00000000-|
A-t44444444-----------t22222222-----------|
D-----------------------------------------|X4
G-----------------------------------------|

E---------------------------|
A-t4444-------t2222---------|
D-------t4444-------t22-t11-|
G---------------------------|

E-----------------------|
A-t4444-------t2222-----|
D-------t4444-------2~~-|
G-----------------------|

Verse

Pre-Chorus

Chorus

"Enemies to Neutralize.."
E-------------------------------------|
A-t7777777777777777-------------------|
D-------------------t6666666666666666-|
G-------------------------------------|
Do this riff until the end of the song.

____________________________________________________________________________

Track Thirteen: Evening Sun
Credit Goes to: Me

This song i'm not so sure that it is as correct like the others
There seems to be no bass in the first verse and chorus

2nd verse
"Encouraged and deranged you..."
E-----------------------------------------------------------|
A---------------------------------2-2-2-2-2-2-2-2-----------|
D-2-2-2-2-2-2-2-2-4-4-4-4-4-4-4-4-----------------6-6-4-4-2-|X2
G-----------------------------------------------------------|

2nd Chorus
"In the evening "
For this riff to work, the notes haf to ring out together.
E-----------------------------------------------------------------|
A-----------------------------------------------------------------|
D-6-6-6-6-6-6-6-6-4-4-4-4-4-4-4-4-----7-----7---7-----6-----6---6-|
G---------------------------------6-6---6-6---6---4-4---4-4---4---|

"sun."
E---------------------------------|
A---------------------------------|
D-7-7-7-7-7-7-7-7-7-7-7-7-7-7-7-7-|
G---------------------------------|

"In the eveing"
E-----------------------------------------------------------------|
A-----------------------------------------------------6-----6---6-|
D-4-4-4-4-4-4-4-4-2-2-2-2-2-2-2-2-----2-----2---2-4-4---4-4---4---|
G---------------------------------1-1---1-1---1-------------------|

"Sun."
E---------------------------------|
A-7-7-7-7-7-7-7-7-7-7-7-7-7-7-7-7-|
D---------------------------------|
G---------------------------------|

Bridge
"Go your seprete way now."
E-----------------------------------------------------------------|
A-------------------------------------------------2-2-2-2-2-2-2-2-|
D-2-2-2-2-2-2-2-2-2-2-2-2-2-2-2-2-0-0-0-0-0-0-0-0-----------------|
G-----------------------------------------------------------------|X4

VerseX3

Chorus

Play the second half of the chorus again as an outro

End note:
E-----|
A-----|
D-2~~-|
G-----|

____________________________________________________________________________

Track Fourteen: Red Light
Credit Goes to: me

Verse:
(Pick every note along with every syllable of the lyrics for this part)
"Two can be complete..."
E------------------------------|
A-2--2-2--2-2--2-2--2-2-2-2--2-|
D------------------------------|X2
G------------------------------|

"Do it for the people..."
E-----------------|
A-----------------|
D-1--2--1-2-1-2-1-|
G-----------------|X3

E--------------|
A--------------|
D-2--1-2-4---4-|
G----------1---|

Pre-chorus:
"How to make your way..."
E-------------------------------------------tp222222222-|
A----------------------------4--2-4-2-4-2-1-------------|
D-4--2-4-2-4-2--2--1-2-1-2-1----------------------------|
G-------------------------------------------------------|

chorus:
"Well let's say you made a deal..."
E-----------------------------------------------------|
A------------------------------tp22222222222222222222-|X3
D-tp444444444444-tp22222222222------------------------|
G-----------------------------------------------------|

Bridge:
"all the girls..."
E-2-4------------------------------------------------|
A-----1--2-4-------------------4-2-1-4---------------|
D------------1-2--4--2--4--2-1-----------------4-2-1-|
G--------------------------------------4--3--1-------|
(On the album, i thought that this was right but then i saw a live show and Nikolai 
plays the Scalish part an octave higher, still the right notes though, so they'll stay the 
just know that it's an octave higher.)

Verse 2:

Pre-chorus:

chorus:

Bridge:

Interlude Part one
"I was waitin'..."
(this part is so high that is sounds like guitar but it's actually Nikolai playing this part)
E--------------------------------------------------------------|
A--------------------------------------------------------------|
D-------------------------------------------------------4--2-1-|
G-16-15-13-11-9-8--16-15-13-11-9-8--9-8-6--4-3-1--4-3-1--------|

"Right by my side."
E-------------------------------------------------------|
A-9-11--------------------------------------------9-7-6-|
D------8--9-11-----------------11-9-8-11--9--8--6-------|
G--------------8-9-11-9-11-9-8--------------------------|

Interlude Part two:
"Oh please, leave me alone..."
E---------------------------------------|
A---------------------------------------|
D-tp1111111111111111-tp2222222222222222-|
G---------------------------------------|
(1111's are ones)

"Forget the past"
E---------------------------------------|
A---------------------------------------|
D-tp1111111111111111-tp4444444444444444-|
G---------------------------------------|

Verse

Pre-chorus:

chorus:
Enter in at "Hate your friends new friends..."
E-----------------------------------------------------|
A------------------------------tp22222222222222222222-|X2
D-tp444444444444-tp22222222222------------------------|
G-----------------------------------------------------|

Ending:
"The sky is not the limit..."
E-2-4--------------------------------------------------|
A-----1--2-4-------------------4-2-1-4-----------------|
D------------1-2--4--2--4--2-1-------------------4-2-1-|
G---------------------------------------4--3--1--------|

Ending Note:
E-----|
A-pm2-|
D-----|
G-----|

And there it is, the happy little song.

It has been very fun but now we're finished. hoped you enjoyed this, took a couple of 
and alot of listening to make, but this is the real deal and now me AND you know the album.
comments
print report bad tab
7 comments total. Showing first comments.
0 reply
sotoonfire wrote on January 13 2007, 01:08 pm

why would any of this be tremolo or staticco?

0 reply
intention_craft wrote on January 27 2007, 07:27 am

the thing u said about anyone nicking ur tab, why would anyone copy it and claim it was theirs? i would be ashamed of this tab, its awful!

+1 reply
chrisjenks wrote on August 7 2008, 12:00 pm

it's all tabbed upside down

I want to post or [tab]
guest
You may want to rate the tab now too:
select rating
Please do not post tabs as comments. Select "correction" instead!