Oops, an error
Loading. Please wait.

Is This It Bass Tab

ver1
ver1

Album

Whole song

More versions @911Tabs.com
8,497 views 6 this week
5 commentsread comments
1 2 3 4 5
poor
x 6
Autoscroll
+/-
esc
set tempo
stop
Contributor
Hey! There's an official Ultimate Guitar app which is ideal
for learning songs when you're away from computer. Get the app
WARNING: You are trying to view
                                    content from Ultimate-Guitar.com
                                    in an unauthorized application,
                                    which is prohibited.

                                    Please use an official Ultimate
                                    Guitar Tabs application for iPhone,
                                    iPad or Android to access legitimate
                                    chords, guitar, bass, and drum tabs
                                    from Ultimate-Guitar.com database.

                                    Type "ultimate guitar tabs" in Apple
                                    App Store's or Android Market's
                                    search to find the application.
StrOkEs
Is ThiS It
baSS

1. Is This It
Intro
G:---------------------- |
D:---------------------- |
A:-7-7-7-7-7-7-7-7------ |       x6
E:---------------------- |


Verse
G:----------------|-----------------|----------------|---------------|
D:----------------|-----------------|----------------|---------------|
A:-7-7-7-7-7-7-7-7|-0-0-0-0-0-0-0-0-|-9-9-9-9-9-9-9-9|-2-2-2-2-2-2-2-|   x4
E:----------------|-----------------|----------------|---------------|

Bridge
G:-----------------|-----------------|----------------|---------------|
D:-----------------|-----------------|----------------|---------------|
A:-3-3-3-3-3-3-3-3-|-3-3-3-3-3-3-3-3-|7-7-7-7-7-7-7-7-|7-7-7-7-7-7-7-7|   x4
E:-----------------|-----------------|----------------|---------------|

Instrumental
G:----------------------|--------------------|
D:----------------------|--------------------|
A:----------------------|-4--4-4--2--2-2-----|       x4
E:-0-0-0-0-0-0-0-0------|--------------------|

Verse
G:----------------|-----------------|----------------|---------------|
D:----------------|-----------------|----------------|---------------|
A:-7-7-7-7-7-7-7-7|-0-0-0-0-0-0-0-0-|-9-9-9-9-9-9-9-9|-2-2-2-2-2-2-2-|   x4
E:----------------|-----------------|----------------|---------------|

Instrumental
G:----------------------|--------------------|
D:----------------------|--------------------|
A:----------------------|-4--4-4--2--2-2-----|       x4
E:-0-0-0-0-0-0-0-0------|--------------------|

Bridge
G:-----------------|-----------------|----------------|---------------|
D:-----------------|-----------------|----------------|---------------|
A:-3-3-3-3-3-3-3-3-|-3-3-3-3-3-3-3-3-|7-7-7-7-7-7-7-7-|7-7-7-7-7-7-7-7|   x4
E:-----------------|-----------------|----------------|---------------|

Verse
G:----------------|-----------------|----------------|---------------|
D:----------------|-----------------|----------------|---------------|
A:-7-7-7-7-7-7-7-7|-0-0-0-0-0-0-0-0-|-9-9-9-9-9-9-9-9|-2-2-2-2-2-2-2-|   x4
E:----------------|-----------------|----------------|---------------|

Instrumental
G:----------------------|--------------------|
D:----------------------|--------------------|
A:----------------------|-4--4-4--2--2-2---- |       x4
E:-0-0-0-0-0-0-0-0------|--------------------|


Outro
G:---------------------|---------------|
D:---------------------|---------------|
A:-7-7-7-7-7-7-7-7---- |-7-7-7-7-7-----|
E:---------------------|---------------|


2.The Modern Age
Bass starts:13
Verse
G|-----------------------------------------------------------------|
D|-----------------------------------------------------------------|
A|5555555555555555555555555555555----------------------------------| x5
E|-------------------------------33333333333333333333333333333333--|
  Play D 32 times                Play G 32 times

1:22
Chorus
G|----------------------------------------------------------------|
D|4-4-4-4-4-4-4-4-4-4-4-4-4-4-4-4-2-2-2-2-2-2-2-2-2-2-2-2-2-2-2-2-|
A|----------------------------------------------------------------|
E|----------------------------------------------------------------|

G|----------------------------------------------------------------|
D|4-4-4-4-4-4-4-4-4-4-4-4-4-4-4-4---------------------------------|
A|----------------------------------------------------------------| x2
E|--------------------------------5-5-5-5-5-5-5-5-5-5-5-5-5-5-5-5-|

During Guitar Solo: 1:48
G|----------------------------------------------------------------|
D|----------------------------------------------------------------|
A|5555555555555555555555555555555---------------------------------|
E|-------------------------------33333333333333333333333333333333-|
  Play D 64 times                Play G 64 times

2:14
G|-----------------------------------------------------------------|
D|-----------------------------------------------------------------|
A|5555555555555555555555555555555----------------------------------| x3
E|-------------------------------33333333333333333333333333333333--|
  Play D 32 times                Play G 32 times

Chorus 2:57
G|----------------------------------------------------------------|
D|4-4-4-4-4-4-4-4-4-4-4-4-4-4-4-4-2-2-2-2-2-2-2-2-2-2-2-2-2-2-2-2-|
A|----------------------------------------------------------------|
E|----------------------------------------------------------------|

G|----------------------------------------------------------------|
D|4-4-4-4-4-4-4-4-4-4-4-4-4-4-4-4---------------------------------|
A|----------------------------------------------------------------| x2
E|--------------------------------5-5-5-5-5-5-5-5-5-5-5-5-5-5-5-5-|
End on  an A and slide upwards

3. Soma
Intro
G|----------------------------------------------------------------|
D|-5--5--5--5-----5-5-5-5-5-5-5-5-5-5-5-5-3-3-3-3-3-3-3-3-3-3-3-3-|
A|----------------------------------------------------------------| X1
E|----------------------------------------------------------------|

Verse
G|-------------------------------------------------|
D|-5-5-5-5-5-5-5-5-5-5-5-5-3-3-3-3-3-3-3-3-3-3-3-3-|
A|-------------------------------------------------| X3
E|-------------------------------------------------|

Chorus 1x
G|--------------------------------------------------------------|
D|-rest--5---------------------------------5-5-5-5-5-5-5-5-5-5--|
A|--------5-5-5-5-5-5-5-5-5-5-5-5-5-5-5-5-5---------------------|
E|--------------------------------------------------------------|

G|-------------------------------------------------------|
D|-5-5-5-5-5-5-5----------------------------------3---5--|
A|--------------5-5-5-5-5-5-5-5-5-5-5-5-5-5-5-5-5---5----|
E|-------------------------------------------------------|

Interlude
G|---------------------------|
D|--5--5---9--7---5--5--5-5--|
A|---------------------------| X1
E|---------------------------|

Verse
G|-------------------------------------------------|
D|-5-5-5-5-5-5-5-5-5-5-5-5-3-3-3-3-3-3-3-3-3-3-3-3-|
A|-------------------------------------------------| X4
E|-------------------------------------------------|

Chorus X2
G|--------------------------------------------------------------|
D|-rest--5---------------------------------5-5-5-5-5-5-5-5-5-5--|
A|--------5-5-5-5-5-5-5-5-5-5-5-5-5-5-5-5-5---------------------|
E|--------------------------------------------------------------|

G|-------------------------------------------------------|
D|-5-5-5-5-5-5-5----------------------------------3---5--|
A|--------------5-5-5-5-5-5-5-5-5-5-5-5-5-5-5-5-5---5----|
E|-------------------------------------------------------|

Ends E|-5-5-5

4.Barely Legal
Verse 1: x24

G -------------------------------------------------------------------|
D -------------------------------------------------------------------|
A --------------3-3-3-3-3--------------------------------------------|
E ---3-3-3-3-3-------------------------------------------------------|

Pre-Chorus: "I just want to turn you down..." x2

G -------------------------------------------------------------------|
D ---0--0----------------------2--2----------------------------------|
A ----------2--2--0--0--2--2--------2--2--0--0--2--2-----------------|
E -------------------------------------------------------------------|

Rest: After "Nothing"

Chorus: And all together it went well..." x4

G -------------------------------------------------------------------|
D -------------------------------------------------------------------|
A -----------------------3-3-3-3-3-3-3-3-3-3-------------------------|
E ---3-3-3-3-3-3-3-3-3-3---------------------------------------------|

Rest: Short rest into Verse 2

Verse 2: x12

G -------------------------------------------------------------------|
D -------------------------------------------------------------------|
A --------------3-3-3-3-3--------------------------------------------|
E ----3-3-3-3-3------------------------------------------------------|

Pre-Chorus 2: "I just wanna mis-a-behave..." x2

G -------------------------------------------------------------------|
D ----0--0------------------0--0-------------------------------------|
A ---------2--2--0--0--2--2------2--2--0--0--2--2--------------------|
E -------------------------------------------------------------------|

Rest: Short rest into Chorus 2

Chorus 2: x4 into Outro

G -------------------------------------------------------------------|
D -------------------------------------------------------------------|
A ------------------------3-3-3-3-3-3-3-3-3-3------------------------|
E ----3-3-3-3-3-3-3-3-3-3--------------------------------------------|


5. Someday
come in on second time

verse
|-------------------------------------|
|-------------------------------------|
|-------------------------------------|    x5
|-5-5--7-7--10-10--5-5----------------|

chorus
|-------------------------------------|
|-------------------------------------|
|----7-4----9-7-55555555--------------|    x4
|-5------2--------------55555555------|

bridge
|-------------------------------------|
|-------------------------------------|
|-------------------------------------|    x4
|-00000000----------------------------|

verse
|-------------------------------------|
|-------------------------------------|
|-------------------------------------|    x5
|-5-5--7-7--10-10--5-5----------------|

chorus
|-------------------------------------|
|-------------------------------------|
|----7-4----9-7-55555555--------------|    x4
|-5------2--------------55555555------|

bridge
|-------------------------------------|
|-------------------------------------|
|-------------------------------------|    x4
|-00000000----------------------------|

6.Alone Together
G|----------------------------|
D|----------------------5-7---|
A|--------7-7-------7-7-------| X2
E|---5-5-------5-5------------|

G|----------------------------|
D|----------------------------|
A|-88-8-8-----------55-5-5----| X1
E|---------88-8-8-------------|

G|----------------------------|
D|----------------------5-7---|
A|--------7-7-------7-7-------| X1
E|---5-5-------5-5------------|

G|----------------------------|
D|----------------------------|
A|-88-8-8-----------55-5-5----| X1
E|---------88-8-8-------------|

G|----------------------------|
D|----------------------5-7---|
A|--------7-7-------7-7-------| X2
E|---5-5-------5-5------------|

G|---------------------------------------------------|
D|-55-5-5--------------------------------------------|
A|---------88-8-8-------------------55-5-5-5-55-5-5--| X1
E|-----------------88-8-8-8-88-8-8-------------------|

G|----------------------------|
D|----------------------5-7---|
A|--------7-7-------7-7-------| X2
E|---5-5-------5-5------------|

G|-----------------------------------------|
D|--77777--5555----------------------------|
A|---------------7777--555555--------------| X4
E|-----------------------------8888--5555--|

G|----------------------------|
D|----------------------5-7---|
A|--------7-7-------7-7-------| X2
E|---5-5-------5-5------------|

G|----------------------------|
D|----------------------------|
A|-88-8-8-----------55-5-5----| X1
E|---------88-8-8-------------|

G|----------------------------|
D|----------------------5-7---|
A|--------7-7-------7-7-------| X2
E|---5-5-------5-5------------|

G|---------------------------------------------------|
D|-55-5-5--------------------------------------------|
A|---------88-8-8-------------------55-5-5-5-55-5-5--| X1
E|-----------------88-8-8-8-88-8-8-------------------|

G|----------------------------|
D|----------------------5-7---|
A|--------7-7-------7-7-------| X2
E|---5-5-------5-5------------|

G|--------------------------|
D|--------------------------|
A|-------------5555555------| X4
E|--5555555--8----------8---|

G|-----------------------------------------|
D|--77777--5555----------------------------|
A|---------------7777--555555--------------| X4
E|-----------------------------8888--5555--|
Right after that part was played there's rest for bass

(during solo)
G|--------------------------|
D|--------------------------|
A|-------------5555555------| X8
E|--5555555--8----------8---|

G|----------------------------|
D|----------------------5-7---|
A|--------7-7-------7-7-----7-| X1
E|---5-5-------5-5------------|


7. Last Night
G|-------------------------------------||x2
D|-3-3-3-3-3-3-3-3-5-5-5-5-5-5-5-5-----||
A|-------------------------------------||
E|-------------------------------------||

G|-------------------------------------||x3
D|-------------------5----32-----------||
A|-3-333-3-333-5-555---------35--------||
E|-------------------------------------||


G|-------------------------------------||x4
D|-3-3-3-3-3-3-3-3-5-5-5-5-5-5-5-5-----||
A|-------------------------------------||
E|-------------------------------------||

G|-------------------------------------||x2
D|-------------------5----32-----------||
A|-3-333-3-333-5-555---------35--------||
E|-------------------------------------||

break


G|-------------------------------------||x2
D|-3-3-3-3-3-3-3-3-5-5-5-5-5-5-5-5-----||
A|-------------------------------------||
E|-------------------------------------||

do this during the solo

G|-------------------------------------||
D|-------------------------------------||
A|-3-3-3-3-3-3-3-3-3-3-3-3-3-3-3-3-3-3-||
E|-------------------------------------||


G|-------------------------------------||x4
D|-3-3-3-3-3-3-3-3-5-5-5-5-5-5-5-5-----||
A|-------------------------------------||
E|-------------------------------------||


G|-------------------------------------||x2
D|-------------------5----32-----------||
A|-3-333-3-333-5-555---------35--------||
E|-------------------------------------||


G|-------------------------------------||x2
D|-------------------------------------||
A|-3-3-3-3-3-3-3-3-5-5-5-5-5-5-5-5-----||
E|-------------------------------------||

8. Hard To Explain
riff a
g|---------------|---------------|---------------|---------------|
d|---------------|---------------|---------------|---------------|
a|---------------|7-7-7-7-7-7-7-7|0-0-0-0-0-0-0-0|0-0-0-0-0-0-0-0|
e|3-3-3-3-3-3-3-3|---------------|---------------|---------------|

g|---------------|---------------|---------------|---------------|
d|---------------|---------------|---------------|---------------|
a|---------------|---------------|5-5-5-5-5-5-5-5|5-5-5-5-5-5-5-5|
e|3-3-3-3-3-3-3-3|3-3-3-3-3-3-3-3|---------------|---------------|

g|---------------|---------------|---------------|---------------|
d|---------------|---------------|---------------|---------------|
a|5-5-5-5-5-5-5-5|5-5-5-5-5-5-5-5|3-3-3-3-3-3-3-3|3-3-3-3-3-3-3-3|
e|---------------|---------------|---------------|---------------|

g|---------------|---------------|---------------|---------------|
a|0-0-0-0-0-0-0-0|0-0-0-0-0-0-0-0|---------------|---------------|
d|---------------|---------------|---------------|---------------|
e|---------------|---------------|---------------|---------------|
(the bit u do twice before part c)

 riff b
g|---------------|--------4-4-4-4|---------------|---------------|
d|5-5-5-5-5-5-5-5|5-5-5-5--------|5-5-5-5-5-5-5-5|5-5-5-5-7-7-7-7|
a|---------------|---------------|---------------|---------------|
e|---------------|---------------|---------------|---------------|

 riff c
g|---------------|---------------|---------------|---------------|
d|5-5-5-5-5-5-5-5|5-5-5-5-5-5-5-5|2-2-2-2-2-2-2-2|2-2-2-2-2-2-2-2|
a|---------------|---------------|---------------|---------------|
e|---------------|---------------|---------------|---------------|

g|4-4-4-4-4-4-4-4|4-4-4-4-4-4-4-4|2-2-2-2-2-2-2-2|2-2-2-2-2-2-2-2|
d|---------------|---------------|---------------|---------------|
a|---------------|---------------|---------------|---------------|
e|---------------|---------------|---------------|---------------|

 riff d
g|---------------|---------------|4-4-4-4-4-4-4-4|2-2-2-2-2-2-2-2|
d|5-5-5-5-5-5-5-5|5-5-5-5-5-5-5-5|---------------|---------------|
a|---------------|---------------|---------------|---------------|
e|---------------|---------------|---------------|---------------|

 riff e
g|---------------|---------------|4-4-4----------|---------------|
d|5-5-5-5-5-5-5-5|5-5-5-5-5-5-5-5|---------------|---------------|
a|---------------|---------------|---------------|---------------|
e|---------------|---------------|---------------|---------------|

 riff f
g|---------------|---------------|4-4-4-4-4-4-4-4|2-2-2----------|
d|5-5-5-5-5-5-5-5|5-5-5-5-5-5-5-5|---------------|---------------|
a|---------------|---------------|---------------|---------------|
e|---------------|---------------|---------------|---------------|

riff a
riff b
riff a
riff b
riff a (last bit twice)
riff c x 2
riff d x 3
riff e
*2 seconds silence*
riff a
riff b
riff a (last bit twice)
riff c x 2
riff d x 3
riff f


9. New YOrk City Cops

Intro

G|--------------------------------|---------------------------------|
D|-7---7---7---7---7---7---7---7--|-5-----------5-----------5-------|
A|--------------------------------|---------7-----------7-----------| 2x
E|--------------------------------|---------------------------------|


G|--------------------------------|---------------------------------|
D|--------------------------------|---------------------------------|
A|--------------------------------|---------------------------------| 2x
E|-5---5---5---5---5---5---5---5--|-3-------0---3-------0---3-------|


Verse ("Here in the streets...")

G|--------------------------------|---------------------------------|
D|--------------------------------|---------------------------------|
A|--------------------------------|---------------------------------| 3x
E|-5---5---5---5---5---5---5---5--|-3-------0---3-------0---3-------|


G|--------------------------------|---------------------------------|
D|--------------------------------|---------------------------------|
A|--------------------------------|-3-------5---7-------------------|
E|-5---5---5---5---5---5---5---5--|---------------------------------|

 "Nina's in the Bedroom"

G|----------------------------|-----------------------------------------|
D|--------14-----12-----14----|-----------------------------------------|
A|-15-------------------------|-12---12-12---12-12--12---12-12---12-12--|
E|----------------------------|-----------------------------------------|


 "She says time to go now"

G|---------------------------|------------------------------------------|
D|---------------------------|------------------------------------------|
A|-10------------------------|-10---10-10---10-10---10---10-10---10-10--|
E|--------10-----8-----10----|------------------------------------------|


 "But leavin' it ain't easy..."

G|--------------------------------|------------------------------------|
D|--------------------------------|------------------------------------|
A|-5---5---5---5---5---5---5---5--|-3/5---5-5---5-5---3/5---5-5---5-5--|
E|--------------------------------|------------------------------------|

  "I've got to let go..."

G|--------------------------------|------------------------------------|
D|--------------------------------|------------------------------------|
A|--------------------------------|-5/7---7-7---7-7---5/7---7-7---7-7--|
E|-7---7---7---7---7---7---7---7--|------------------------------------|


G|--------------------------------|----------------------------------|
D|-5---5---5-5-5---5---5-5---5-5--|-5---5---5-5-5---5---5-5---5-5----|
A|--------------------------------|-------------------------------/7\|
E|--------------------------------|----------------------------------|

 Chorus:
  "New York City Cops..."

G|--------------------------------|--------------------------------|
D|--------------------------------|--------------------------------|
A|-3---3---3---3---3---3---3---3--|--------------------------------|
E|--------------------------------|-1---1---1---1---1---1---1---1--|
                                                                    \
                                                                     2x
                                                                    /
G|--------------------------------|--------------------------------|
D|--------------------------------|--------------------------------|
A|-3---3---3---3---3---3---0---0--|--------------------------------|
E|--------------------------------|-1---1---1---1---3---3---3---3--|

During Nick's Solo:


G|--------------------------------|---------------------------------|
D|--------------------------------|---------------------------------|
A|--------------------------------|---------------------------------| 4x
E|-5---5---5---5---5---5---5---5--|-3-------0---3-------0---3-------|


G|--------------------------------|---------------------------------|
D|--------------------------------|---------------------------------|
A|--------------------------------|---------------------------------| 2x
E|-5---5---5---5---5---5---5---5--|-3-------0---3-------0---3-------|

Drum Solo

G|--------------------------------|--------------------------------|
D|--------------------------------|--------------------------------|
A|--------------------------------|--------------------------------|
E|--------------------------------|---------------------------12\--|


 "Yes I'm Leavin'..."

G|--------------------------------|--------------------------------|
D|--------------------------------|--------------------------------|
A|--------------------------------|--------------------------------| 3x
E|-5---5---5---5---5---5---5---5--|-3-------0---3-------0---3------|


G|--------------------------------|--------------------------------|
D|--------------------------------|--------------------------------|
A|--------------------------------|-3-------5---7------------------| 3x
E|-5---5---5---5---5---5---5---5--|--------------------------------|

 "Nina's in the Bedroom"


G|----------------------------|-----------------------------------------|
D|--------14-----12-----14----|-----------------------------------------|
A|-15-------------------------|-12---12-12---12-12--12---12-12---12-12--|
E|----------------------------|-----------------------------------------|


 "She says time to go now"


G|---------------------------|------------------------------------------|
D|---------------------------|------------------------------------------|
A|-10------------------------|-10---10-10---10-10---10---10-10---10-10--|
E|--------10-----8-----10----|------------------------------------------|


 "Oh, leavin' it ain't easy..."

G|--------------------------------|-7-------5-------4--------------|
D|--------------------------------|-------------------------7------|
A|-5---5---5---5---5---5---5---5--|--------------------------------|
E|--------------------------------|--------------------------------|

G|--------------------------------|--------------------------------|
D|--------------------------------|--------------------------------|
A|-7---7---7---7---7---7---7---7--|-7---7---7---7---7---7---7---7--|
E|--------------------------------|--------------------------------|


 "Trapped in an Appartment"

G|----------------------------|-----------------------------------------|
D|--------14-----12-----14----|-----------------------------------------|
A|/15-------------------------|-12---12-12---12-12--12---12-12---12-12--|
E|----------------------------|-----------------------------------------|


 "She would not let them get her"

G|---------------------------|------------------------------------------|
D|---------------------------|------------------------------------------|
A|-10------------------------|-10---10-10---10-10---10---10-10---10-10--|
E|--------10-----8-----10----|------------------------------------------|


 "She wrote it in a letter"

G|--------------------------------|----------------------------------|
D|--------------------------------|----------------------------------|
A|-5---5---5---5---5---5---5---5--|-3/5---5-5---5-5---3/5---5-5---5-5|
E|--------------------------------|----------------------------------|

  "I've got to come clean..."

G|--------------------------------|----------------------------------|
D|--------------------------------|----------------------------------|
A|--------------------------------|-5/7---7-7---7-7---5/7---7-7---7-7|
E|-7---7---7---7---7---7---7---7--|----------------------------------|


G|--------------------------------|----------------------------------|
D|-5---5---5-5-5---5---5-5---5-5--|-5---5---5-5-5---5---5-5---5-5----|
A|--------------------------------|-------------------------------/7\|
E|--------------------------------|----------------------------------|

Chous again (2x)

  C
G|-|
D|-|
A|3| let ring...
E|-|

10. Trying Your Luck
Verse :

G|----------------------------------------------|
D|----------------------------------------------|
A|---------------55555--------------------------| X4 (0:00 -> 0:33)
E|-55555--11111---------33333--00000------------|

Pré-chorus :

G|-----------------------------------------------------------|
D|--3~3-3p0--0-0--0------------2~2-2223-3~3-3p0-0-0-0--------| (0:33 -> 0:46)
A|--------------------3-0-0-0-0----------------------0-0-----|
E|-------------------------------------------------------0-0-|

Verse :

G|----------------------------------------------|
D|----------------------------------------------|
A|---------------55555--------------------------| X4 (0:47 -> 1:02)
E|-55555--11111---------33333--00000------------|

CHORUS :

G|----------------------------------------------|
D|----------------------------------------------|
A|--------78878--35535-530---57757--------------| X4 (1:03 -> 1:36)
E|-35535------------------3---------------------|

Verse :

G|----------------------------------------------|
D|----------------------------------------------|
A|---------------55555--------------------------| X4 (1:37 -> 2:09)
E|-55555--11111---------33333--00000------------|

Pré-chorus :

G|-----------------------------------------------------------|
D|--3~3-3p0--0-0--0------------2~2-2223-3~3-3p0-0-0-0--------| (2:10 -> 2:23)
A|--------------------3-0-0-0-0----------------------0-0-----|
E|-------------------------------------------------------0-0-|

Solo :

G|----------------------------------------------|
D|-------33333-------55555----------------------|
A|-00000-------55555-------77777----------------| X2 (2:24 -> 2:39)
E|----------------------------------------------|

CHORUS

G|----------------------------------------------|
D|----------------------------------------------|
A|--------78878--35535-530---57757--------------|
E|-35535------------------3---------------------|

G|----------------------------------------------|
D|--------------------------------567-----------|
A|--------78878--35535-530---57777--------------|
E|-35535------------------3---------------------|

(2:40 -> end)

11.Take It Or Leave It
INTRO
G[------------------------------------------------------------]
D[------------------------------------------------------------]
A[-12---11----8-----------------------------------------------]
E[------------------------------8-----------------------------]

VERSE
G[--------------------------------------------------------------------]
D[--------------------------------------------------------------------]
A[--3333---1111---5555-----3333---1111---5555------3333---1111—5--5---]
E[--------------------------------------------------------------------]

"Take it or leave it"
G[-------------------------------------------------------------]
D[-------------------------------------------------------------]
A[--33333333-11111111-5555555555555555-------------------------]	x2
E[-------------------------------------------------------------]
Finish on A[-3-]

SHORT REST

CHORUS
G[-------------------------------------------------]
D[-------------------------------------------------]
A[-3 / 12-12-12-12-11-11-11-11-88888888------------]
E[----------------------------------------88888888-]

G[------------------------------------------------]
D[------------------------------------------------]
A[--12-12-12-12-11-11-11-11-88888888--------------] x5
E[------------------------------------88888888----]

SHORT REST

VERSE
On Last Part of verse play
A[-3-3-3-3-6-3-3-3-3-]


SOLO
G[---------------------------------------------]
D[---------------------------------------------]	X4
A[-33333--33333--33333--33333------------------]
E[---------4--------4--------4--------4--------]

G[---------------------------------------------]
D[---------------------------------------------]
A[-33333--33333--33333--33333333---------------]
E[---------4--------4--------4-----------------]

CHORUS

ENDING
G[--------------------------------]
D[--------------------------------]
A[-33333--33333-------------------]
E[---------4--------4-------------]
comments
print report bad tab
5 comments total. Showing first comments.
0 reply
G.Gamble wrote on February 27 2006, 01:26 pm

only good for a rough guide line with one or two execptions.

0 reply
Will_Gum wrote on February 28 2006, 03:04 pm

Is This It?!
This sucks dude..its like way un-cool

-1 reply
SPARTAN 101 wrote on October 2 2008, 07:54 pm

does anyone know how to listen to what's being played? its like 85% correct

I want to post or [tab]
guest
You may want to rate the tab now too:
select rating
Please do not post tabs as comments. Select "correction" instead!