Oops, an error
Loading. Please wait.

Is This It Bass Tab

ver2
ver2

Album

Whole song

More versions @911Tabs.com
13,466 views 37 this week
2 commentsread comments
1 2 3 4 5
worth learning
x 4
add to favorites launch autoscroll
font size
0
reset
Autoscroll
+/-
esc
set tempo
stop
Difficulty
intermediate
WARNING: You are trying to view
                                    content from Ultimate-Guitar.com
                                    in an unauthorized application,
                                    which is prohibited.

                                    Please use an official Ultimate
                                    Guitar Tabs application for iPhone,
                                    iPad or Android to access legitimate
                                    chords, guitar, bass, and drum tabs
                                    from Ultimate-Guitar.com database.

                                    Type "ultimate guitar tabs" in Apple
                                    App Store's or Android Market's
                                    search to find the application.
----------------------------------------------------------------------------
			    IS THIS IT ALBUM – The Strokes
----------------------------------------------------------------------------
Artist: The Strokes
Album: Is This It
Tabbed By : Spartan101
e-mail: eligeek101@sbcglobal.net
Tuning: Standard

ALBUM ORDER
1.  Is This It
2.  The Modern Age
3.  Soma
4.  Barely Legal
5.  Someday
6.  Alone, Together
7.  Last Night
8.  Hard To Explain
9.  When It Started
10. Trying Your Luck
11. Take Or Leave It


First I’d like to comment that if there’s one bunch of songs that got me into Green Day
these. This is one their best albums, arguably the best one. I tabbed these songs after
the ones by a bunch of the other tabbers. I compiled them and this is what I got.

NOTES
~if there’s an x# on the right of a bar, pay that individual bar the number of times
then continue on to the next bar. If there is no x# then just play the bar once

~if I put an (x#) next to the name of the song sections, (e.g. 1st VERSE) play that
section of the song, not just one line, the number of times indicated. If there’s no x# then
play the section once before continuing on.

~I’m not going to put the play order down after each song so I’ll just put the parts of
song in order. If a part is repeated, I will say to repeat a certain section and the
where it is to be repeated. If a section is played less or more times than before, I 
just indicate how times it needs to be repeated with (x#) next to the part.


| /  slide up
| \  slide down
| h  hammer-on
| p  pull-off
| ~  vibrato
| +  harmonic
| x  Mute note

-----------------------------------------------------------------------
1. IS THIS IT

VERSE (x2) (come in around 0:52)

G|------------9-10-12\10--------------7-9------------|
D|-----7---10----------------7---7-10----------------|
A|-8-8---8---------------8-8---8---------------------|
E|---------------------------------------------------|

G|-----7---7-9-10-12\10-----7---10-12-14-15\---------|
D|-8-8---8--------------8-8---8----------------------|
A|---------------------------------------------------|
E|---------------------------------------------------|

PRE-CHORUS

G|---------------------------------------------------|
D|---------------------------------------------------|
A|-------------------8-8--8~~-8-8--8~~---------------| x2
E|-8-8--8~~-8-8--8~~---------------------------------|

G|---------------------------------------------------|
D|---------------------------------------------------|
A|---------------------------------------------------|
E|-8-8--8~~-8-8--8~~---------------------------------|

CHORUS

G|---------------------------------------------------|
D|------------------8-7-10~~~~~~~~-------------------|
A|-8~~~~~~~~-8-8~~~----------------------------------|
E|---------------------------------------------------|

G|---------------------------------------------------|
D|------------------8-7-10~~~-10--10-----------------|
A|-8~~~~~~~~-8-8~~~----------------------------------|
E|-----------------------------------8~~~~-----------|

REPEAT VERSE. Immediately afterward play the OUTRO.

OUTRO

G|---------------------|
D|-8-8-8-8-8-8-8~~~~~~-|
A|---------------------|
E|---------------------|

2. THE MODERN AGE

INTRO (x2)

G|-------------------------------------------------------------------|
D|-------------------------------------------------------------------|
A|-55555555555555555555555555555555----------------------------------| x2
E|----------------------------------33333333333333333333333333333333-|

VERSE

G|-------------------------------------------------------------------|
D|-------------------------------------------------------------------|
A|-55555555555555555555555555555555----------------------------------| x3
E|----------------------------------33333333333333333333333333333333-|

G|-------------------------------------------------------------------|
D|-------------------------------------------------------------------|
A|-------------------------------------------------------------------|
E|-3333333333333333--------------------------------------------------|

CHORUS

G|--------------------------------------------------------------------|
D|--------------------------------------------------------------------|
A|-9999999999999999-7777777777777777-9999999999999999-0000000000000000|
E|--------------------------------------------------------------------|

G|--------------------------------------------------------------------|
D|----------------------------------------------------7777777777777777|
A|-9999999999999999-7777777777777777-9999999999999999-----------------|
E|--------------------------------------------------------------------|

INTERLUDE (Guitar Solo)

G|--------------------------------------------------------------------|
D|--------------------------------------------------------------------|
A|-5555555555555555555555555555555555555555555555555555555555555555---|
E|--------------------------------------------------------------------|

G|--------------------------------------------------------------------|
D|--------------------------------------------------------------------|
A|--------------------------------------------------------------------|
E|-3333333333333333333333333333333333333333333333333333333333333333---|

Repeat VERSE
Repeat CHORUS
Hit an A10 and slide down for the last note

3. SOMA

INTRO

G|------------------------|
D|------------------------|
A|-10~~~-10~~~-10~~~-10---|
E|------------------------|

VERSE

G|----------------------------------------------------|
D|----------------------------------------------------|
A|-/10101010101010101010101010101010-8888888888888888-| x4
E|----------------------------------------------------|
~don’t be stupid and Repeat the slide up

CHORUS (guitars only at first)

G|--------------------------------------------------------------------|
D|--------------------------------------------------------------------|
A|-15\55555555555555555555555555555555-101010101010101010101010101010-|
E|--------------------------------------------------------------------|

G|--------------------------------------------------------------------|
D|--------------------------------------------------------------------|
A|-1010101010101010101010101010-12-5555555555555555555555555555-------|
E|--------------------------------------------------------------------|

G|--------------------------------------------------------------------|
D|--------------------------------------------------------------------|
A|-55555-0-5-7--------------------------------------------------------|
E|--------------------------------------------------------------------|

INTERLUDE

G|--------------------------------------------------------------------|
D|--------------------------------------------------------------------|
A|-10~~~-10~~~-14~~~-12~~~-10~~~-10~~~-10~~~-10-----------------------|
E|--------------------------------------------------------------------|

Repeat VERSE

2nd CHORUS

G|--------------------------------------------------------------------|
D|--------------------------------------------------------------------|
A|--10-10---------15\5555555555555555555555555555-1010101010101010----|
E|--------------------------------------------------------------------|

G|--------------------------------------------------------------------|
D|--------------------------------------------------------------------|
A|-101010101010101010101010101010101010101010101010-12-555555555555---|
E|--------------------------------------------------------------------|

G|--------------------------------------------------------------------|
D|--------------------------------------------------------------------|
A|-55555555555555555-0-5-7-101010101010101010101010101010101010101010-|
E|--------------------------------------------------------------------|

G|--------------------------------------------------------------------|
D|--------------------------------------------------------------------|
A|-55555555555555555555555555555555-10101010101010101010101010101010--|
E|--------------------------------------------------------------------|

G|--------------------------------------------------------------------|
D|--------------------------------------------------------------------|
A|-55555555555555555555555555555555-10~~~-10~~~-10--------------------|
E|--------------------------------------------------------------------|


4. BARELY LEGAL

INTRO

G|-------------------------------------------------------------------|
D|-------------------------------------------------------------------|
A|----------------------------------33333333333333333333333333333333-|
E|-33333333333333333333333333333333----------------------------------|

VERSE

G|-------------------------------------------------------------------|
D|-------------------------------------------------------------------|
A|----------------------------------33333333333333333333333333333333-| x2
E|-33333333333333333333333333333333----------------------------------|

INTERLUDE

G|-------------------------------------------------------------------|
D|-------------------------------------------------------------------|
A|----------------------------------33333333333333333333333333333333-|
E|-33333333333333333333333333333333----------------------------------|

REPEAT VERSE

INTERLUDE 2

G|-------------------------------------------------------------------|
D|-------------------------------------------------------------------|
A|-55555555555555555555555555555555-77777777777777777777777777777777-|
E|-------------------------------------------------------------------|

G|-------------------------------------------------------------------|
D|-------------------------------------------------------------------|
A|-00000000000000000000000000000000----------------------------------|
E|-------------------------------------------------------------------|

CHORUS (x2)

G|--------------------------------------------------------------------|
D|--------------------------------------------------------------------|
A|-5555555555555555-7777777777777777-5555555555555555-7777777777777777|
E|--------------------------------------------------------------------|

INTERLUDE 3 (Wait after the guitar plays a bit)

G|--------------------------------------------------------------------|
D|--------------------------------------------------------------------|
A|----------------------------------33333333333333333333333333333333--|
E|-33333333333333333333333333333333-----------------------------------|

REPEAT VERSE
REPEAT INTERUDE 2
REPEAT CHORUS (x3)
End on an E3 and let it ring


5. SOMEDAY

INTRO/VERSE

G|-----------------------------------------------------------------|
D|-----------------------------------------------------------------|
A|---------------5-5~~~--------------------------------------------| x6
E|-5-5~~~-7-7~~~--------5-5-~~~------------------------------------|

CHORUS

G|-----------------------------------------------------------------|
D|-----------------4-2---------------------------------------------|
A|--------/7-4---------5-5-5-5-5-5-5-5-----------------------------|
E|-0-3-5-------2-----------------------5-5-5-5-5-5-5-0-3-----------|

G|-----------------------------------------------------------------|
D|-------------4-2-------------------------------------------------|
A|----/7-4---------5-5-5-5-5-5-5-5---------------------------------| x2
E|-5-------2-----------------------5-5-5-5-5-5-0-3-----------------|

G|-----------------------------------------------------------------|
D|-------------4-2-------------------------------------------------|
A|----/7-4---------5-5-5-5-5-5-5-5---------------------------------|
E|-5-------2-----------------------5-5-5-5-5-5-5-5-----------------|

POST-CHORUS

G|-----------------------------------------------------------------|
D|-----------------------------------------------------------------|
A|-7-7-7-7-7-7-7-7-7-7-7-7-7-7-7-7-7-7-7-7-7-7-7-7-7-7-7-7-7-7-7-7-|
E|-----------------------------------------------------------------|

Repeat INTRO/VERSE (x4)
Repeat CHORUS and POST-CHORUS
End with on an E5

6. ALONE, TOGETHER

INTRO/VERSE

G|-------------------------------12-14-|
D|---------14-14-----------14-14-------|
A|-12-12-----------12-12---------------| x2
E|-------------------------------------|

G|-10---10-10--------------------------|
D|------------10---10-10-12---12-12----|
A|-------------------------------------|
E|-------------------------------------|

G|-------------------------------12-14-|
D|---------14-14-----------14-14-------|
A|-12-12-----------12-12---------------|
E|-------------------------------------|

G|-10---10-10--------------------------|
D|------------10---10-10-12---12-12----|
A|-------------------------------------|
E|-------------------------------------|

G|-------------------------------12-14-|
D|---------14-14-----------14-14-------|
A|-12-12-----------12-12---------------| x2
E|-------------------------------------|

G|-12---12-12-10---10-10---------------------------------------------|
D|-----------------------10---10-10-10---10-10-12---12-12-12---10/12-|
A|-------------------------------------------------------------------|
E|-------------------------------------------------------------------|

G|-------------------------------12-14-|
D|---------14-14-----------14-14-------|
A|-12-12-----------12-12---------------| x2
E|-------------------------------------|

CHORUS (x4) (Play the bottom line only when you repeat it)

G|-14-14-14-14-14-14-14-14-12-12-12-12-------------------------------|
D|-------------------------------------14-14-14-14-------------------|
A|-12-12-12-12-------------------------------------------------------|
E|-------------------------------------------------------------------|

G|-------------------------------------------------------------------|
D|-------------12-12-12-12-10-10-10-10-------------------------------|
A|-------------------------------------12-12-12-10-------------------|
E|-10-10-10-10-------------------------------------------------------|

INTRO/VERSE 2

G|-------------------------------12-14-|
D|---------14-14-----------14-14-------|
A|-12-12-----------12-12---------------| x2
E|-------------------------------------|

G|-10---10-10--------------------------|
D|------------10---10-10-12---12-12----|
A|-------------------------------------|
E|-------------------------------------|

G|-------------------------------12-14-|
D|---------14-14-----------14-14-------|
A|-12-12-----------12-12---------------| x2
E|-------------------------------------|

G|-12---12-12-10---10-10---------------------------------------------|
D|-----------------------10---10-10-10---10-10-12---12-12-12---10/12-|
A|-------------------------------------------------------------------|
E|-------------------------------------------------------------------|

G|-------------------------------12-14-|
D|---------14-14-----------14-14-------|
A|-12-12-----------12-12---------------| x2
E|-------------------------------------|

BRIDGE (x2)

G|-------------------------------------------------------------------|
D|-------------------------------------------------------------------|
A|-------------3-4-5-5-5-5-5-5-5-3-------------3-4-5-5-5-5-5-5-5-3---|
E|-5-5-5-5-5-5---------------------5-5-5-5-5-5-----------------------|

Repeat CHORUS
Wait a couple bars
Repeat BRIDGE (x4) (Slide down right before from E15 [15\...])
Repeat the 1ST bar of INTRO/VERSE once
End on an A12


7. LAST NIGHT

INTRO (Guitars play for a few bars)

G|------------------------------------------------------|
D|------------------------------------------------------|
A|-8-8-8-8-8-8-8-8-10-10-10-10-10-10-10-10--------------|
E|------------------------------------------------------|

G|------------------------------------------------------|
D|------------------------------------------------------|
A|-8-8-8-8-8-8-8-8-10-10-10-10-10-10-10-10\-------------|
E|------------------------------------------------------|

1st VERSE

G|--------------------------------------------------------|
D|--------------------------------------------------------|
A|-3---333---3---333-3-5---555-5---5/10---7---7\5---5-----|
E|--------------------------------------------------------|

G|--------------------------------------------------------|
D|--------------------------------------------------------|
A|-3---333---3---333----3-5---555---5/10---7---7\5---5----|
E|-------------------3h5----------------------------------|

G|--------------------------------------------------------|
D|--------------------------------------------------------|
A|-3-333----3-3--333----3-5---555---5/10---7---7\5---5----|
E|-------3h5---------3h5----------------------------------|

CHORUS

G|------------------------------------------------------|
D|------------------------------------------------------|
A|-8-8-8-8-8-8-8-8-10-10-10-10-10-10-10-10--------------| x3
E|------------------------------------------------------|

G|------------------------------------------------------|
D|------------------------------------------------------|
A|-8-8-8-8-8-8-8-8-10-10-10-10-10-10-10-10\-------------|
E|------------------------------------------------------|

2nd VERSE

G|--------------------------------------------------------|
D|--------------------------------------------------------|
A|-3-333---3---333----3-5---555---5/10---10\7---7\5---5---|
E|-----------------3h5------------------------------------|

G|--------------------------------------------------------|
D|--------------------------------------------------------|
A|-3-333---3---333----3-5---555---5/10---10\7---7\5~~~~~--|
E|-----------------3h5------------------------------------|

BRIDGE (Guitar plays a couple of bars)

G|------------------------------------------------------|
D|------------------------------------------------------|
A|-8-8-8-8-8-8-8-8-10-10-10-10-10-10-10-10--------------| x2
E|------------------------------------------------------|

G|-----------------------------------------------------------------|
D|-----------------------------------------------------------------|
A|-3-3-3-3-3-3-3-3-3-3-3-3-3-3-3-3---------------------------------|
E|---------------------------------1-1-1-1-1-1-1-1-1-1-1-1-1-1-1-1-|

G|-----------------------------------------------------------------|
D|-----------------------------------------------------------------|
A|-----------------10-10-10-10-10-10-10-10-------------------------|
E|-3-3-3-3-3-3-3-3-------------------------------------------------|

2ND CHORUS

G|------------------------------------------------------|
D|------------------------------------------------------|
A|-8-8-8-8-8-8-8-8-10-10-10-10-10-10-10-10--------------| x4
E|------------------------------------------------------|

3rd VERSE

G|------------------------------------------------------|
D|------------------------------------------------------|
A|-3---333---3---333---5---555---5/10---10\7---7\5------|
E|------------------------------------------------------|

G|------------------------------------------------------|
D|------------------------------------------------------|
A|-3-333----3-3--333----3-5---555---5/10---10\7---7\5---|
E|-------3h5---------3h5--------------------------------|

G|------------------------------------------------------|
D|------------------------------------------------------|
A|-3-3-3-3-3-3-3-3-3-3-3-3-3-3-3-3/---------------------|
E|------------------------------------------------------|

OUTRO (accent the 10s on second time through)

G|------------------------------------------------------|
D|------------------------------------------------------|
A|-8-8-8-8-8-8-8-8-10-10-10-10-10-10-10-10--------------| x2
E|------------------------------------------------------|


8. HARD TO EXPLAIN

INTRO
G|--------------------------------------------------------------------|
D|--------------------------------------------------------------------|
A|----------77777777-----------------------------------5(x32)---------|
E|-33333333----------5555555555555555-3333333333333333----------------|

G|--------------------------------------------------------------------|
D|--------------------------------------------------------------------|
A|-3333333333333333---------------------------------------------------|
E|------------------5555555555555555----------------------------------|

G|--------------------------------------------------------------------|
D|--------------------------------------------------------------------|
A|-10101010101010101010101014141414-10101010101010101010101012121212\-|
E|--------------------------------------------------------------------|

VERSE

G|--------------------------------------------------------------------|
D|--------------------------------------------------------------------|
A|----------77777777-----------------------------------5(x32)---------|
E|-33333333----------5555555555555555-3333333333333333----------------|

G|--------------------------------------------------------------------|
D|--------------------------------------------------------------------|
A|-3333333333333333---------------------------------------------------|
E|------------------5555555555555555----------------------------------|

G|--------------------------------------------------------------------|
D|--------------------------------------------------------------------|
A|-10101010101010101010101014141414-10101010101010101010101012121212\-|
E|--------------------------------------------------------------------|

2ND VERSE

G|--------------------------------------------------------------------|
D|--------------------------------------------------------------------|
A|----------77777777-----------------------------------5(x32)---------|
E|-33333333----------5555555555555555-3333333333333333----------------|

G|--------------------------------------------------------------------|
D|--------------------------------------------------------------------|
A|-3333333333333333---------------------------------------------------|
E|------------------55555555555555555555555555555555------------------|

G|--------------------------------------------------------------------|
D|--------------------------------------------------------------------|
A|-10101010101010101010101010101010-7777777777777777------------------|
E|--------------------------------------------------------------------|

G|--------------------------------------------------------------------|
D|--------------------------------------------------------------------|
A|-14141414141414141414141414141414-12121212121212121212121212121212--|
E|--------------------------------------------------------------------|

G|--------------------------------------------------------------------|
D|--------------------------------------------------------------------|
A|-10101010101010101010101010101010-7777777777777777------------------|
E|--------------------------------------------------------------------|

G|--------------------------------------------------------------------|
D|--------------------------------------------------------------------|
A|-14141414141414141414141414141414-12121212121212121212121212121212--|
E|--------------------------------------------------------------------|

CHORUS

G|--------------------------------------------------------------------|
D|--------------------------------------------------------------------|
A|-10101010101010101010101010101010-1414141414141414-1212121212121212-| x3
E|--------------------------------------------------------------------|

G|--------------------------------------------------------------------|
D|--------------------------------------------------------------------|
A|-10101010101010101010101010101010-141414----------------------------|
E|--------------------------------------------------------------------|

Repeat INTRO
Repeat 2ND VERSE

2nd CHORUS

G|--------------------------------------------------------------------|
D|--------------------------------------------------------------------|
A|-10101010101010101010101010101010-1414141414141414-1212121212121212-| x3
E|--------------------------------------------------------------------|

G|--------------------------------------------------------------------|
D|--------------------------------------------------------------------|
A|-10101010101010101010101010101010-1414141414141414-121212-----------|
E|--------------------------------------------------------------------|


9. WHEN IT STARTED

INTRO (Drum Roll first)

G|---------------|
D|-1010101010----|
A|---------------|
E|---------------|

VERSE

G|---------------------------------------------------------------|
D|-14-14-12-12-10---14-10----14-10---14-14-12-12-10---1010101010-|
A|------------------------10-------------------------------------|
E|---------------------------------------------------------------|

G|---------------------------------------------------------------|
D|-15-15-15-15-----------------1010101010------------------------|
A|---------------10-10-10-10-------------------------------------|
E|---------------------------------------------------------------|

G|---------------------------------------------------------------|
D|-14-14-12-12-10---14-10----14-10---14-14-12-12-10---1010101010-|
A|------------------------10-------------------------------------|
E|---------------------------------------------------------------|

G|---------------------------------------------------------------|
D|-15-15-15-15---12----10-9----------1010101010------------------|
A|------------------10-------------------------------------------|
E|---------------------------------------------------------------|

G|------------------------------------------------------------14-12----|
D|-14-14-12-12-10---1010101010---14-14-12-12-10---14-10----14-------14-|
A|------------------------------------------------------10-------------|
E|---------------------------------------------------------------------|

G|----------------------------------------------------------------|
D|-15-15-15-15~~~-------------------------------------------------|
A|----------------10-10-10-10~~~----------------------------------|
E|----------------------------------------------------------------|

CHORUS

G|---------------------------------------------|
D|-1515151515-1515151515-1515151515-1515151515-|
A|---------------------------------------------| x2
E|---------------------------------------------|

G|---------------------------------------------|
D|-1010101010-1010101010-1010101010-1010101010-|
A|---------------------------------------------| x2
E|---------------------------------------------|

G|-1414141414-1414141414-1212121212-1212121212-|
D|---------------------------------------------|
A|---------------------------------------------|
E|---------------------------------------------|

G|---------------------------------------------|
D|-1515151515-1515151515-1212121212-1212121212-|
A|---------------------------------------------|
E|---------------------------------------------|

G|---------------------------------------------|
D|-1010101010-1010101010-1010101010-1010101010-|
A|---------------------------------------------| x2
E|---------------------------------------------|

INTERLUDE (All Guitars)

2nd VERSE

G|---------------------------------------------------------------|
D|-14-14-12-12-10---14-10----14-10---14-14-12-12-10---1010101010-|
A|------------------------10-------------------------------------|
E|---------------------------------------------------------------|

G|---------------------------------------------------------------|
D|-15-15-15-15---12----10-9----------1010101010------------------|
A|------------------10-------------------------------------------|
E|---------------------------------------------------------------|

G|------------------------------------------------------------14-12----|
D|-14-14-12-12-10---1010101010---14-14-12-12-10---14-10----14-------14-|
A|------------------------------------------------------10-------------|
E|---------------------------------------------------------------------|

G|----------------------------------------------------------------|
D|-15-15-15-15~~~-------------------------------------------------|
A|----------------10-10-10-10~~~----------------------------------|
E|----------------------------------------------------------------|

Repeat CHORUS

2nd INTERLUDE

  [---3-------------------|
G|------------------------|
D|------------------------|
A|-10-10-10-10~~~-10~~~---|
E|------------------------|

OUTRO

G|--------------------------------------------------------------------|
D|-14-14-12-12-10---14-10----14-10---14-14-12-12-10---1010101010---10-|
A|------------------------10------------------------------------------|
E|--------------------------------------------------------------------|


10. TRYING YOUR LUCK

INTRO

G|---------------------------------------------------------|
D|-------------------00000000------------------------------|
A|-00000000------------------------------------------------| x2
E|----------11111111----------33333333-00000000------------|

1ST VERSE

G|---------------------------------------------------------|
D|-------------------00000000------------------------------|
A|-00000000------------------------------------------------| x2
E|----------11111111----------33333333-00000000------------|

INTERLUDE 1

G|----------------------------------------------------------------------|
D|----------------------------------------------------------------------|
A|-8-8888\5-5-5555\3-3-3333/7-7-7777/8-8-8888\5-5-5555\3-3-3333\2-2-22~-|
E|----------------------------------------------------------------------|

2ND VERSE

G|---------------------------------------------------------|
D|-------------------00000000------------------------------|
A|-00000000------------------------------------------------|
E|----------11111111----------33333333-00000000------------|

G|---------------------------------------------------------|
D|-------------------00000000------------------------------|
A|-00000000------------------------------------------------|
E|----------11111111----------33333333-00000---------------|

CHORUS

G|----------------------------------------|
D|----------------------------------------|
A|---------78878---35535-53-----57757-----|
E|-35535-------------------53-------------|

G|----------------------------------------|
D|----------------------------------------|
A|---------78878---35535-53-----57757777--|
E|-35535-------------------53-------------|

G|---------------------------------------------|
D|---------------------------------------------|
A|----------78878888-35535553---------57757777-|
E|-35535555------------------53333333----------|

G|----------------------------------------------|
D|----------------------------------------------|
A|----------78878888-35535553---------57757-----|
E|-35535555------------------53333333-----------|

REPEAT 1ST VERSE TWICE
REPEAT INTERLUDE

BRIDGE

G|----------------------------------------------------|
D|----------33333333----------55555555----------------|
A|-00000000----------55555555-------------------------|
E|----------------------------------------------------|

G|----------------------------------------------------|
D|-22222222----------33333333----------55555555-22222-|
A|----------00000000----------55555555----------------|
E|----------------------------------------------------|

REPEAT CHORUS

LAST PART (play immediately after the Chorus)

G|----------------------------------------------------|
D|----------------------------------------------------|
A|----------------------------------------------------|
E|-0-0-0-0-3-4-5~~~~~~~-------------------------------|

11. TAKE IT OR LEAVE IT

INTRO

G|---------------------------------------------------------|
D|-------12~~~-10~~~~~~~-----------------------------------|
A|-12-11---------------------------------------------------|
E|---------------------------------------------------------|

VERSE (guitars start it, then bass jumps in)

G|---------------------------------------------------------|
D|---------------------------------------------------------|
A|---------------------------------------------------------|
E|-8888---6666---10101010------8888---6666---10101010------|

G|---------------------------------------------------------|
D|---------------------------------------------------------|
A|---------------------------------------------------------|
E|-8~~~8\6~~~6/10~~~10~~~----------------------------------|

PRE-CHORUS

G|---------------------------------------------------------|
D|---------------------------------------------------------|
A|---------------------------------------------------------| x2
E|-88888888-66666666-10101010101010101010101010101010------|

G|---------------------------------------------------------|
D|---------------------------------------------------------|
A|---------------------------------------------------------|
E|-8888888888888888888888888888-5/-------------------------|

CHORUS

G|---------------------------------------------------------|
D|-------------------1212121212121212-1010101010101010-----|
A|-12121212-11111111---------------------------------------| x5
E|---------------------------------------------------------|

G|---------------------------------------------------------|
D|-------------------121212121212121212121212121212\-------|
A|-12121212-11111111---------------------------------------|
E|---------------------------------------------------------|

REPEAT VERSE

2ND PRE-CHORUS

G|---------------------------------------------------------|
D|---------------------------------------------------------|
A|---------------------------------------------------------|
E|-88888888-66666666-10101010101010101010101010101010------|


G|---------------------------------------------------------|
D|---------------------------------------------------------|
A|---------------------------------------------------------|
E|-88888888-66666666-10~~~~~~~13-10~~~~~~~-----------------|

BRIDGE (Guitars start off with same rhythm)

G|---------------------------------------------------------|
D|---------------------------------------------------------|
A|---------------------------------------------------------| x3
E|-88888-4-88888-4-88888-4-88888-4-------------------------|
Pm ...............................

G|---------------------------------------------------------|
D|---------------------------------------------------------|
A|---------------------------------------------------------|
E|-88888-4-88888-4-88888-4-88888-4-------------------------|

G|---------------------------------------------------------|
D|---------------------------------------------------------|
A|---------------------------------------------------------|
E|-88888-4-88888-4-88888-4-8888885/------------------------|

REPEAT CHORUS

OUTRO

G|---------------------------------------------------------|
D|---------------------------------------------------------|
A|---------------------------------------------------------|
E|-88888-4-88888-4-----------------------------------------|
comments
print report bad tab
2 comments total.
0 reply
sotoonfire wrote on January 13 2007, 01:09 pm

quite frankly its just very inaccurate

0 reply
SPARTAN 101 wrote on October 2 2008, 07:55 pm

dude it's like 85 - 90% accurate. use your ears

I want to post or [tab]
guest
You may want to rate the tab now too:
select rating
Please do not post tabs as comments. Select "correction" instead!