Oops, an error
Loading. Please wait.

Room On Fire Tab

24,433 views 48 this week
3 commentsread comments
1 2 3 4 5
worth learning
x 4
Autoscroll
+/-
esc
set tempo
stop
Hey! There's an official Ultimate Guitar app which is ideal
for learning songs when you're away from computer. Get the app
WARNING: You are trying to view
                                    content from Ultimate-Guitar.com
                                    in an unauthorized application,
                                    which is prohibited.

                                    Please use an official Ultimate
                                    Guitar Tabs application for iPhone,
                                    iPad or Android to access legitimate
                                    chords, guitar, bass, and drum tabs
                                    from Ultimate-Guitar.com database.

                                    Type "ultimate guitar tabs" in Apple
                                    App Store's or Android Market's
                                    search to find the application.
The Strokes

        Room On Fire

12:51

-Albert

Part 1:

 E -12------     E ----|
 B ---12----     B --9-|
 G -----x---     G --9-| let ring
 D -------14 x2  D --9-|
 A ---------     A ----|
 E ---------     E ----|

Part 2

 E ---------------------------------------|
 B -10-------9--------10-------9----------|
 G -9---x16--9---x16--9---x16--9---x16----|   x2
 D -10-------9--------10-------9----------|
 A ---------------------------------------|
 E ---------------------------------------|

Part 3

 E --------------------------------------------|
 B --------------------------------------------|
 G --------------------------------------------|
 D --------------------------------------------|   x2
 A -2---x8pm--/7---x8pm--\4---x8pm--/9---x8pm--|
 E -0---------/5---------\2---------/7---------|

Part 4

 E ----------------------------|
 B ----------------------------|
 G --9-------\6-------\4-------|
 D --9---x8--\6---x4--\4---x4--|   x4
 A --7-------\4-------\2-------|
 E ----------------------------|

Slide between these chords, if you want you can take
a chord off the end of each one and dedicate it to the
slide i.e. 7 chords, slide, 3 chords, slide, 3 chords.

Part 5

 E --------------------------------------------|
 B --------------------------------------------|
 G -4-----------9---(x8)--6---(x8)--11---(x8)--|
 D -2----(x8)---7---------4---------9----------|  x2
 A -x------------------------------------------|
 E -0------------------------------------------|

End

 E ----------|
 B -9------9-|
 G -9------9-|
 D -9------9-|
 A ----------|
 E ----------|

Order:

Albert:   Nick:

Part 1
Part 2
Part 3     Part A
Part 4     Part C
Part 3     Part B
Part 4     Part C
Part 2     Part D
Part 3     Part A
Part 5     Part B
Part 4     Part C
End

-Nick

Part A

 E ---------------|---------------|
 B -/9-57-59-5--7-|-7-45-47-5--4--|
 G ---------------|---------------|  x2
 D ---------------|---------------|
 A ---------------|---------------|
 E ---------------|---------------|

Part B

 E -------------|---------------|--------------|--------------|
 B -9-57-59-5-7-|-7-45-47-5-4---|9-57-512-10-9-|7-45-47-5-4---|
 G -------------|---------------|--------------|--------------|
 D -------------|---------------|--------------|--------------|
 A -------------|---------------|--------------|--------------|
 E -------------|---------------|--------------|--------------|

Part C (Chorus)

 E ------------------------------------------------------|
 B -/12--9-7-9---/12--9--7--9---/12--9-7-9---\5--9--7--9-|
 G ------------------------------------------------------|
 D ------------------------------------------------------| x2
 A ------------------------------------------------------|
 E ------------------------------------------------------|

Part D

 E -------------|-------------|-------------|-------------|
 B -13-15-12-13-|-17-15-------|-13-15-12-13-|-17-15-------|
 G -------------|-------17-16-|-------------|-------17-16-|
 D -------------|-------------|-------------|-------------|
 A -------------|-------------|-------------|-------------|
 E -------------|-------------|-------------|-------------|

 E -----------------------|-------------|-------------|--------------|
 B -17--13-15-12----15-12-|-17-15-------|-13-15-12-13-|-17-15--------|
 G ---------------14------|-------17-16-|-------------|-------17-16~-|
 D ---14--------14--------|-------------|-------------|--------------|
 A -----------------------|-------------|-------------|--------------|
 E -----------------------|-------------|-------------|--------------|


Title: Automatic Stop

Chords:

Guitar 1: Albert
       F#   D#m   A#m   G#m   C#
E||----9----11----9-----7-----9-----|
B||----11---11----11----9-----9-----|
G||----11-- 11----10----7-----10----|
D||---------------------------------|
A||---------------------------------|
E||---------------------------------|

Guitar 2: Nick
       F#   D#m   A#m   G#m   C#
E||----6----6-----6-----4-----9-----|
B||----7----7-----6-----4-----6-----|
G||----6----8-----6-----4-----6-----|
D||----8----8-----8-----6-----6-----|
A||---------------------------------|
E||---------------------------------|


Intro (x2) - Guitar 1

       F#              D#m
E||----9--9----9--9----11-11---11-11-|----9--9----9--9----11-11---11-11-|
B||----11-11---11-11---11-11---11-11-|----11-11---11-11---11-11---11-11-|
G||----11-11---11-11---11-11---11-11-|----11-11---11-11---11-11---11-11-|
D||----------------------------------|----------------------------------|
A||----------------------------------|----------------------------------|
E||----------------------------------|----------------------------------|


Intro (x2) - Guitar 2

       F#          D#m            F#          D#m
E||----6-6---6-6---6-6---6-6-|----6-6---6-6---6-6---6-6-|
B||----7-7---7-7---7-7---7-7-|----7-7---7-7---7-7---7-7-|
G||----6-6---6-6---8-8---8-8-|----6-6---6-6---8-8---8-8-|
D||----8-8---8-8---8-8---8-8-|----8-8---8-8---8-8---8-8-|
A||--------------------------|--------------------------|
E||--------------------------|--------------------------|

Verse - Guitar 2 (Guitar 1 - same chords transposed * see chords above *)

       F#                         D#m                        F#
E||----6-6---6-6---6-6---6-6-|----6-6---6-6---6-6---6-6-|----6-6---6-6---6-6---6-6-|
B||----7-7---7-7---7-7---7-7-|----7-7---7-7---7-7---7-7-|----7-7---7-7---7-7---7-7-|
G||----6-6---6-6---6-6---6-6-|----8-8---8-8---8-8---8-8-|----6-6---6-6---6-6---6-6-|
D||----8-8---8-8---8-8---8-8-|----8-8---8-8---8-8---8-8-|----8-8---8-8---8-8---8-8-|
A||--------------------------|--------------------------|--------------------------|
E||--------------------------|--------------------------|--------------------------|

    A#m                        F#                         D#m
----6-6---6-6---6-6---6-6-|----6-6---6-6---6-6---6-6-|----6-6---6-6---6-6---6-6-|
----6-6---6-6---6-6---6-6-|----7-7---7-7---7-7---7-7-|----7-7---7-7---7-7---7-7-|
----6-6---6-6---6-6---6-6-|----6-6---6-6---6-6---6-6-|----8-8---8-8---8-8---8-8-|
----8-8---8-8---8-8---8-8-|----8-8---8-8---8-8---8-8-|----8-8---8-8---8-8---8-8-|
--------------------------|--------------------------|--------------------------|
--------------------------|--------------------------|--------------------------|

    F#                         A#m                        G#m
----6-6---6-6---6-6---6-6-|----6-6---6-6---6-6---6-6-|----4-4---4-4---4-4---4-4-|
----7-7---7-7---7-7---7-7-|----6-6---6-6---6-6---6-6-|----4-4---4-4---4-4---4-4-|
----6-6---6-6---6-6---6-6-|----6-6---6-6---6-6---6-6-|----4-4---4-4---4-4---4-4-|
----8-8---8-8---8-8---8-8-|----8-8---8-8---8-8---8-8-|----6-6---6-6---6-6---6-6-|
--------------------------|--------------------------|--------------------------|
--------------------------|--------------------------|--------------------------|

    G#m                        A#m                        A#m
----4-4---4-4---4-4---4-4-|----6-6---6-6---6-6---6-6-|----6-6---6-6---6-6---6-6-|
----4-4---4-4---4-4---4-4-|----6-6---6-6---6-6---6-6-|----6-6---6-6---6-6---6-6-|
----4-4---4-4---4-4---4-4-|----6-6---6-6---6-6---6-6-|----6-6---6-6---6-6---6-6-|
----6-6---6-6---6-6---6-6-|----8-8---8-8---8-8---8-8-|----8-8---8-8---8-8---8-8-|
--------------------------|--------------------------|--------------------------|
--------------------------|--------------------------|--------------------------|

    G#m                        A#m                        C#
----4-4---4-4---4-4---4-4-|----6-6---6-6---6-6---6-6-|----9-9---9-9---9-9---9-9-|
----4-4---4-4---4-4---4-4-|----6-6---6-6---6-6---6-6-|----6-6---6-6---6-6---6-6-|
----4-4---4-4---4-4---4-4-|----6-6---6-6---6-6---6-6-|----6-6---6-6---6-6---6-6-|
----6-6---6-6---6-6---6-6-|----8-8---8-8---8-8---8-8-|----6-6---6-6---6-6---6-6-|
--------------------------|--------------------------|--------------------------|
--------------------------|--------------------------|--------------------------|

    C#
----9-9---9-9---9-9---9-9-|
----6-6---6-6---6-6---6-6-|
----6-6---6-6---6-6---6-6-|
----6-6---6-6---6-6---6-6-|
--------------------------|
--------------------------|


Break 1 - Guitar 1 (* Guitar 2 Chords played with verse rhythm - slightly
different progression)

      F#                                 D#m
E||----------------------------------|----------------------------------------|
B||----------------------------------|----------------------------------------|
G||----------------------------------|----------------------------------------|
D||----------------------------------|--10-10-10-10-10-10-8-8-8-8-8-8---------|
A||--9-9-9-9-9-9-9-9-9-9-9-9-9-9-9-9-|--------------------------------9-9-9-9-|
E||----------------------------------|----------------------------------------|

  F#                                  A#m
----------------------------------|----------------------------------------|
----------------------------------|----------------------------------------|
----------------------------------|----------------------------------------|
----------------------------------|--8-8-8-8-8-8-10-10-10-10-10-10---------|
--8-8-8-8-8-8-8-8-8-8-8-8-8-8-8-8-|--------------------------------8-8-8-8-|
----------------------------------|----------------------------------------|

  F#                                 D#m
----------------------------------|----------------------------------------|
----------------------------------|----------------------------------------|
----------------------------------|----------------------------------------|
----------------------------------|--10-10-10-10-10-10-8-8-8-8-8-8---------|
--9-9-9-9-9-9-9-9-9-9-9-9-9-9-9-9-|--------------------------------9-9-9-9-|
----------------------------------|----------------------------------------|

  F#                                 F#
----------------------------------|----------------------------------|
----------------------------------|----------------------------------|
----------------------------------|----------------------------------|
----------------------------------|----------------------------------|
--8-8-8-8-8-8-8-8-8-8-8-8-8-8-8-8-|--8-8-8-8-8-8-8-8-8-8-8-8-8-8-8-8-|
----------------------------------|----------------------------------|

* These two bars replace the two bars above the second time Guitar 1 plays this break.
* Guitar 2 chord also changes for last bar

     F#                                  A#m
*E||----------------------------------|----------------------------------|
*B||----------------------------------|----------------------------------|
*G||----------------------------------|----------------------------------|
*D||----------------------------------|----------------------------------|
*A||--8-8-8-8-8-8-8-8-8-8-8-8-8-8-8-8-|----------------------------------|
*E||----------------------------------|--9-9-9-9-9-9-8-8-8-8-8-8-8-8-8-8-|


Break 2 (x2) - Guitar 1 (* Guitar 2 chords played with verse rhythm - different progression)

    F#                                   A#m
E||------------------------------------|-----------------------------------|
B||--11-----9-----11-----9-----11------|--9------------9------------9------|
G||------11----11-----11----11-----11--|-----10-11--10----10-11--10----10--|
D||------------------------------------|-----------------------------------|
A||------------------------------------|-----------------------------------|
E||------------------------------------|-----------------------------------|

  D#m                          D#m                            F#
----------------------------|------------------------------|--------------------------------|
--7----6----7----6----7-----|--7----6----7----6----7-------|--9----------9------------------|
-----8----8----8----8----8--|-----8----8----8----8----8/10-|-----8-11--8----8-11--8-10--11--|
----------------------------|------------------------------|--------------------------------|
----------------------------|------------------------------|--------------------------------|
----------------------------|------------------------------|--------------------------------|

 F#                             D#m                             D#
----------------------------|-------------------------------|---------------------------------|
-9----------9----------9*---|--9----------9-----------9-----|--9----------9----------9--------|
----8-11--8----8-11--8------|-----8-11--8----8-11--8-----8--|-----8-11--8----8-11--8----10/11-|
----------------------------|-------------------------------|---------------------------------|
----------------------------|-------------------------------|---------------------------------|
----------------------------|-------------------------------|---------------------------------|
                         * very slight bend

Song Structure:
-Intro (x2)
-Verse
-Break 1
-Break 2 (x2)
-Break 3 (Played the same as Intro - x2)
-Break 1
-Verse
-Break 2 (x2

Title: Between Love & Hate

Guitar 1
Verse A
	         x4                x2               x2
E||-----------------|-----------------|----------------|
B||----------10-----|----------10-----|---------10-----|
G||-------9------9--|-------9------9--|------9------9--|
D||----7------------|---11------------|---9------------|
A||-----------------|-----------------|----------------|
E||-----------------|-----------------|----------------|\
	         x4                x2               x2    (x2)
E||-----------------|-----------------|----------------|/
B||----------7------|----------9------|---------9------|
G||-------7-----7---|-------9-----9---|------9-----9---|
D||----9------------|---11------------|---9------------|
A||-----------------|-----------------|----------------|
E||-----------------|-----------------|----------------|

Verse B	                                                           x4
E||-------------------------------------------------------------------|
B||----14-14---14-14---14-14---14-14---15-15---15-15---15-15---15-15--|
G||----14-14---14-14---14-14---14-14---14-14---14-14---14-14---14-14--|
D||----14-14---14-14---14-14---14-14---16-16---16-16---16-16---16-16--|
A||-------------------------------------------------------------------|
E||-------------------------------------------------------------------|

Chorus		                                            x2
E||------------------------------------------------------------|
B||----10-----10-----10-----10-----12-----12-----12-----12-----|
G||--------9------9------9------9------9------9------9------9--|
D||------------------------------------------------------------|
A||------------------------------------------------------------|
E||------------------------------------------------------------|
                                                                   x2
E||-------------------------------------------------------------------|
B||----12------12------12-----12------12------12------12------12------|
G||--------11------11------11-----11------13------13------13------13--|
D||-------------------------------------------------------------------|
A||-------------------------------------------------------------------|
E||-------------------------------------------------------------------|

Solo.
E||--------------------5---------------|
B||--------5-----5-------5-7-5-----5---|
G||----5*6---5*6---5*6---------5*6-----|
D||------------------------------------|
A||------------------------------------|

E||---------------------------------------------------------|
E||----9-9-9/-14-14-14/-8-8-8/-13-13-13/-12-----------------|
B||----8-8-8/-13-13-13/-7-7-7/-12-12-12/-10----14--12--10---|
G||----9------14--------8------13--------------14--12--11---|
D||---------------------------------------------------------|
A||---------------------------------------------------------|
E||---------------------------------------------------------|

E||---------------------------------------------------|
B||----------10-------10-------10-10-12-10-------10---|
G||----10*11----10*11----10*11-------------10*11------|
D||---------------------------------------------------|
A||---------------------------------------------------|
E||---------------------------------------------------|

E||------------------------------------------------|
B||----14/16-14-9/11-7-7-7-9--7—-9--7/12-10-10-9---|
G||----14/16-14-9/11-7-7-7-7--7--7--7/11-11-9--9---|
D||------------------------------------------------|
A||------------------------------------------------|
E||------------------------------------------------|

Verse A.	 x4	           x2               x2
E||-----------------|-----------------|----------------|
B||----------10-----|----------10-----|---------10-----|
G||-------9------9--|-------9------9--|------9------9--|
D||----7------------|---11------------|---9------------|
A||-----------------|-----------------|----------------|
E||-----------------|-----------------|----------------|\
	         x4                x2               x2    (x2)
E||-----------------|-----------------|----------------|/
B||----------7------|----------9------|---------9------|
G||-------7-----7---|-------9-----9---|------9-----9---|
D||----9------------|---11------------|---9------------|
A||-----------------|-----------------|----------------|
E||-----------------|-----------------|----------------|

Verse B.	                                                   x4
E||-------------------------------------------------------------------|
B||----14-14---14-14---14-14---14-14---15-15---15-15---15-15---15-15--|
G||----14-14---14-14---14-14---14-14---14-14---14-14---14-14---14-14--|
D||----14-14---14-14---14-14---14-14---16-16---16-16---16-16---16-16--|
A||-------------------------------------------------------------------|
E||-------------------------------------------------------------------|

Chorus.	                                                 x2
E||---------------------------------------------------------|
B||----10-----10-----10-----10-----12-----12-----12-----12--|
G||--------9------9------9------9------9------9------9------|
D||---------------------------------------------------------|
A||---------------------------------------------------------|
E||---------------------------------------------------------|
                	                                         x2
E||---------------------------------------------------------------|-------------------------------|

Ves.
G||----11------11------11------11------13------13------13------13-|-----13------13------13------13|
D||---------------------------------------------------------------|-------------------------------|
A||---------------------------------------------------------------|-------------------------------|
E||---------------------------------------------------------------|-------------------------------|

In ends up. Guitar 1
E||----12----|
B||----13----|
G||----12----|
D||----14----|
A||----------|
E||----------|


Guitar 2
Verse A                                                  (palm-muted)
E||---------------------------------------------------------------|
B||---------------------------------------------------------------|
G||---------------------------------------------------------------|
D||---------------------------------------------------------------|
A||--------------------------------------------4-4-4-4-4-4-4-4-4--|
E||----5-5-5-5-5-5-5-5-5---5-5-5-5-5-5-5-5-5----------------------|

E||---------------------------------------------------------------|
B||---------------------------------------------------------------|
G||---------------------------------------------------------------|
D||---------------------------------------------------------------|
A||----2-2-2-2-2-2-2-2-2---5-5-5-5-5-5-5-5-5---5-5-5-5-5-5-5-5-5--|
E||---------------------------------------------------------------|

E||---------------------------------------------------------------|
B||---------------------------------------------------------------|
G||---------------------------------------------------------------|
D||---------------------------------------------------------------|
A||----4-4-4-4-4-4-4-4-4---2-2-2-2-2-2-2-2-2----------------------|
E||---------------------------------------------------------------|

Verse B.
E||---------------------------------------|
B||----2-2-2-2-2-2-2-2-2-2-2-2-2-2-2-2-/--|
G||----2-2-2-2-2-2-2-2-2-2-2-2-2-2-2-2-/--|
D||----2-2-2-2-2-2-2-2-2-2-2-2-2-2-2-2-/--|
A||---------------------------------------|
E||---------------------------------------|\
                                             (x4)
E||---------------------------------------|/
B||----7-7-7-7-7-7-7-7-7-7-7-7-7-7-7-7-/--|
G||----7-7-7-7-7-7-7-7-7-7-7-7-7-7-7-7-/--|
D||----7-7-7-7-7-7-7-7-7-7-7-7-7-7-7-7-/--|
A||---------------------------------------|
E||---------------------------------------|

Chorus.
E||---------------------------------------------------------------------|
B||---------------------------------------------------------------------|
G||--2-2-2-------2-2-1-1-1-1-1-1-1-1/7-7-7------------------------------|
D||--------4-4-4---------------------------7-7-7-4-4-2-2-2-2-2-2-2-2----|
A||---------------------------------------------------------------------|
E||---------------------------------------------------------------------|

E||---------------------------------------------------------------------|
B||---------------------------------------------------------------------|
G||--2-2-2-------2-2-1-1-1-1-1-1-1-1/7-7-7------------------------------|
D||--------4-4-4---------------------------7-7-7-4-4-6-6-6-4-4-4-2------|
A||---------------------------------------------------------------------|
E||---------------------------------------------------------------------|

Solo.
( Light sound )                   x40                    x32
E||----12-12-12-12-12-12-12-12-12-12/-|-5-5-5-5-5-5-5-5-5-5--|
B||----12-12-12-12-12-12-12-12-12-12/-|-7-7-7-7-7-7-7-7-7-7--|
G||----14-14-14-14-14-14-14-14-14-14/-|-7-7-7-7-7-7-7-7-7-7--|
D||----14-14-14-14-14-14-14-14-14-14/-|-7-7-7-7-7-7-7-7-7-7--|
A||----12-12-12-12-12-12-12-12-12-12/-|-5-5-5-5-5-5-5-5-5-5--|
E||-----------------------------------|----------------------|

Verse A                                              (palm-muted)
E||---------------------------------------------------------------|
B||---------------------------------------------------------------|
G||---------------------------------------------------------------|
D||---------------------------------------------------------------|
A||--------------------------------------------4-4-4-4-4-4-4-4-4--|
E||----5-5-5-5-5-5-5-5-5---5-5-5-5-5-5-5-5-5----------------------|

E||---------------------------------------------------------------|
B||---------------------------------------------------------------|
G||---------------------------------------------------------------|
D||---------------------------------------------------------------|
A||----2-2-2-2-2-2-2-2-2---5-5-5-5-5-5-5-5-5---5-5-5-5-5-5-5-5-5--|
E||---------------------------------------------------------------|

E||---------------------------------------------------------------|
B||---------------------------------------------------------------|
G||---------------------------------------------------------------|
D||---------------------------------------------------------------|
A||----4-4-4-4-4-4-4-4-4---2-2-2-2-2-2-2-2-2----------------------|
E||---------------------------------------------------------------|

Verse B.
E||---------------------------------------|
B||----2-2-2-2-2-2-2-2-2-2-2-2-2-2-2-2-/--|
G||----2-2-2-2-2-2-2-2-2-2-2-2-2-2-2-2-/--|
D||----2-2-2-2-2-2-2-2-2-2-2-2-2-2-2-2-/--|
A||---------------------------------------|
E||---------------------------------------|\
                                             (x4)
E||---------------------------------------|/
B||----7-7-7-7-7-7-7-7-7-7-7-7-7-7-7-7-/--|
G||----7-7-7-7-7-7-7-7-7-7-7-7-7-7-7-7-/--|
D||----7-7-7-7-7-7-7-7-7-7-7-7-7-7-7-7-/--|
A||---------------------------------------|
E||---------------------------------------|

Chorus.
E||---------------------------------------------------------------------|
B||---------------------------------------------------------------------|
G||--2-2-2-------2-2-1-1-1-1-1-1-1-1/7-7-7------------------------------|
D||--------4-4-4---------------------------7-7-7-4-4-6-6-6-4-4-4-2-2----|
A||---------------------------------------------------------------------|
E||---------------------------------------------------------------------|

E||-----------------------------------------------------------------------------------|
B||-----------------------------------------------------------------------------------|
G||--2-2-2-------2-2-1-1-1-1-1-1-1-1/7-7-7--------------------------------------------|
D||--------4-4-4---------------------------7-7-7-4-4-2-2-2-2-2-2-2-2-2-2-2-2-2-2-2-2--|
A||-----------------------------------------------------------------------------------|
E||-----------------------------------------------------------------------------------|

It ends up. Guitar 2.
E||----3-----|
B||----5-----|
G||----5-----|
D||----5-----|
A||----3-----|
E||----------|


Track: I Can't Win

Intro

E|--4-----------|
B|--5-----------|
G|--4-----------|
D|--4-----------|
A|--6-----------|
E|--------------|

Guitar 1

E|-4--4--4--4-4-4-4--4--4-4-4-|
B|-4--4--4--4-4-4-4--4--4-4-4-|
G|-6--6--4--4-4-6-6--4--4-4-4-|
D|-4--4--4--4-4-4-4--4--4-4-4-|
A|-6--6--6--6-6-6-6--6--6-6-6-|
E|----------------------------|

E|-4--4--4--4-4-4-4--4--4-4-4-|
B|-5--5--5--5-5-5-5--5--5-5-5-|
G|-6--6--4--4-4-6-6--4--4-4-4-|
D|-4--4--4--4-4-4-4--4--4-4-4-|
A|-6--6--6--6-6-6-6--6--6-6-6-|
E|----------------------------|

Guitar 2
Nothing during Intro...


Verse
When vocals come in come in

Guitar 1

|     |     |     |     |
|  B  |  B  |  E  |  E  |    X2
|     |     |     |     |

Guitar 2

E|------------------------|
B|------------------------|
G|------------------------|
D|------------------------|   played twice
A|--9-9-9-9--7-7--6--6-6--|
E|------------------------|

E|------------------------|
B|------------------------|
G|------------------------|   played twice
D|------------------------|
A|--7-7-7-7--6-6--4--4-4--|
E|------------------------|


Chorus
Both Guitars

E|-4--4--4--4-4-4-4--4--4-4-4-|
B|-4--4--4--4-4-4-4--4--4-4-4-|
G|-6--6--4--4-4-6-6--4--4-4-4-|
D|-4--4--4--4-4-4-4--4--4-4-4-|
A|-6--6--6--6-6-6-6--6--6-6-6-|
E|----------------------------|

E|-4--4--4--4-4-4-4--4--4-4-4-|
B|-5--5--5--5-5-5-5--5--5-5-5-|
G|-6--6--4--4-4-6-6--4--4-4-4-|
D|-4--4--4--4-4-4-4--4--4-4-4-|
A|-6--6--6--6-6-6-6--6--6-6-6-|
E|----------------------------|

Guitar 1
With Distortion

E|---------9-------|----6---7---6--|----6---9---6--|----6---9---6--|
B|--9-12-9---9-12--|--5---5---5----|--7---7---7----|--7---7---7----|
G|-----------------|---------------|---------------|---------------|
D|-----------------|---------------|---------------|---------------|
A|-----------------|---------------|---------------|---------------|
E|-----------------|---------------|---------------|---------------|

Albert's chords are hard to deciphere here, when Jules says "Oh-I....Can't...Win"
G#m for the first chord i think (please post).


"Things in bars that people do..."
Guitar 1

|     |     |     |     |
|  B  |  B  |  E  |  E  |    X2
|     |     |     |     |

Guitar

E|------------------------|
B|------------------------|
G|------------------------|
D|------------------------|   played twice
A|--9-9-9-9--7-7--6--6-6--|
E|------------------------|

E|------------------------|
B|------------------------|
G|------------------------|   played twice
D|------------------------|
A|--7-7-7-7--6-6--4--4-4--|
E|------------------------|

Chorus again
Both Guitar

E|-4--4--4--4-4-4-4--4--4-4-4-|
B|-4--4--4--4-4-4-4--4--4-4-4-|
G|-6--6--4--4-4-6-6--4--4-4-4-|
D|-4--4--4--4-4-4-4--4--4-4-4-|
A|-6--6--6--6-6-6-6--6--6-6-6-|
E|----------------------------|

E|-4--4--4--4-4-4-4--4--4-4-4-|
B|-5--5--5--5-5-5-5--5--5-5-5-|
G|-6--6--4--4-4-6-6--4--4-4-4-|
D|-4--4--4--4-4-4-4--4--4-4-4-|
A|-6--6--6--6-6-6-6--6--6-6-6-|
E|----------------------------|

Solo

Guitar 1
With distortion and reverb.

E|--------------9b11*-11b9-|-9-12-9-------9----9--9--9--9--7-7-7-7---------------------|
B|--9b8---9b11*------------|-------12-9-12--12-11-11-11-11-9-9-9-9--99-99-99-99-9b10-7-|
G|------8------------------|----------------------------------------88-99-88-99--------|
D|-------------------------|-----------------------------------------------------------|
A|-------------------------|-----------------------------------------------------------|
E|-------------------------|-----------------------------------------------------------|


E|--9b11---6b8---------|------------------------------------------------------|
B|-------4-----4-7b9*--|--9-9-9-5--5-7-7-7-5--9-5---99-99-99-99-99-99-99-99---|
G|---------------------|----------------------------99-88-99-88-66-88-99-88---|
D|---------------------|------------------------------------------------------|
A|---------------------|------------------------------------------------------|
E|---------------------|------------------------------------------------------|

* = hold note
Sorry if you get confused.


Guitar 2
Downstrokes

e|---4-------|
B|---5-------|
G|---6-------|
D|---6-------| x8
A|---4-------|
E|---4-------|

e|---4-------|
B|---6-------|
G|---6-------|
D|---6-------| x8
A|---4-------|
E|---4-------|

Repeated twice

Chorus
Both Guitars

E|-4--4--4--4-4-4-4--4--4-4-4-|
B|-4--4--4--4-4-4-4--4--4-4-4-|
G|-6--6--4--4-4-6-6--4--4-4-4-|
D|-4--4--4--4-4-4-4--4--4-4-4-|
A|-6--6--6--6-6-6-6--6--6-6-6-|
E|----------------------------|

E|-4--4--4--4-4-4-4--4--4-4-4-|
B|-5--5--5--5-5-5-5--5--5-5-5-|
G|-6--6--4--4-4-6-6--4--4-4-4-|
D|-4--4--4--4-4-4-4--4--4-4-4-|
A|-6--6--6--6-6-6-6--6--6-6-6-|
E|----------------------------|
Repeated 6 times

Ending

E|---------------|
B|--77-77-77-77--|
G|--55-55-55-55--|
D|--66-66-66-66--|
A|---------------|
E|---------------|

Title: Meet Me In the Bathroom


Chords:
       G    C     D    Am
E||----3---------------5---|
B||----3----5-----7----5---|
G||----4--- 5-----7----5---|
D||----5----5-----7----7---|
A||----5----3-----5----7---|
E||----3---------------5---|


D Line - Guitar 1

E||-----------------------5--|--------------------------|
B||--8-----8-----8-----8-----|-----8-----8-----8--6-----|
G||-----7-----7-----7--------|--7-----7-----7--------7--|
D||--------------------------|--------------------------|
A||--------------------------|--------------------------|
E||--------------------------|--------------------------|

-----------------------5--|-----5-----5-----7--5-----||
--5-----5-----5-----5-----|--5-----5-----5--------5--||
-----5-----5-----5--------|--------------------------||
--------------------------|--------------------------||
--------------------------|--------------------------||
--------------------------|--------------------------||


Verse - Guitar 1

  When they say promises, they mean promises.
     G
E||--3--3--3--3--3--3--3--3--|
B||--3--3--3--3--3--3--3--3--|
G||--4--4--4--4--4--4--4--4--|
D||--5--5--5--5--5--5--5--5--|
A||--5--5--5--5--5--5--5--5--|
E||--3--3--3--3--3--3--3--3--| (x8)

 They say that's okay, long as we can celebrate.
  C
--------------------------|
--5--5--5--5--5--5--5--5--|
--5--5--5--5--5--5--5--5--|
--5--5--5--5--5--5--5--5--|
--3--3--3--3--3--3--3--3--|
--------------------------|
--------------------------| (x6)

 My uncle would say, things will change, when he's dead.
  D
--------------------------||
--7--7--7--7--7--7--7--7--||
--7--7--7--7--7--7--7--7--||
--7--7--7--7--7--7--7--7--||
--5--5--5--5--5--5--5--5--||
--------------------------|| (x4)


Verse - Guitar 2

E||--------------------------|--------------------------|
B||--8--8--8--8--8--8--8--8--|--7--7--7--7--7--7--7--7--|
G||--7--7--7--7--7--7--7--7--|--7--7--7--7--7--7--7--7--|
D||--------------------------|--------------------------|
A||--------------------------|--------------------------|
E||--------------------------|--------------------------|

--------------------------|--------------------------|
--5--5--5--5--5--5--5--5--|--7--7--7--7--7--7--7--7--|
--7--7--7--7--7--7--7--7--|--7--7--7--7--7--7--7--7--|
--------------------------|--------------------------|
--------------------------|--------------------------|
--------------------------|--------------------------| (x2)

--8--8--8--8--8--8--8--8--|--8--8--8--8--8--8--8--8--||
--8--8--8--8--8--8--8--8--|--7--7--7--7--7--7--7--7--||
--7--7--7--7--7--7--7--7--|--7--7--7--7--7--7--7--7--||
--------------------------|--------------------------||
--------------------------|--------------------------||
--------------------------|--------------------------|| (x3)

* Guitar 2 repeats first four bars to complete verse.


Chorus - Guitar 1

    Meet me in the bathroom that's what she said.
E||----------------------|-----------------------||
B||-------8---------7----|-------5----------7----||
G||--5---------5---------|--5-------5----5-------||
D||----------------------|-----------------------||
A||----------------------|-----------------------||
E||----------------------|-----------------------|| (x3)

Chorus - Guitar 2

   Meet me in the bathroom...
     C
E||--------------------------|
B||--5--5--5--5--5--5--5--5--|
G||--5--5--5--5--5--5--5--5--|
D||--5--5--5--5--5--5--5--5--|
A||--3--3--3--3--3--3--3--3--|
E||--------------------------| (x2)

 I don't mind...
  Am
--5--5--5--5--5--5--5--5--|
--5--5--5--5--5--5--5--5--|
--5--5--5--5--5--5--5--5--|
--7--7--7--7--7--7--7--7--|
--7--7--7--7--7--7--7--7--|
--5--5--5--5--5--5--5--5--| (x2)

 It's true.
  D
--------------------------||
--7--7--7--7--7--7--7--7--||
--7--7--7--7--7--7--7--7--||
--7--7--7--7--7--7--7--7--||
--5--5--5--5--5--5--5--5--||
--------------------------|| (x2)


Break - Guitar 1 & 2

E||--------------------------|--------------------------|
B||--8--8--8--8--8--8--8--0--|--7--7--7--7--7--7--7--0--|
G||--7--7--7--7--7--7--7--7--|--7--7--7--7--7--7--7--7--|
D||--------------------------|--------------------------|
A||--------------------------|--------------------------|
E||--------------------------|--------------------------|

--------------------------|--------------------------||
--5--5--5--5--5--5--5--0--|--7--7--7--7--7--7--7--0--||
--7--7--7--7--7--7--7--7--|--7--7--7--7--7--7--7--7--||
--------------------------|--------------------------||
--------------------------|--------------------------||
--------------------------|--------------------------||

* There is a subtle variation between Guitar 1 & 2 during
  the break. The chords are the same but strumming is
  slightly different between chord changes.

Break 2 - Guitar 2

E||--------------------------|--------------------------|
B||--8--8--8--8--8--8--8--7--|--7--7--7--7--7--7--7--7--|
G||--7--7--7--7--7--7--7--7--|--7--7--7--7--7--7--7--7--|
D||--------------------------|--------------------------|
A||--------------------------|--------------------------|
E||--------------------------|--------------------------|

----------------------------------|--------------------------||
--7/10-10--10--10--10--10--10--8--|--8--8--8--8--8--8--8--8--||
--7/9--9---9---9---9---9---9---9--|--9--9--9--9--9--9--9--9--||
----------------------------------|--------------------------||
----------------------------------|--------------------------||
----------------------------------|--------------------------||

Out 1 - Guitar 1

E||---------------|---------------|-----------------|---------------||
B||--5------------|--7------------|--5------/7------|--7------------||
G||--7------------|--7------------|-----------------|--7------------||
D||---------------|---------------|-----------------|---------------||
A||---------------|---------------|-----------------|---------------||
E||---------------|---------------|-----------------|---------------||

Out 2 - Gutar 2

E||---------------|---------------|-----------------|---------------||
B||--5------------|--7------------|--5------h7------|--7------------||
G||--7------------|--7------------|--7-------7------|--7------------||
D||---------------|---------------|-----------------|---------------||
A||---------------|---------------|-----------------|---------------||
E||---------------|---------------|-----------------|---------------||


Song Structure

 Guitar 1           Guitar 2
 - D Line (x1)      - (Tacet)
 - Verse  (x1)      - Verse   (x1)
 - Chorus (x1)      - Chorus  (x1)
 - Break  (x2)      - Break   (x2)
 - D Line (x4)      - Break 2 (x4)
 - Verse  (x1)      - Verse   (x1)
 - Chorus (x1)      - Chorus  (x1)
 - D Line (x4)      - Break 2 (x4)
 - Out 1  (x1)      - Out 2   (x2)


The Strokes - New York City Cops

Guitar 2
Played by Albert Hammond, Jr.

Intro
e|---------------------------------------------------------------|
B|---------------------------------------------------------------|
G|---------------------------------------------------------------|
D|---------------------------------------------------------------|
A|---------------------------------------------------------------|
E|-12/5-5-5-5-5-5-5-5-3--0-3--0-3--5-5-5-5-5-5-5-5-3--0-3--0-3---|

e|---------------------------------------------------------------|
B|---------------------------------------------------------------|
G|---------------------------------------------------------------|
D|---------------------------------------------------------------|
A|---------------------------------------------------------------|
E|-5-5-5-5-5-5-5-5-3--0-3--0-3--5-5-5-5-5-5-5-5-3--0-3--0-3------|

Verse 1
e|---------------------------------------------------------------|
B|---------------------------------------------------------------|
G|---------------------------------------------------------------|
D|---------------------------------------------------------------|
A|---------------------------------------------------------------|
E|-5-5-5-5-5-5-5-5-3--0-3--0-3--5-5-5-5-5-5-5-5-3--0-3--0-3------|
Here in the streets so mechanised
Rise to the bottom of the meaning of life
Studied all the rules didn't want no part
But I let you in just to break this heart

e|---------------------------------------------------------------|
B|---------------------------------------------------------------|
G|---------------------------------------------------------------|
D|---------------------------------------------------------------|
A|---------------------------------------------------------------|
E|-5-5-5-5-5-5-5-5-3--0-3--0-3--5-5-5-5-5-5-5-5-3--0-3--0-3/12---|
Even though it was only one night
It was fucking strange


Verse 2
e|-------------------------12-----------12-12--------------------|
B|-13-13-13-13-13-13-13-13-12--13-13-13-12-12--13-13-13-0--------|
G|-14-14-14-14-14-14-14-14-12--14-14-14-12-12--14-14-14-0--------|
D|-14-14-14-14-14-14-14-14-12--14-14-14-12-12--14-14-14-0--------|
A|-12-12-12-12-12-12-12-12-12--12-12-12-12-12--12-12-12-0--------|
E|---------------------------------------------------------------|
Nina's in the bedroom

e|-------------------------10--------------10-10-----------------|
B|-12-12-12-12-12-12-12-12-10h12--12-12-12-10-10h12--12-12-12-0--|
G|-12-12-12-12-12-12-12-12-10h12--12-12-12-10-10h12--12-12-12-0--|
D|-12-12-12-12-12-12-12-12-10h12--12-12-12-10-10h12--12-12-12-0--|
A|-10-10-10-10-10-10-10-10-10-----10-10-10-10-10-----10-10-10-0--|
E|---------------------------------------------------------------|
She said time to go now                                    but

e|-----------------5----------5-5--------------------------------|
B|-7-7-7-7-7-7-7-7-5h7--7-7-7-5-5h7--7-7-7-0---------------------|
G|-7-7-7-7-7-7-7-7-5h7--7-7-7-5-5h7--7-7-7-0---------------------|
D|-7-7-7-7-7-7-7-7-5h7--7-7-7-5-5h7--7-7-7-0---------------------|
A|-5-5-5-5-5-5-5-5-5----5-5-5-5-5----5-5-5-0---------------------|
E|---------------------------------------------------------------|
Leavin' it ain't easy                      I

e|---------------------------------|
B|-9-9-9-9-9-9-9-9-9-9-9-9-9-9-9-9-|
G|-9-9-9-9-9-9-9-9-9-9-9-9-9-9-9-9-|
D|-9-9-9-9-9-9-9-9-9-9-9-9-9-9-9-9-|
A|-7-7-7-7-7-7-7-7-7-7-7-7-7-7-7-7-|
E|---------------------------------|
Got to let go
Oh I got to let go          and the

Pre-Chorus
e|-------------------------------------|
B|-12----12----12-12-12-12-12-12-12-12-|
G|-12----12----12-12-12-12-12-12-12-12-|
D|-12----12----12-12-12-12-12-12-12-12-|
A|-10----10----10-10-10-10-10-10-10-10-|
E|-------------------------------------|
Hours they ran slow
I said everynight she just can't stop sayin'

Chorus
e|-8--8--8--8--8--8--8--8--8--8--8--8--8--8--8--8----------------|
B|-8--8--8--8--8--8--8--8--8--8--8--8--8--8--8--8----------------|
G|-9--9--9--9--9--9--9--9--10-10-10-10-10-10-10-10---------------|
D|-10-10-10-10-10-10-10-10-10-10-10-10-10-10-10-10---------------|
A|---------------------------------------------------------------|
E|---------------------------------------------------------------|
New York City cops
New York City cops

e|-8--8--8--8--8--8--8--8--8--8--8--8--8--8--8--8----------------|
B|-8--8--8--8--8--8--8--8--8--8--8--8--8--8--8--8----------------|
G|-9--9--9--9--9--9--9--9--10-10-10-10-10-10-10-10---------------|
D|-10-10-10-10-10-10-10-10-10-10-10-10-10-10-10-10---------------|
A|---------------------------------------------------------------|
E|---------------------------------------------------------------|
New York City cops
They ain't too smart

e|-8--8--8--8--8--8--8--8--8--8--8--8--8--8--8--8----------------|
B|-8--8--8--8--8--8--8--8--8--8--8--8--8--8--8--8----------------|
G|-9--9--9--9--9--9--9--9--10-10-10-10-10-10-10-10---------------|
D|-10-10-10-10-10-10-10-10-10-10-10-10-10-10-10-10---------------|
A|---------------------------------------------------------------|
E|---------------------------------------------------------------|
New York City cops
New York City cops

e|-8--8--8--8--8--8--8--8--8--8--8--8--8--8--8--8----------------|
B|-8--8--8--8--8--8--8--8--8--8--8--8--8--8--8--8----------------|
G|-9--9--9--9--9--9--9--9--10-10-10-10-10-10-10-10---------------|
D|-10-10-10-10-10-10-10-10-10-10-10-10-10-10-10-10---------------|
A|---------------------------------------------------------------|
E|---------------------------------------------------------------|
New York City cops
They ain't too smart

Guitar Solo
e|-----------------------------10b14-10p8-------7h10-7---7h87h87h87h87--7-|
B|-10b12---10b11-8--8-10b11-8-------------10-10--------8------------------|
G|-----------------9---------9--------------------------------------------|
D|------------------------------------------------------------------------|
A|------------------------------------------------------------------------|
E|------------------------------------------------------------------------|

e|-8-----10-----8-----10-----8-------7----10----7----10----7------|
B|----10-----10----10-----10----10------8-----8----8-----8----8---|
G|----------------------------------------------------------------|
D|----------------------------------------------------------------|
A|----------------------------------------------------------------|
E|----------------------------------------------------------------|

e|-8-----10-----8-----10-----8--------7----10----7----10----7-7s8-|
B|----10-----10----10-----10----10-------8-----8----8-----8-------|
G|----------------------------------------------------------------|
D|----------------------------------------------------------------|
A|----------------------------------------------------------------|
E|----------------------------------------------------------------|

e|-5-5-5-5-5-5-5-5-3-3-3-3-3-3-3-3-5-5-5-5-5-5-5-5-3-3-3-3-3-3-3-3-|
B|-5-5-5-5-5-5-5-5-3-3-3-3-3-3-3-3-5-5-5-5-5-5-5-5-3-3-3-3-3-3-3-3-|
G|-5-5-5-5-5-5-5-5-4-4-4-4-4-4-4-4-5-5-5-5-5-5-5-5-4-4-4-4-4-4-4-4-|
D|-7-7-7-7-7-7-7-7-5-5-5-5-5-5-5-5-7-7-7-7-7-7-7-7-5-5-5-5-5-5-5-5-|
A|-----------------------------------------------------------------|
E|-----------------------------------------------------------------|

e|-5-5-5-5-5-5-5-5-3-3-3-3-3-3-3-3-5-5-5-5-5-5-5-5-3-3-3-3-3-3-3-3-|
B|-5-5-5-5-5-5-5-5-3-3-3-3-3-3-3-3-5-5-5-5-5-5-5-5-3-3-3-3-3-3-3-3-|
G|-5-5-5-5-5-5-5-5-4-4-4-4-4-4-4-4-5-5-5-5-5-5-5-5-4-4-4-4-4-4-4-4-|
D|-7-7-7-7-7-7-7-7-5-5-5-5-5-5-5-5-7-7-7-7-7-7-7-7-5-5-5-5-5-5-5-5-|
A|-----------------------------------------------------------------|
E|-----------------------------------------------------------------|
                                                              Well

Post-Guitar Solo
e|---------------------------------------------------------------|
B|---------------------------------------------------------------|
G|---------------------------------------------------------------|
D|---------------------------------------------------------------|
A|---------------------------------------------------------------|
E|-5-5-5-5-5-5-5-5-3--0-3--0-3--5-5-5-5-5-5-5-5-3--0-3--0-3------|
Kill me now, 'cause I let you down
I swear one day we're gonna leave this town.               Stop.

Drum Solo
e|---------------------------------------------------------------|
B|---------------------------------------------------------------|
G|---------------------------------------------------------------|
D|----...WAIT...-------------------------------------------------|
A|---------------------------------------------------------------|
E|-----------------------------------------------------------15/-|
                                                         Yes I'm

Post-Drum Solo
e|---------------------------------------------------------------|
B|---------------------------------------------------------------|
G|---------------------------------------------------------------|
D|---------------------------------------------------------------|
A|---------------------------------------------------------------|
E|-5-5-5-5-5-5-5-5-3--0-3--0-3--5-5-5-5-5-5-5-5-3--0-3--0-3------|
Leavin'
'Cause it just won't work
They act like Romans
But they dress like Turks

e|---------------------------------------------------------------|
B|---------------------------------------------------------------|
G|---------------------------------------------------------------|
D|---------------------------------------------------------------|
A|---------------------------------------------------------------|
E|-5-5-5-5-5-5-5-5-3--0-3--0-3--5-5-5-5-5-5-5-5-3--0-3--0-3/12---|
Sometime, in your prime
See me, I like the summertime but, hey

[Verse 2 Again]
Nina's in the bedroom
She said time to go now
But leavin' it ain't easy
I got to let go
I got to let go
Oh!

[...And Again Just With Different Lyrics:]
Trapped in an apartment
She would not let them get her
She wrote it in a letter
I got to come clean
The authorities they've seen
Darling I'm

[Then Comes The Pre-Chorus]
Somewhere in between
I said everynight every night, she just can't stop sayin'

[Then The Chorus]
New York City cops
New York City cops
New York City cops
They ain't too smart
New York City cops
New York City cops
New York City cops
They ain't too smart


The End Has No End Tab by Strokes
intro:
Bb5   F5    A5   E5
|---------------------|
|---------------------|
|-3333------2222------|
|-3333-3333-2222-2222-|
|-1111-3333-0000-2222-|
|------1111------0000-|

verse:  repeate twice |   repeate twice
|---------------------|---------------------|
|-8888-7777-8888-7777-|-7777-5555-7777-5555-|
|-7777-7777-7777-7777-|-6666-6666-6666-6666-|try to kinda mute or block these
|---------------------|---------------------|chords out.
|---------------------|---------------------|
|---------------------|---------------------|
|
|---------------------|---------------------|
|---------------------|---------------------|
|-12--11--12--11--11--|-11--9--11--9--9-----|
|---------------------|---------------------|
|---------------------|---------------------|
|---------------------|---------------------|

chorus:

|-------------------------|-------------------------|
|-------------15----------|-------------15----------|this part gets pretty
|-12-12-14----------12-14-|-12-11-14-11----11-11-14-|tricky.
|----------12----12-------|-------------------------|
|-------------------------|-------------------------|
|-------------------------|-------------------------|

|-------------------------|-------------------------|
|-------------------------|-------------------------|
|-7777-7777---------------|-------------------------|
|-7777-7777---------------|-9999-9999---------------|
|-5555-5555---------------|-9999-9999---------------|
|-------------------------|-7777-7777---------------|

|-------------------------|-------------------------|
|-------------14----------|-------------14----------|
|-11-11-14---------11-14--|----12-14----------14-12-|
|-------------------------|-------------------------|
|----------12---12--------|-12-------12----12-------|
|-------------------------|-------------------------|

|-------------------------|-------------------------|
|-------------------------|-------------------------|
|-------------------------|-------------------------|
|-4444-4444---------------|-7777-7777---------------|
|-4444-4444---------------|-7777-7777---------------|
|-2222-2222---------------|-5555-5555---------------|

presolo:

|---------------------------------------------------|
|-9999------1111-999999------9999------1111---------|
|------1010-------------1010------1111--------------|the 1111s are elevens
|---------------------------------------------------|
|---------------------------------------------------|
|---------------------------------------------------|

|---------------------------------------------------|
|---------------------------------------------------|
|--------6666----------8888-------------------------|repeate this rythm for
|-4444---6666---6666---8888-------------------------|the whole section of the
|-4444---4444---6666---6666-------------------------|solo.
|-2222----------4444--------------------------------|

|---------------------------------------------------|
|-11-99999------9999-------1111-999999--------------|
|----------1010------1010--------------1010---------|
|---------------------------------------------------|
|---------------------------------------------------|
|---------------------------------------------------|

|---------------------------------------------------|
|-9999------1111-1111111111-99999999999-------------|
|------1111-----------------------------------------|
|---------------------------------------------------|
|---------------------------------------------------|
|---------------------------------------------------|

solo:

|--------------------------------------------------|
|-----------12-11-9----11--6-9--6-9--6-7-----------|
|-11\-11-10---------11-----6-10-6-10-6-------------|  \=bend up
|--------------------------------------------------|
|--------------------------------------------------|
|--------------------------------------------------|

|-------------0------------------------------------|
|-6-9--6-9--6--------------------------------------|just gradually bend the
|-6-10-6-10-6----11-11-11-11-11-11-11-11-11-11-11--|elevens up.
|--------------------------------------------------|
|--------------------------------------------------|
|--------------------------------------------------|

|-----------11-11-11-11-11-11-11-11-11-11-11-11-11-|
|-99999999-----------------------------------------|just keep on bending
|--------------------------------------------------|these notes up higher
|--------------------------------------------------|and higher
|--------------------------------------------------|
|--------------------------------------------------|

rythm to solo:

|---------------------------------------------------------------------|
|---------------------------------------------------------------------|
|-66666666------------------------------------------------------------|
|-66666666------/----/----/----66666666-------------------------------|
|-44444444---------------------66666666------/----/----/--------------|
|------------------------------44444444-------------------------------|

Title: Under Control


Verse - Guitar 1

    C#          D#m                                                   Fm          F#
E||-9---9---9---11--11--11--11--11-|-11--11--11--9---9---9---9---9--|-13--13--13--14--14--14--14--14-|
B||-9---9---9---11--11--11--11--11-|-11--11--11--9---9---9---9---9--|-13--13--13--14--14--14--14--14-|
G||-10--10--10--11--11--11--11--11-|-11--11--11--10--10--10--10--10-|-13--13--13--15--15--15--15--15-|
D||--------------------------------|--------------------------------|--------------------------------|
A||--------------------------------|--------------------------------|--------------------------------|
E||--------------------------------|--------------------------------|--------------------------------|

-13--14--13--11--11--11--11--11-|-9---9---9---11--11--11--11--11-|-11--11--11--9---9---9---9---9--|
-13--14--13--11--11--11--11--11-|-9---9---9---11--11--11--11--11-|-11--11--11--9---9---9---9---9--|
-13--15--13--11--11--11--11--11-|-10--10--10--11--11--11--11--11-|-11--11--11--10--10--10--10--10-|
--------------------------------|--------------------------------|--------------------------------|
--------------------------------|--------------------------------|--------------------------------|
--------------------------------|--------------------------------|--------------------------------|

 Fm          F#                                                    C#          D#m
-13--13--13--14--14--14--14--14-|-13--14--13--11--11--11--11--11-|-9---9---9---11--11--11--11--11-|
-13--13--13--14--14--14--14--14-|-13--14--13--11--11--11--11--11-|-9---9---9---11--11--11--11--11-|
-13--13--13--15--15--15--15--15-|-13--15--13--11--11--11--11--11-|-10--10--10--11--11--11--11--11-|
--------------------------------|--------------------------------|--------------------------------|
--------------------------------|--------------------------------|--------------------------------|
--------------------------------|--------------------------------|--------------------------------|

-11--11--11--9---9---9---9---9--|-13--13--13--11--11--11--11--11-|-11--11--11--9---9---9---9---9--|
-11--11--11--9---9---9---9---9--|-13--13--13--11--11--11--11--11-|-11--11--11--9---9---9---9---9--|
-11--11--11--10--10--10--10--10-|-13--13--13--11--11--11--11--11-|-11--11--11--10--10--10--10--10-|
--------------------------------|--------------------------------|--------------------------------|
--------------------------------|--------------------------------|--------------------------------|
--------------------------------|--------------------------------|--------------------------------|

 G#             D#/C      A#m                      G#             D#/C      A#m
-4--4--4--4--4--6--6--6-|-6--6--6--6--6--9--9--9-|-4--4--4--4--4--6--6--6-|-6--6--6--6--6--9--9--9-|
-4--4--4--4--4--4--4--4-|-6--6--6--6--6--6--6--6-|-4--4--4--4--4--4--4--4-|-6--6--6--6--6--6--6--6-|
-5--5--5--5--5--5--5--5-|-6--6--6--6--6--6--6--6-|-5--5--5--5--5--5--5--5-|-6--6--6--6--6--6--6--6-|
------------------------|------------------------|------------------------|------------------------|
------------------------|------------------------|------------------------|------------------------|
------------------------|------------------------|------------------------|------------------------|

  G#             D#/C        G#
--4--4--4--4--4--6--6--6--|--8----------------|------------------||
--4--4--4--4--4--4--4--4--|--9----------------|------------------||
--5--5--5--5--5--5--5--5--|--8----------------|------------------||
--------------------------|-------------------|------------------||
--------------------------|-------------------|------------------||
--------------------------|-------------------|------------------||


Verse - Guitar 2
(Nick actually uses different chord fingerings using the D and A string; however, these chords
 are rooted on the same position on the neck, and this tab sounds very close.)

     C#       D#m                                          Fm          F#
E||--4--4--4--6--6--6--6--6--|--6--6--6--4--4--4--4--4--|--8---8---8---9---9---9---9---9---|
B||--6--6--6--7--7--7--7--7--|--7--7--7--6--6--6--6--6--|--9---9---9---11--11--11--11--11--|
G||--6--6--6--8--8--8--8--8--|--8--8--8--6--6--6--6--6--|--10--10--10--11--11--11--11--11--|
D||--------------------------|--------------------------|----------------------------------|
A||--------------------------|--------------------------|----------------------------------|
E||--------------------------|--------------------------|----------------------------------|

--8---9---8---6--6--6--6--6--|--4--4--4--6--6--6--6--6--|--6--6--6--4--4--4--4--4--|
--9---11--9---7--7--7--7--7--|--6--6--6--7--7--7--7--7--|--7--7--7--6--6--6--6--6--|
--10--11--10--8--8--8--8--8--|--6--6--6--8--8--8--8--8--|--8--8--8--6--6--6--6--6--|
-----------------------------|--------------------------|--------------------------|
-----------------------------|--------------------------|--------------------------|
-----------------------------|--------------------------|--------------------------|

--8---8---8---9---9---9---9---9---|--8---9---8---6--6--6--6--6--|--4--4--4--6--6--6--6--6--|
--9---9---9---11--11--11--11--11--|--9---11--9---7--7--7--7--7--|--6--6--6--7--7--7--7--7--|
--10--10--10--11--11--11--11--11--|--10--11--10--8--8--8--8--8--|--6--6--6--8--8--8--8--8--|
----------------------------------|-----------------------------|--------------------------|
----------------------------------|-----------------------------|--------------------------|
----------------------------------|-----------------------------|--------------------------|
                                                           * see below
--6--6--6--4--4--4--4--4--|--8---8---8---6--6--6--6--6--|--6--6--6--4--4--4--4--4--|
--7--7--7--6--6--6--6--6--|--9---9---9---7--7--7--7--7--|--7--7--7--6--6--6--6--6--|
--8--8--8--6--6--6--6--6--|--10--10--10--8--8--8--8--8--|--8--8--8--6--6--6--6--6--|
--------------------------|-----------------------------|--------------------------|
--------------------------|-----------------------------|--------------------------|
--------------------------|-----------------------------|--------------------------|

 G#                       A#m         C#           G#                       A#m         C#
-4--4--4--4--4--4--4--4-|-6--6--6--6--4--4--4--4-|-4--4--4--4--4--4--4--4-|-6--6--6--6--4--4--4--4-|
-4--4--4--4--4--4--4--4-|-6--6--6--6--6--6--6--6-|-4--4--4--4--4--4--4--4-|-6--6--6--6--6--6--6--6-|
-5--5--5--5--5--5--5--5-|-6--6--6--6--6--6--6--6-|-5--5--5--5--5--5--5--5-|-6--6--6--6--6--6--6--6-|
------------------------|------------------------|------------------------|------------------------|
------------------------|------------------------|------------------------|------------------------|
------------------------|------------------------|------------------------|------------------------|

  G#                        G#
--4--4--4--4--4--4--4/---|--8----------------||
--4--4--4--4--4--4--4/---|--9----------------||
--5--5--5--5--5--5--5/---|--8----------------||
-------------------------|-------------------||
-------------------------|-------------------||
-------------------------|-------------------||

* There is a little hammer-on/pull-of line here but it's buried in the mix and
I'm not sure what Nick plays.


Solo - Guitar 1

    G#     F#          Fm   D#m  C#             F#
E||-8------6---------|-13---11---9-----------|--9-----------9----11---11/13--|--9-----------------|
B||-9------7---------|-13---11---9-----------|--11------11--11---11---11/13--|--9-----------------|
G||-8------6---------|-13---11---10----------|--11------11--11---11---11/13--|--10----------------|
D||------------------|-----------------------|-------------------------------|--------------------|
A||------------------|-----------------------|-------------------------------|--------------------|
E||------------------|-----------------------|-------------------------------|--------------------|

  G#     F#
--8------6----------|--13---11---9-----------|--9-----------9----11---11/13--|--9-----------------|
--9------7----------|--13---11---9-----------|--11------11--11---11---11/13--|--9-----------------|
--8------6----------|--13---11---10----------|--11------11--11---11---11/13--|--10----------------|
--------------------|------------------------|-------------------------------|--------------------|
--------------------|------------------------|-------------------------------|--------------------|
--------------------|------------------------|-------------------------------|--------------------|

--9/---4------------||
--------------------||
--------------------||
--------------------||
--------------------||
--------------------||


Solo - Guitar 2 (x4)

     F#                         C#
E||--6--6--6--6--6--6--6--6--|--4--4--4--4--4--4--4--4--||
B||--7--7--7--7--7--7--7--7--|--6--6--6--6--6--6--6--6--||
G||--6--6--6--6--6--6--6--6--|--6--6--6--6--6--6--6--6--||
D||--------------------------|--------------------------||
A||--------------------------|--------------------------||
E||--------------------------|--------------------------||


Outro - Guitar 1

E||--13------11--------14--|--13--11--9-------------||
B||--13------11--------14--|--13--11--9-------------||
G||--13------11--------15--|--13--11--10------------||
D||------------------------|------------------------||
A||------------------------|------------------------||
E||------------------------|------------------------||

Outro - Guitar 2

E||--8-------6--------9---|--8---6--4------------||
B||--9-------7--------11--|--9---7--6------------||
G||--10------8--------11--|--10--9--6------------||
D||-----------------------|----------------------||
A||-----------------------|----------------------||
E||-----------------------|----------------------||


Title: The Way It Is

Chords:
     B    B7   F#   F#(2) F#7   E
E||--7----7----2----------2-------------|
B||--7----7----2----11----2-----9-------|
G||--8----8----3----11----3-----9-------|
D||--9----7----4----11----4-----9-------|
A||--9----9----4----9-----4-----7-------|
E||--7----7----2----------2-------------|


 x4

     B     B7
E||--7--7--7--7----7--7--7----7--7--7--7--7--7--7--|
B||--7--7--7--7----7--7--7----7--7--7--7--7--7--7--|
G||--8--8--8--8----8--8--8----8--8--8--8--8--8--8--|
D||--9--9--7--9----9--7--9----9--7--9--9--9--7--9--|
A||--9--9--9--9----9--9--9----9--9--9--9--9--9--9--|
E||--7--7--7--7----7--7--7----7--7--7--7--7--7--7--|

 (listen for timing)
    She   was    asleep    and     the    problem   would    stay...
E||-------------------------------------------|------------------------------------------||
B||-----9-------------------------------------|------------------------------------------||
G||--9---------11--------8--11p--8--9---------|---6--9p--6--8--------6--9p---6--8--------||
D||-------------------------------------------|------------------------------------------||
A||-------------------------------------------|------------------------------------------||
E||-------------------------------------------|------------------------------------------||

 - just strums E chord



     I wish it was not true... but that's the way it is.
     B                          F#
E||--7--7--7--7--7--7--7--7--|--2--2--2--2--2--2--2--2--||
B||--7--7--7--7--7--7--7--7--|--2--2--2--2--2--2--2--2--||
G||--8--8--8--8--8--8--8--8--|--3--3--3--3--3--3--3--3--||
D||--9--9--9--9--9--9--9--9--|--4--4--4--4--4--4--4--4--||
A||--9--9--9--9--9--9--9--9--|--4--4--4--4--4--4--4--4--||
E||--7--7--7--7--7--7--7--7--|--2--2--2--2--2--2--2--2--||


     B                          F#
E||--7--7--7--7--7--7--7--7--|----------------------------------||
B||--7--7--7--7--7--7--7--7--|--11--11--11--11--11--11--11--11--||
G||--8--8--8--8--8--8--8--8--|--11--11--11--11--11--11--11--11--||
D||--9--9--9--9--9--9--9--9--|--11--11--11--11--11--11--11--11--||
A||--9--9--9--9--9--9--9--9--|--9---9---9---9---9---9---9---9---||
E||--7--7--7--7--7--7--7--7--|----------------------------------||



E||-------------------------------------------------------|
B||-------------------------------------------------------|
G||-------------------------------------------------------|
D||--9--9--9--9----9--9--9/-13--13--13--13--11--11--9--9--|
A||-------------------------------------------------------|
E||--7--7--7--7----7--7--7/-11--11--11--11--9---9---7--7--|

E||-------------------------------------------------------|
B||-------------------------------------------------------|
G||-------------------------------------------------------|
D||--9--9--9--9----9--9--9/-13--13--13--13--11--11--9--9--|
A||-------------------------------------------------------|
E||--7--7--7--7----7--7--7/-11--11--11--11--9---9---7--7--|

E||-------------------------------------------------|
B||-------------------------------------------------|
G||-------------------------------------------------|
D||--4--4--4--4----4--4--4/-8--8--8--8--6--6--4--4--|
A||-------------------------------------------------|
E||--2--2--2--2----2--2--2/-6--6--6--6--4--4--2--2--|

E||-------------------------------------------------------|
B||-------------------------------------------------------|
G||-------------------------------------------------------|
D||--8--8--8--8----8--8--8/-13--13--13--13--11--11--9--9--|
A||-------------------------------------------------------|
E||--6--6--6--6----6--6--6/-11--11--11--11--9---9---7--7--|
                            * Gtr. 1 ends break here with F# octave strummed twice.



     B     B7
E||--7--7--7--7----7--7--7----7--7--7--7--7--7--7--|
B||--7--7--7--7----7--7--7----7--7--7--7--7--7--7--|
G||--8--8--8--8----8--8--8----8--8--8--8--8--8--8--|
D||--9--9--7--9----9--7--9----9--7--9--9--9--7--9--|
A||--9--9--9--9----9--9--9----9--9--9--9--9--9--9--|
E||--7--7--7--7----7--7--7----7--7--7--7--7--7--7--| x2

  F#    F#7
--2--2--2--2----2--2--2----2--2--2--2--2--2--2--|
--2--2--2--2----2--2--2----2--2--2--2--2--2--2--|
--3--3--3--3----3--3--3----3--3--3--3--3--3--3--|
--4--4--2--4----4--2--4----4--2--4--4--4--2--4--|
--4--4--4--4----4--4--4----4--4--4--4--4--4--4--|
--2--2--2--2----2--2--2----2--2--2--2--2--2--2--| x2
                           * Gtr. 2 ends break here with F# chord strummed twice.

Song Structure
- Intro  (x4)
- Verse  (x1)
- Intro  (x2)
- Verse  (x2)
- Chorus (x3)
- Verse  (x1)
- Break  (x2)
- Verse  (x2)
- Chorus (x4)
* both guitars end with F# chord


Email me with comments/questions - wmfulton6@hotmail.com

* Don't forget to turn off word-wrap.

Song    what ever happened?

 chorus
|---------------------------|
|-------9-----5-----9-------|
|-8-----9-----6-----9-------|
|-9-----9-x16-6-x16-9-x16---| x2
|-9-x16-7-----4-----7-------|
|-7-------------------------|

|---------|
|-8-------|
|-9-------|
|-9-x32---|
|-7-------|
|---------|
 
|-------------------------------|
|-9--------------9--------------|
|--8-11--8---------8----11-8----|
|----------11-9------9-------9--| x2
|-------------------------------|
|-------------------------------|

|-------------------------------|
|-12-9-11---/14-11-11/12--11-9--|
|---8-8--------8--8-------------|
|-------------------------------| x2
|-------------------------------|
|-------------------------------|
 
|------------------------------------------|
|-----------999-----------------999--------|
|-888-88888-999-88888-888-88888-999-88888--|
|-999-88888-999-99999-999-88888-999-99999--| x2
|-999-99999-----99999-999-99999-----99999--|
|------------------------------------------|
 
|------------------------------------------|
|-----------555-44444-----------555-44444--|
|-444-33333-666-44444-444-33333-666-44444--|
|-444-44444-666-44444-444-44444-666-44444--| x2
|-222-22222-444-------222-22222-444--------|
|------------------------------------------|
 
|------------------------------------------|
|-----------999-----------------999--------|
|-888-88888-999-88888-888-88888-999-88888--|
|-999-88888-999-99999-999-88888-999-99999--| x2
|-999-99999-----99999-999-99999-----99999--|
|------------------------------------------|

|-------------------|
|-------------------|
|-444-333333333333--|
|-444-444444444444--|
|-222-222222222222--|
|-------------------|

|---------------------|
|-------9-------------|
|-8-----9-x32---------|
|-9-x16--------6-x32--|
|---------------------|
|---------------------|

 play the chorus again.


And Then Play And Hold This Chord
e|-8--------------|
B|-8--------------|
G|-9--------------|
D|-10-------------|
A|----------------|
E|----------------|

The Song's Over Now


YOU TALK WAY TOO MUCH

Intro-Guitar 2

E----------------------------------------------|
B----------------------------------------------|
G------------------------6-6-6---9--9--9--9----|
D--6-6-6---9--9--9--9----7-7-7--10-10-10-10----|
A--7-7-7--10-10-10-10----7-7-7--10-10-10-10----|
E--7-7-7--10-10-10-10--------------------------|

Intro-Guitar 1(corresponds with Guitar 2's chords)

E----------------------------------------------|
B----------------------------------------------|
G----------------------------------------------|
D------------------------11~~~~~~14b~~~~~~~~~--|
A--11~~~~~~14~~~~~~~~--------------------------|
E----------------------------------------------|

Verse- Guitar 1

E--------------------------------------------------------------------------|
B--------------------------------------------------------------------------|
G--------------------------------------------------------------------------|
D--13---11----13-11-13-11-11---11----11----11--------LISTEN TO TIMING------|
A---------------------------------14----14----14---------------------------|
E--------------------------------------------------------------------------|

Verse-Guitar 2

E---------------------------------|
B---------------------------------|
G---------------------------------|
D--7----------2-------------------|
A--5--x16-----2--x16--------------|
E--5----------0-------------------|

Interlude

E------------------|
B------------------|
G--1---------------|
D--2--x30----------|
A--2---------------|
E------------------|

Chorus-Guitar 2

E-------------------------------------------------------------|
B-------------------------------------------------------------|
G------------------------------6------9------6------8---------|
D--6------9------6------7------7--x8--7--x8--7--x8--9--x8-----|
A--7--x8--9--x8--7--x8--7--x8--7------0------7------9---------|
E--7------7------7------5-------------------------------------|

Chorus-Guitar 1(Each part is played with each second chord hit by Guitar 2)

E-------------------------------------------------------------|
B-------------------------------------------------------------|
G-------------------------------------------------------------|
D---------13~~~~~~--13~~~~s11---13~~~~s11---13~~~~s11---------|
A-------------------------------------------------------------|
E-------------------------------------------------------------|


Solo-Guitar 1

E--12-11-9--12-11-9--12-11-9--14-12-11-9-----|
B--------------------------------------------|
G--------------------------------------------|
D--------------------------------------------|
A--------------------------------------------|
E--------------------------------------------|

E--16-16-12-14-12-16-16-12-14---16-16-12-14-12-16-16-12-14----|
B-------------------------------------------------------------|
G-------------------------------------------------------------|
D-------------------------------------------------------------|
A-------------------------------------------------------------|
E-------------------------------------------------------------|

Solo-Guitar 2-Played in background of Guitar 1(hard to hear)

E-------------------------------------------------------------|
B-------------------------------------------------------------|
G-------------------------------------------------------------|
D--13-~~~~11~~~~~13~~~~~11~~~~~~11~~~~~~14~~~~~11~~~~~14~~~~~-|
A-------------------------------------------------------------|
E-------------------------------------------------------------|


GUITAR 1

INTRO     (x4)
VERSE     (x4)
INTERLUDE (x0)
CHORUS    (x1)
SOLO      (x2)
VERSE     (x4)
INTERLUDE (x0)
CHORUS    (x2)
INTRO     (x4)

GUITAR 2

INTRO     (x4)
VERSE     (x4)
INTERLUDE (x1)
CHORUS    (x1)
SOLO      (x2)
VERSE     (x4)
INTERLUDE (x1)
CHORUS    (x2)-Note:(The first time you play the chorus play the las
chord  (F# chord) eight more times than usual, for a total of sixteen times.)
INTRO     (x4)

END WITH E--------|
         B--------|
         G--------|
         D-6------|
         A-7-HOLD-|
         E-7------|
comments
print report bad tab
3 comments total.
0 reply
wasp2020 wrote on December 14 2006, 05:35 pm

Many thigns wrong (just off the top of my head, the Automatic Stop chorus and the End Has No End chorus riff), but why is New York City Cops here, and no Reptilia?

0 reply
Lydian_Mode wrote on December 14 2006, 05:48 pm

and no Whatever Happened?

0 reply
Akonite wrote on January 13 2007, 01:13 pm

not complete
barely accurate
and nycc isnt even on room on fire....

I want to post or [tab]
guest
You may want to rate the tab now too:
select rating
Please do not post tabs as comments. Select "correction" instead!