Oops, an error
Loading. Please wait.

Blueprint Of The Fall Tab

4,777 views 6 this week
1 commentread comment
1 2 3 4 5
excellent!
x 5
Autoscroll
+/-
esc
set tempo
stop
Contributor
WARNING: You are trying to view
                                    content from Ultimate-Guitar.com
                                    in an unauthorized application,
                                    which is prohibited.

                                    Please use an official Ultimate
                                    Guitar Tabs application for iPhone,
                                    iPad or Android to access legitimate
                                    chords, guitar, bass, and drum tabs
                                    from Ultimate-Guitar.com database.

                                    Type "ultimate guitar tabs" in Apple
                                    App Store's or Android Market's
                                    search to find the application.
DGCFAD


Intro
D-|-------------|X2|----------------|---------------------------------->
A-|-------5p0---3p0-----------------|-------5p0---3p0------------------>
F-|-------------------5p0---4p0-----|-------------------5p0---4p0------>
C-|-0h2-2-----2-----2-----2-----4/5-|-----------------------------4/5-->
G-|---------------------------------|-2/3-3-----3-----3-----2---------->
D-|---------------------------------|----------------------------------> 

Into: cont            p=pull off
>-----------------------------------|
>---------5p0---3p0-----------------|
>---------------------5p0---4p0-----|
>-------------------------------4p0-|
>---2/3-3-----3-----3-----2---------|


  m=palm-mute    c=pinch harmonics(only A plays)
D---------------------------------------m-m-m-m-m----------------->
A----------------------------------------------------------------->
F---9--7--9--7--9---11-11-12---12--\-5---------------------------->
C---9--9--9--9--9---12-12-12---12--\-5--5-5-5-5-5--5-4-0-4-------->
G---7-----7-----7----9--9-10---10--\-3--3-3-3-3-3-----------3-3c-->
D----------------------------------------------------------------->


>---m-m-m-m-m-m---------------------|
>-----------------------------------|
>-----------------------------------|
>---5-5-5-5-5-5--5-4-0-7-5-0-5-4-0--|
>---3-3-3-3-3-3---------------------|
>-----------------------------------|

 verse    #=play 32X palm-muted    e=bend-up half-step  r=release bend
D------------------------------------------------------------------>
A----------------------------------5--5--3---5--3--5--5--3--------->
F----------------------------------5--5--5---5--5--5--5--5--4erer-->
C----#------------------------------------------------------------->
G---2-------------------------------------------------------------->
D---0--------------------------------------------------------------> 

 verse   #=play 32X palm-muted   c=pinch harmonics
>--------------------------------------------------3---2c--0-------|
>----------------------------------5--5--3---5--3--------------3---|
>----------------------------------5--5--5---5--5------------------|
>----#-------------------------------------------------------------|
>---2--------------------------------------------------------------|
>---0--------------------------------------------------------------|

then go back to intro...ull get it

 verse2 x1   #=play 32X palm-muted    
D------------------------------------------------------------------------>
A----------------------------------5--5--3---5--3--5--5--3--------------->
F----------------------------------5--5--5---5--5--5--5--5--------------->
C----#------------------------------------------------------4-5-4-5-4-2-->
G---2--------------------------------------------------------------------> 
D---0-------------------------------------------------------------------->


 verse x1     #=play 32X palm-muted    
>-------------------------------------------------10---8---7---5---|
>----------------------------------5--5--3---5--3------------------|
>----------------------------------5--5--5---5--5------------------|
>----#-------------------------------------------------------------|
>---2--------------------------------------------------------------|
>---0--------------------------------------------------------------|


   chorus  X2
D-----------------------------------------------------------------------|
A---5----------------3----------------3----------------3-------3--------|
F---4----------------0----------------2----------------0-------2--------|
C---2----------------x----------------0----------------x-------0--------|
G---2----------------3---------------------------------3----------------|
D---0-------------------------------------------------------------------|


 post-chorus  X2
D-----------------------------------------------------------------------------|
A-5---5---3---5---5---0---5---5---3---0---0--------3-----------------3--------|
F---------------------------0---0---0---0-------0-----0-----------0-----0-----|
C--------------------------------------------0-----------0-----0-----------0--|
G-----------------------------------------------------------------------------|
D-----------------------------------------------------------3----------------3|



  slowdown  X2   *=play 5-8X    ("And I walk among..")
D----*------------------------------------------------------------------|
A---3-----------------*----------------*----------------*---------------|
F---4----------------5----------------7----------------5-----------7-7--|
C---2----------------5----------------7----------------5-----------7-7--|
G---2----------------3----------------5----------------5-----------5-5--|
D---0----------------3----------------5----------------3-----------5-5--|



  calm part    *=play 5-8X   guitar 2 is quiet!
D---/-X-4-\---------------------------------|
A--------------*-------------*--------------|
F---9-9-7-7--12------------11---------------|
C---9-9-9-9--12------------12---------------|
G---7-7-7-7--10-------------9---------------|
D-------------------------------------------|



  solo   !HARD!   
D----------------14----151412-------------------------------------------------->
A----------/12---------------13121312------------12---------------------------->
F---/9-------------------------------141211121112-----14121112111211--1211----->
C-------------------------------------------------------------------14----14--->
G------------------------------------------------------------------------------>
D------------------------------------------------------------------------------>

   solo    b=bend-up one-step  k=keep bending
>------------------------------------------------------------------------------>
>------------------------------------------------------------------------------>
>------------------------------------------------------------------------------>
>--12-9--12-9-----9--------------9-----------------------------------7--7bkk--->
>------12------12--12101210-9-12--12101210-9--910-9----/9---7---7/10----------->
>--------------------------------------------------12-------------------------->

  solo 
>----------------------------------------------------------------------->
>----------------------------------------------------------------------->
>----------------------------------------------------------------------->
>-------7--------------5750-4540-2420-4540-5750-4540-5750-797--79--7---->
>---10----10--7-10--7--------------------------------------------------->
>----------------------------------------------------------------------->

  solo    b=bend-up one-step  
>---17b-----15--------15--------15--------15--------15--------15-------->
>----------------19--------15------------------19--------15------------->
>------------------------------------17----------------------------17--->
>----------------------------------------------------------------------->
>----------------------------------------------------------------------->
>----------------------------------------------------------------------->

  solo   e=bend-up half-step   r=release bend
>---15--------15------------------------------------------------------->
>--------17--------12---10---12-13-15131213121012er10-1210-8--10-8-7--->
>---------------------------------------------------------------------->
>---------------------------------------------------------------------->
>---------------------------------------------------------------------->
>---------------------------------------------------------------------->

  solo   b=bend-up one-step   r=release bend
>------------------------------------------------------------------------------>
>---7-8-7-----7-8-7-810-8-710-8-10br-810-8101210121310-1210-12-13151312131210-->
>---------9-7------------------------------------------------------------------>
>------------------------------------------------------------------------------>
>------------------------------------------------------------------------------>
>------------------------------------------------------------------------------>

 solo 
>------------------------------------------------------------------->
>---121012--101210-0--810-8-0--7-8-7-0--810-8-0--7-8-7-0--5-7-5-0--->
>------------------------------------------------------------------->
>------------------------------------------------------------------->
>------------------------------------------------------------------->
>------------------------------------------------------------------->

  solo   v=vibrato
>-------------------------------------|
>---101210-0--810-8-0--7-8-7-0--7vv---| 
>-------------------------------------| 
>-------------------------------------|
>-------------------------------------|
>-------------------------------------|

  chorus 
D-----------------------------------------------------------------------|
A---5----------------3----------------3----------------3-------3--------|
F---4----------------0----------------2----------------0-------2--------|
C---2----------------x----------------0----------------x-------0--------|
G---2----------------3---------------------------------3----------------|
D---0-------------------------------------------------------------------|

 Slowdown x2
D----*------------------------------------------------------------------|
A---3-----------------*----------------*----------------*---------------|
F---4----------------5----------------7----------------5-----------7-7--|
C---2----------------5----------------7----------------5-----------7-7--|
G---2----------------3----------------5----------------5-----------5-5--|
D---0----------------3----------------5----------------3-----------5-5--|

   outro X2  *=play 5-8X    
D--------3-----------3-------*----------------------------|
A---3-3--3---3--3-3--3---3--3-------------3-3--3-3-3--3---|
F---0-0---------0-0---------2-------------0-0--0-2-2--2---|
C---x-x---------x-x---------0-------------x-x--x-0-0--0---|
G---3-3---------3-3-----------------------3-3--3----------|
D---------------------------------------------------------|


  outro 2   >>>=pick-slide
D-------------------------------------------------|
A-------------------------------------------------|
F---7---------------------------------------------|
C---9-----------5-----------7-------------2-------|
G---7-----------3-----------5------>>>>>>-2-------|
D---0------------------------------>>>>>>-0-------|



Guitar 2: Rob Ramos



  intro   %=pause
D-|-------------|X2|----------------|-------------|X2|-----------------|
A-|-------%%%%%%%%%%%%%%%%%%%%%%%%%-|-------%%%%%%%%%%%%%%%%%%%%%%%%%--|
F-|-------%%%%%%%%%%%%%%%%%%%%%%%%%-|-------%%%%%%%%%%%%%%%%%%%%%%%%%--|
C-|-7-999-%%%%%%%%%%%%%%%%%%%%%%%%%-|-4-555-%%%%%%%%%%%%%%%%%%%%%%%%%--|
G-|-5-777-%%%%%%%%%%%%%%%%%%%%%%%%%-|-2-333-%%%%%%%%%%%%%%%%%%%%%%%%%--|
D-|-------%%%%%%%%%%%%%%%%%%%%%%%%%-|-------%%%%%%%%%%%%%%%%%%%%%%%%%--| 


  intro-part2   ?=play 16X palm-muted   h=hammer-on   p=pick-off
D---------------------------------------------------------------------->
A-------------------------------------------5p0---3p0------------------>
F-------------------------------------------------------5p0---4p0------>
C----?--------------------------------0h2-2-----2-----2-----2-----4/5-->
G---2------------------------------------------------------------------>
D---0------------------------------------------------------------------> 

 intro-part2    
>----------------------------------------------------------------------|
>-------------------------------------------5p0---3p0------------------|
>----?--------------------------------------------------5p0---4p0------|
>---5-------------------------------------------------------------4p0--|
>---3---------------------------------2/3-3-----3-----3-----2----------|
>----------------------------------------------------------------------|


  intro2    m=palm-mute    c=pinch harmonics(only guitar 1 plays)
D---------------------------------------m-m-m-m-m----------------->
A----------------------------------------------------------------->
F---9--7--9--7--9---11-11-12---12--\-5---------------------------->
C---9--9--9--9--9---12-12-12---12--\-5--5-5-5-5-5--5-4-0-4-------->
G---7-----7-----7----9--9-10---10--\-3--3-3-3-3-3-----------3-3c-->
D----------------------------------------------------------------->

  intro2 
>---m-m-m-m-m-m---------------------|
>-----------------------------------|
>-----------------------------------|
>---5-5-5-5-5-5--5-4-0-7-5-0-5-4-0--|
>---3-3-3-3-3-3---------------------|
>-----------------------------------|


  verse    #=play 32X palm-muted    e=bend-up half-step  r=release bend
D------------------------------------------------------------------>
A----------------------------------5--5--3---5--3--5--5--3--------->
F----------------------------------5--5--5---5--5--5--5--5--4erer-->
C----#------------------------------------------------------------->
G---2-------------------------------------------------------------->
D---0--------------------------------------------------------------> 

  verse    #=play 32X palm-muted   c=pinch harmonics
>--------------------------------------------------3---2c--0-------|
>----------------------------------5--5--3---5--3--------------3---|
>----------------------------------5--5--5---5--5------------------|
>----#-------------------------------------------------------------|
>---2--------------------------------------------------------------|
>---0--------------------------------------------------------------|

  back to intro-part2  ?=play 16X palm-muted   h=hammer-on   p=pick-off
D---------------------------------------------------------------------->
A-------------------------------------------5p0---3p0------------------>
F-------------------------------------------------------5p0---4p0------>
C----?--------------------------------0h2-2-----2-----2-----2-----4/5-->
G---2------------------------------------------------------------------>
D---0------------------------------------------------------------------> 

  back to intro-part2   
>----------------------------------------------------------------------|
>-------------------------------------------5p0---3p0------------------|
>----?--------------------------------------------------5p0---4p0------|
>---5-------------------------------------------------------------4p0--|
>---3---------------------------------2/3-3-----3-----3-----2----------|
>----------------------------------------------------------------------|

   verse2 x1    #=play 32X palm-muted    
D------------------------------------------------------------------------>
A----------------------------------5--5--3---5--3--5--5--3---------------> 
F----------------------------------5--5--5---5--5--5--5--5--------------->
C----#------------------------------------------------------4-5-4-5-4-2-->
G---2-------------------------------------------------------------------->
D---0-------------------------------------------------------------------->

  verse2 x1    #=play 32X palm-muted    m=palm-mute
>------------------------------------------------------------------|
>----------------------------------5--5--3---5--3--5-------7-------|
>----------------------------------5--5--5---5--5--5-------7-------|
>----#---------------------------------------------5--5-5--7-------|
>---2--------------------------------------------------------------|
>---0-------------------------------------------------m-m----------|

   chorus  X2
D-----------------------------------------------------------------------|
A---5----------------3----------------3----------------3-------3--------|
F---4----------------0----------------2----------------0-------2--------|
C---2----------------x----------------0----------------x-------0--------|
G---2----------------3---------------------------------3----------------|
D---0-------------------------------------------------------------------|


   post-chorus  X2
D------------------------------------------------------------------------------|
A--5---5---3---5---5---0---5---5---3---0---0--------3-----------------3--------|
F----------------------------0---0---0---0-------0-----0-----------0-----0-----|
C---------------------------------------------0-----------0-----0-----------0--|
G------------------------------------------------------------------------------|
D------------------------------------------------------------3----------------3|


   slowdown  X2   *=play 5-8X    ("And I walk among..")
D----*------------------------------------------------------------------|
A---3-----------------*----------------*----------------*---------------|
F---4----------------5----------------7----------------5-----------7-7--|
C---2----------------5----------------7----------------5-----------7-7--|
G---2----------------3----------------5----------------5-----------5-5--|
D---0----------------3----------------5----------------3-----------5-5--|

           this is played during solo
   
intro2    m=palm-mute    c=pinch harmonics(only A plays)
D---------------------------------------m-m-m-m-m----------------->
A----------------------------------------------------------------->
F---9--7--9--7--9---11-11-12---12--\-5---------------------------->
C---9--9--9--9--9---12-12-12---12--\-5--5-5-5-5-5--5-4-0-4-------->
G---7-----7-----7----9--9-10---10--\-3--3-3-3-3-3-----------3-3c-->
D----------------------------------------------------------------->

  intro2 #A&B
>---m-m-m-m-m-m---------------------|
>-----------------------------------|
>-----------------------------------|
>---5-5-5-5-5-5--5-4-0-7-5-0-5-4-0--|
>---3-3-3-3-3-3---------------------|
>-----------------------------------|

  verse x2   #=play 32X palm-muted    e=bend-up half-step  r=release bend
D------------------------------------------------------------------>
A----------------------------------5--5--3---5--3--5--5--3--------->
F----------------------------------5--5--5---5--5--5--5--5--4erer-->
C----#------------------------------------------------------------->
G---2-------------------------------------------------------------->
D---0--------------------------------------------------------------> 

             Last part of solo

 solo-bg #B   #=play 32X palm-muted    %=pause
D------------------------------------%%%%%%%%%%%%%%--%%%%%%%%%%%%%%--|
A------------------------------------%%%%%%%%%%%%%%--%%%%%%%%%%%%%%--|
F------------------------------------%%%%%%%%%%%%%%--%%%%%%%%%%%%%%--|
C----#-----------------------------5-%%%%%%%%%%%%%%7-%%%%%%%%%%%%%%--|
G---2------------------------------3-%%%%%%%%%%%%%%5-%%%%%%%%%%%%%%--|
D---0------------------------------3-%%%%%%%%%%%%%%5-%%%%%%%%%%%%%%--|


  post-chorus2   guitar 1 plays chorus
D-----------------------------------------------------------------------10-----|
A--5---5---3---5---5---0---5---5---3---0---0--------3-----------------8--------|
F----------------------------0---0---0---0-------0-----0-----------0-----------|
C---------------------------------------------0-----------0-----0--------------|
G------------------------------------------------------------------------------|
D------------------------------------------------------------3-----------------|

 slowdown  X2   *=play 5-8X    
D----*------------------------------------------------------------------|
A---3-----------------*----------------*----------------*---------------|
F---4----------------5----------------7----------------5-----------7-7--|
C---2----------------5----------------7----------------5-----------7-7--|
G---2----------------3----------------5----------------5-----------5-5--|
D---0----------------3----------------5----------------3-----------5-5--|


   outro  X2  *=play 5-8X    
D--------3-----------3-------*----------------------------|
A---3-3--3---3--3-3--3---3--3-------------3-3--3-3-3--3---|
F---0-0---------0-0---------2-------------0-0--0-2-2--2---|
C---x-x---------x-x---------0-------------x-x--x-0-0--0---|
G---3-3---------3-3-----------------------3-3--3----------|
D---------------------------------------------------------| 

 outro2 
D-----15-14-------15-14-------15-14---------------|
A-----------17----------17----------17-17---------|
F--------------16----------16------------16-------|
C-------------------------------------------------|
G-------------------------------------------------|
D-------------------------------------------------|


comments
print report bad tab
1 comment total.
0 reply
W.h.o.r.EGuitar wrote on February 5 2008, 08:41 am

dude you are badass for tabbing this,FIVE STARS!
awesome solo isn't it?
a bit hard but i got it now.

I want to post or [tab]
guest
You may want to rate the tab now too:
select rating
Please do not post tabs as comments. Select "correction" instead!