Oops, an error
Loading. Please wait.

Matchbook Tab

ver1
ver1

Whole song

Interactive

More versions @911Tabs.com
6,836 views 21 this week
3 commentsread comments
1 2 3 4 5
accurate
x 3
Autoscroll
+/-
esc
set tempo
stop
WARNING: You are trying to view
                                    content from Ultimate-Guitar.com
                                    in an unauthorized application,
                                    which is prohibited.

                                    Please use an official Ultimate
                                    Guitar Tabs application for iPhone,
                                    iPad or Android to access legitimate
                                    chords, guitar, bass, and drum tabs
                                    from Ultimate-Guitar.com database.

                                    Type "ultimate guitar tabs" in Apple
                                    App Store's or Android Market's
                                    search to find the application.
MATCHBOOK - Strung Out
-------------------------------------------------------------------------------

By:  Gary(TheAtaris07@aol.com)
     Kurt Huff(strungoutdvs@hotmail.com)
     Dale Kozarsky

FULL D TUNING!

PM... - palm mute
/ \ - slide
~ - let ring out


Intro:  Guitar 1  (10x)
e|2---2---5---5---2----------------------------------------------------------|
B|--3---3---3---3---3-5-3---3---3--------------------------------------------|
G|------------------------2---0----------------------------------------------|
D|---------------------------------------------------------------------------|
A|---------------------------------------------------------------------------|
E|---------------------------------------------------------------------------|
  PM.............................

Intro:  Guitar 2  (2x)
e|---------------------------------------------------------------------------|
B|---------------------------------------------------------------------------|
G|4-4-4-4-4-4-4-4-----------------7-7-7-7-7-7-7-7----------------------------|
D|4-4-4-4-4-4-4-4-5-5-5-5-5-5-5-5-7-7-7-7-7-7-7-7-7-7-7-7-7-7-7-7------------|
A|2-2-2-2-2-2-2-2-5-5-5-5-5-5-5-5-5-5-5-5-5-5-5-5-7-7-7-7-7-7-7-7------------|
E|----------------3-3-3-3-3-3-3-3-----------------5-5-5-5-5-5-5-5------------|

Verse:  Guitar 1  "I can see it in your..."  (2x)
e|-----3~---3-----3-----3---3-----3-----3------------------------------------|
B|-----3~-----2-----2-----2---2-----2-----2----------------------------------|
G|4~---0~-------3-----3---------3-----3--------------------------------------|
D|4~-----------------------------------------7~------------------------------|
A|2~-----------------------------------------7~------------------------------|
E|-------------------------------------------5~------------------------------|
           PM..............................

Verse:  Guitar 2  "I can see it in your..."  (2x)
e|-----3~---3-3-3-----------3-3-3--------------------------------------------|
B|-----3~---------2-2-2-----------2-2-2--------------------------------------|
G|4~---0~---------------3-3-------------3-3----------------------------------|
D|4~-----------------------------------------7~------------------------------|
A|2~-----------------------------------------7~------------------------------|
E|-------------------------------------------5~------------------------------|
            PM.............................

Chorus:  Both Guitars  "Don't look back..."
e|---------------------------------------------------------------------------|
B|---------------------------------------------------------------------------|
G|4-4-4-4-4-7-7-7-7-7-7-----------------7/9\7--4-4-4-4-4-7-7-7-7-7-7---------|
D|4-4-4-4-4-7-7-7-7-7-7-5-5-5-5-5-7-7-7-x-x-x--4-4-4-4-4-7-7-7-7-7-7---------|
A|2-2-2-2-2-5-5-5-5-5-5-5-5-5-5-5-7-7-7-5/7\5--2-2-2-2-2-5-5-5-5-5-5---------|
E|----------------------3-3-3-3-3-5-5-5--------------------------------------|
      PM...       PM.                              PM.  

Chorus Cont'd:  Both Guitars
e|---------------------------------------------------------------------------|
B|---------------------------------------------------------------------------|
G|----------------------4-4-4-4-4-4-------------7-7-7-7-7-7------------------|
D|7-7-7-7-7-5-5-5-5-5-5-4-4-4-4-4-4-5-5-5-5-5-5-7-7-7-7-7-7-7-7-7-5-5-5------|
A|7-7-7-7-7-5-5-5-5-5-5-2-2-2-2-2-2-5-5-5-5-5-5-5-5-5-5-5-5-7-7-7-5-5-5------|
E|5-5-5-5-5-3-3-3-3-3-3-------------3-3-3-3-3-3-------------5-5-5-3-3-3------|

Chorus Cont'd:  Both Guitars
e|---------------------------------------------------------------------------|
B|---------------------------------------------------------------------------|
G|4-4-4-4-4-4-7-7-7-7-7-7-------------------------------------4-4-4-4-4-4----|
D|4-4-4-4-4-4-7-7-7-7-7-7-7-7-7-5-5-5-4-4-4-4-4-4-5-5-5-5-5-5-4-4-4-4-4-4----|
A|2-2-2-2-2-2-5-5-5-5-5-5-7-7-7-5-5-5-4-4-4-4-4-4-5-5-5-5-5-5-2-2-2-2-2-2----|
E|------------------------5-5-5-3-3-3-2-2-2-2-2-2-3-3-3-3-3-3----------------|
                            PM.   PM.   PM.......   PM.......   PM.......

Chorus Cont'd:  Both Guitars
e|---------------------------------------------------------------------------|
B|---------------------------------------------------------------------------|
G|2-2-2-2-2-2-7-7-7-7-7-7----------------------------------------------------|
D|2-2-2-2-2-2-7-7-7-7-7-7-5-5-7~---------------------------------------------|
A|0-0-0-0-0-0-5-5-5-5-5-5-5-5-7~---------------------------------------------|
E|------------------------3-3-5~---------------------------------------------|
    PM.......   PM.......

Repeat Intro

Repeat Verse

2nd Chorus:  Both Guitars  "Don't look back..."
e|---------------------------------------------------------------------------|
B|---------------------------------------------------------------------------|
G|4-4-4-4-4-7-7-7-7-7-7-----------------7/9\7--4-4-4-4-4-7-7-7-7-7-7---------|
D|4-4-4-4-4-7-7-7-7-7-7-5-5-5-5-5-7-7-7-x-x-x--4-4-4-4-4-7-7-7-7-7-7---------|
A|2-2-2-2-2-5-5-5-5-5-5-5-5-5-5-5-7-7-7-5/7\5--2-2-2-2-2-5-5-5-5-5-5---------|
E|----------------------3-3-3-3-3-5-5-5--------------------------------------|
      PM...       PM.                              PM.  

2nd Chorus Cont'd:  Both Guitars
e|---------------------------------------------------------------------------|
B|---------------------------------------------------------------------------|
G|------------------------------------4-4-4-4-4-4-4-2-2-2-2-2-2-7-7-7-7-7-7--|
D|7-7-7-5-5-5-4-4-4-4-4-4-5-5-5-5-5-5-4-4-4-4-4-4-4-2-2-2-2-2-2-7-7-7-7-7-7--|
A|7-7-7-5-5-5-4-4-4-4-4-4-5-5-5-5-5-5-2-2-2-2-2-2-2-0-0-0-0-0-0-5-5-5-5-5-5--|
E|5-5-5-3-3-3-2-2-2-2-2-2-3-3-3-3-3-3----------------------------------------|
    PM.   PM.   PM.......   PM.......   PM.........   PM.......   PM.......

2nd Chorus Cont'd:  Both Guitars
e|---------------------------------------------------------------------------|
B|---------------------------------------------------------------------------|
G|---------------------------------------------------------------------------|
D|5-5-7~---------------------------------------------------------------------|
A|5-5-7~---------------------------------------------------------------------|
E|3-3-5~---------------------------------------------------------------------|

Bridge:  Guitar 1
e|2-2-2-5-5-5-2-2-2-5-5-5-2-2-2-5-5-5-2-2-2-5-5-5-2-2-2-5-5-5-2-2-2-5-5-5----|
B|3-3-3-3-3-3-3-3-3-3-3-3-3-3-3-3-3-3-3-3-3-3-3-3-3-3-3-3-3-3-3-3-3-3-3-3----|
G|---------------------------------------------------------------------------|
D|---------------------------------------------------------------------------|
A|---------------------------------------------------------------------------|
E|---------------------------------------------------------------------------|

Bridge Cont'd:  Guitar 1
e|-----------2-2-2-5-5-5-2-2-2-5-5-5-2-2-2-5-5-5-2-2-2-5-5-5-----------------|
B|3-2-0-2-3--3-3-3-3-3-3-3-3-3-3-3-3-3-3-3-3-3-3-3-3-3-3-3-3-----------------|
G|---------------------------------------------------------------------------|
D|---------------------------------------------------------------------------|
A|---------------------------------------------------------------------------|
E|---------------------------------------------------------------------------|

Bridge:  Guitar 2
e|---------------------------------------------------------------------------|
B|---------------------------------------------------------------------------|
G|------------7-7-7-7-7-7-4-4-4-4-4-4-------------------------7-7-7-7-7-7----|
D|5-5-5-5-5-5-7-7-7-7-7-7-4-4-4-4-4-4-7-7-7-7-7-7-5-5-5-5-5-5-7-7-7-7-7-7----|
A|5-5-5-5-5-5-5-5-5-5-5-5-2-2-2-2-2-2-7-7-7-7-7-7-5-5-5-5-5-5-5-5-5-5-5-5----|
E|3-3-3-3-3-3-------------------------5-5-5-5-5-5-3-3-3-3-3-3----------------|

Bridge Cont'd:  Guitar 2
e|---------------------------------------------------------------------------|
B|---------------------------------------------------------------------------|
G|------------------------------------7-7-7-7-7-7-4-4-4-4-4-4----------------|
D|7-7-7-7-7-7-7-7-7-7-7-7-5-5-5-5-5-5-7-7-7-7-7-7-4-4-4-4-4-4-7-7-7-7-7-7----|
A|7-7-7-7-7-7-7-7-7-7-7-7-5-5-5-5-5-5-5-5-5-5-5-5-2-2-2-2-2-2-7-7-7-7-7-7----|
E|5-5-5-5-5-5-5-5-5-5-5-5-3-3-3-3-3-3-------------------------5-5-5-5-5-5----|

Bridge Cont'd:  Guitar 2
e|---------------------------------------------------------------------------|
B|---------------------------------------------------------------------------|
G|---------------------------------------------------------------------------|
D|5-5-5-5-5-5-7-7-7-7-7-7----------------------------------------------------|
A|5-5-5-5-5-5-7-7-7-7-7-7----------------------------------------------------|
E|3-3-3-3-3-3-5-5-5-5-5-5----------------------------------------------------|

Repeat Intro:  Both guitars do guitar 2's part

2nd Bridge:  Guitar 1
e|---------------------------------------------------------------------------|
B|---------------------------------------------------------------------------|
G|4-4-4-4---------7-7-7-7-7-7-7-7-7-7-7-7------------------------------------|
D|4-4-4-4-5-5-5-5-7-7-7-7-7-7-7-7-7-7-7-7-7-7-7-7----------------------------|
A|2-2-2-2-5-5-5-5-5-5-5-5-5-5-5-5-5-5-5-5-7-7-7-7----------------------------|
E|--------3-3-3-3-------------------------5-5-5-5----------------------------|
  PM...   PM...                           PM...

2nd Bridge:  Guitar 2
e|----------------2-2-2-3-3-3-5-5-5-2-2-2-5-5-5-5----------------------------|
B|----------------3-3-3-3-3-3-3-3-3-3-3-3-2-2-2-2----------------------------|
G|4-4-4-4--------------------------------------------------------------------|
D|4-4-4-4-5-5-5-5------------------------------------------------------------|
A|2-2-2-2-5-5-5-5------------------------------------------------------------|
E|--------3-3-3-3------------------------------------------------------------|

Last Verse:  Guitar 1  (Ska riff)
e|0-0-0-0-2-2-2-2-5-5-5-5-5-5-5-5--0-0-0-0-2-2-2-2-5-5-5-5-5-5-5-5-----------|
B|3-3-3-3-3-3-3-3-3-3-3-3-2-2-2-2--3-3-3-3-3-3-3-3-3-3-3-3-2-2-2-2-----------|
G|---------------------------------------------------------------------------|
D|---------------------------------------------------------------------------|
A|---------------------------------------------------------------------------|
E|---------------------------------------------------------------------------|

Last Verse Cont'd:  Guitar 1  "I just comb my hair..."
e|---------------------------------------------------------------------------|
B|---------------------------------------------------------------------------|
G|4-4-4-4-4-4-4-4-----------------7-7-7-7-7-7-7-7----------------------------|
D|4-4-4-4-4-4-4-4-5-5-5-5-5-5-5-5-7-7-7-7-7-7-7-7-7-7-7-7-7-7-7-7------------|
A|2-2-2-2-2-2-2-2-5-5-5-5-5-5-5-5-5-5-5-5-5-5-5-5-7-7-7-7-7-7-7-7------------|
E|----------------3-3-3-3-3-3-3-3-----------------5-5-5-5-5-5-5-5------------|

Last Verse Cont'd:  Guitar 1  "Well I got my friends..."
e|---------------------------------------------------------------------------|
B|---------------------------------------------------------------------------|
G|4-4-4-4-4-4-4-4-----------------7-7-7-7-7-7-7-7----------------------------|
D|4-4-4-4-4-4-4-4-5-5-5-5-5-5-5-5-7-7-7-7-7-7-7-7-7-7-7-7-7-7-7-7------------|
A|2-2-2-2-2-2-2-2-5-5-5-5-5-5-5-5-5-5-5-5-5-5-5-5-7-7-7-7-7-7-7-7------------|
E|----------------3-3-3-3-3-3-3-3-----------------5-5-5-5-5-5-5-5------------|

Last Verse:  Guitar 2  "It's easy to forget..."
e|---------------------------------------------------------------------------|
B|---------------------------------------------------------------------------|
G|4-4-4-4-4-4-4-4-----------------7-7-7-7-7-7-7-7----------------------------|
D|4-4-4-4-4-4-4-4-5-5-5-5-5-5-5-5-7-7-7-7-7-7-7-7-7-7-7-7-7-7-7-7--7-7-7-----|
A|2-2-2-2-2-2-2-2-5-5-5-5-5-5-5-5-5-5-5-5-5-5-5-5-7-7-7-7-7-7-7-7--7-7-7-----|
E|----------------3-3-3-3-3-3-3-3-----------------5-5-5-5-5-5-5-5--5-5-5-----|
  PM...........   PM...........   PM...........   PM...........   PM

Last Verse Cont'd:  Guitar 2
e|---------------------------------------------------------------------------|
B|---------------------------------------------------------------------------|
G|4-4-4-4-4-4-4-4-----------------7-7-7-7-7-7-7-7----------------------------|
D|4-4-4-4-4-4-4-4-5-5-5-5-5-5-5-5-7-7-7-7-7-7-7-7-7-7-7-7-7-7-7-7------------|
A|2-2-2-2-2-2-2-2-5-5-5-5-5-5-5-5-5-5-5-5-5-5-5-5-7-7-7-7-7-7-7-7------------|
E|----------------3-3-3-3-3-3-3-3-----------------5-5-5-5-5-5-5-5------------|
  PM...........   PM...........   PM...........   PM...........

Last Verse Cont'd:  Guitar 2  "I just comb my hair..."
e|---------------------------------------------------------------------------|
B|---------------------------------------------------------------------------|
G|4-4-4-4-4-4-4-4-----------------7-7-7-7-7-7-7-7----------------------------|
D|4-4-4-4-4-4-4-4-5-5-5-5-5-5-5-5-7-7-7-7-7-7-7-7-7-7-7-7-7-7-7-7------------|
A|2-2-2-2-2-2-2-2-5-5-5-5-5-5-5-5-5-5-5-5-5-5-5-5-7-7-7-7-7-7-7-7------------|
E|----------------3-3-3-3-3-3-3-3-----------------5-5-5-5-5-5-5-5------------|

Last Verse Cont'd:  Guitar 2
e|---------------------------------------------------------------------------|
B|---------------------------------------------------------------------------|
G|4-4-4-4-4-4-4-4-----------------7-7-7-7-7-7-7-7----------------------------|
D|4-4-4-4-4-4-4-4-5-5-5-5-5-5-5-5-7-7-7-7-7-7-7-7-7-7-7-7-7-7-7-7------------|
A|2-2-2-2-2-2-2-2-5-5-5-5-5-5-5-5-5-5-5-5-5-5-5-5-7-7-7-7-7-7-7-7------------|
E|----------------3-3-3-3-3-3-3-3-----------------5-5-5-5-5-5-5-5------------|

Outro:  Guitar 1  (2x)
e|---------------------------------------------------------------------------|
B|---------------------------------------------------------------------------|
G|4-4-4-4-4-4-4-4-7-7-7-7-7-7-7-7-7-7-7-7-7-7-7-7-9-9-9-9-9-9-9-9------------|
D|x-x-x-x-x-x-x-x-x-x-x-x-x-x-x-x-x-x-x-x-x-x-x-x-x-x-x-x-x-x-x-x------------|
A|2-2-2-2-2-2-2-2-5-5-5-5-5-5-5-5-5-5-5-5-5-5-5-5-7-7-7-7-7-7-7-7------------|
E|---------------------------------------------------------------------------|

Outro Cont'd:  Guitar 1 (4x)
e|---------------------------------------------------------------------------|
B|2-2-2-3-3-3-2-2-2-3-3-3-2-2-2-3-3-3-2-2-2-3-3-3-5-5-5-3-3-3-5-5-5-3-3-3----|
G|4-4-4-4-4-4-4-4-4-4-4-4-4-4-4-4-4-4-4-4-4-4-4-4-2-2-2-2-2-2-2-2-2-2-2-2----|
D|---------------------------------------------------------------------------|
A|---------------------------------------------------------------------------|
E|---------------------------------------------------------------------------|

Outro Cont'd:  Guitar 1
e|---------------------------------------------------------------------------|
B|5-5-5-3-3-3-5-5-5-3-3-3----------------------------------------------------|
G|2-2-2-2-2-2-2-2-2-2-2-2----------------------------------------------------|
D|---------------------------------------------------------------------------|
A|---------------------------------------------------------------------------|
E|---------------------------------------------------------------------------|

Outro:  Guitar 2  (6x)
e|---------------------------------------------------------------------------|
B|---------------------------------------------------------------------------|
G|4-4-4-4-4-4-4-4-----------------7-7-7-7-7-7-7-7----------------------------|
D|4-4-4-4-4-4-4-4-5-5-5-5-5-5-5-5-7-7-7-7-7-7-7-7-7-7-7-7-7-7-7-7------------|
A|2-2-2-2-2-2-2-2-5-5-5-5-5-5-5-5-5-5-5-5-5-5-5-5-7-7-7-7-7-7-7-7------------|
E|----------------3-3-3-3-3-3-3-3-----------------5-5-5-5-5-5-5-5------------|

Ending:  Guitar 1
e|------|
B|-2~---|
G|-4~---|
D|------|
A|------|
E|------|

Ending:  Guitar 2
e|-------------|
B|-------------|
G|--4~---------|
D|--4~---------|
A|--2~/14\2~---|
E|-------------|

There we have it everyone.  I think it's 100% correct or pretty damn close.
Have fun!!!


========


MATCHBOOK - Strung Out

By:Andrew C.  razorsexxx@hotmail.com

Tune Everthing DOWN one step so from low to high you get DGFCAd

Intro:
   |--------Palm-Muted--------------|    Guitar 1
d|--2---2---5---5---2---2---------------------------------------------|
A|----3---3---3---3---3---3----3---3----------------------------------|
F|---------------------------5---5------------------------------------|
C|--------------------------------------------------------------------|
G|--------------------------------------------------------------------|
D|--------------------------------------------------------------------|

	Guitar 2  (x2)
d|--------------------------------------------------------------------|
A|--------------------------------------------------------------------|
F|---------------------------------7-7-7-7-7-7-7-7--------------------|
C|-9-9-9-9-9-9-9-9-5-5-5-5-5-5-5-5-7-7-7-7-7-7-7-7-7-7-7-7-7-7-7-7----|
G|-9-9-9-9-9-9-9-9-5-5-5-5-5-5-5-5-5-5-5-5-5-5-5-5-7-7-7-7-7-7-7-7----|
D|-7-7-7-7-7-7-7-7-3-3-3-3-3-3-3-3-----------------5-5-5-5-5-5-5-5----|

Verse 1
	  |----Palm-Mute------------------|		(x2)
d|-----2---2-2-2-2----------------------------------------------------|
A|-----3-----------3-3-3-3---------3-3-3-3----------------------------|
F|-----2-------------------2-2-2-2-----------2------------------------|
C|-9---0-------------------------------------2------------------------|
G|-9-----------------------------------------0------------------------|
D|-7------------------------------------------------------------------|

d|--------------------------------------------------------------------|
A|---------------------------3h5p3------------------------------------|
F|---------7-7-x-x-------------------------7-7-x-x--------------------|
C|-9-9-x-x-7-7-x-x-7-7-x-x-5-------9-9-x-x-7-7-x-x-7--5---------------|
G|-9-9-x-x-5-5-x-x-7-7-x-x-5-------9-9-x-x-3-3-x-x-7--5---------------|
D|-7-7-x-x---------5-5-x-x-3-------7-7-x-x---------5--3---------------|

d|--------------------------------------------------------------------|
A|--------------------------------------------------------------------|
F|-----------------7-7-7-7-----------------7-7-7-7--------------------|
C|-9-9-9-9-5-5-5-5-7-7-7-7-7-7-5-5-9-9-9-9-7-7-7-7-7-7-x-x-5-5-x-x----|
G|-9-9-9-9-5-5-5-5-5-5-5-5-7-7-5-5-9-9-9-9-5-5-5-5-7-7-x-x-5-5-x-x----|
D|-7-7-7-7-3-3-3-3---------5-5-3-3-7-7-7-7---------5-5-x-x-3-3-x-x----|

d|--------------------------------------------------------------------|
A|--------------------------------------------------------------------|
F|---------------------------------5-5-x-x----------------------------|
C|-4-4-x-x-5-5-x-x-9-9-x-x-7-7-x-x-7-7-x-x-5-4-7----------------------|
G|-4-4-x-x-5-5-x-x-9-9-x-x-7-7-x-x-5-5-x-x-5-4-7----------------------|
D|-2-2-x-x-3-3-x-x-7-7-x-x-5-5-x-x---------3-2-5----------------------|

Intro	(x8)

Verse 2	  |----Palm-Mute------------------|		(x2)
d|-----2---2-2-2-2----------------------------------------------------|
A|-----3-----------3-3-3-3---------3-3-3-3----------------------------|
F|-----2-------------------2-2-2-2-----------2------------------------|
C|-9---0-------------------------------------2------------------------|
G|-9-----------------------------------------0------------------------|
D|-7------------------------------------------------------------------|

d|--------------------------------------------------------------------|
A|---------------------------3h5p3------------------------------------|
F|---------7-7-x-x-------------------------7-7-x-x--------------------|
C|-9-9-x-x-7-7-x-x-7-7-x-x-5-------9-9-x-x-7-7-x-x-7--5-4-4-x-x-------|
G|-9-9-x-x-5-5-x-x-7-7-x-x-5-------9-9-x-x-5-5-x-x-7--5-4-4-x-x-------|
D|-7-7-x-x---------5-5-x-x-3-------7-7-x-x---------5--3-2-2-x-x-------|

d|--------------------------------------------------------------------|
A|--------------------------------------------------------------------|
F|-------------------------5-5-x-x------------------------------------|
C|-5-5-x-x-9-9-x-x-7-7-x-x-7-7-x-x-5-4-7------------------------------|
G|-5-5-x-x-9-9-x-x-7-7-x-x-5-5-x-x-5-4-7------------------------------|
D|-3-3-x-x-7-7-x-x-5-5-x-x---------3-2-5------------------------------|

Bridge
d|---------10101010---------10101010---------10101010---------10101010|
A|-7-7-7-7-10101010-7-7-7-7-10101010-7-7-7-7-10101010-7-7-7-7-10101010|
F|-7-7-7-7----------7-7-7-7----------7-7-7-7----------7-7-7-7---------|
C|--------------------------------------------------------------------|
G|--------------------------------------------------------------------|
D|--------------------------------------------------------------------|

d|---------10101010---------10101010---------10101010---------10101010|
A|-7-7-7-7-10101010-7-7-7-7-10101010---------10101010-7-7-7-7-10101010|
F|-7-7-7-7----------7-7-7-7---------\7-6-4-67---------7-7-7-7---------|
C|--------------------------------------------------------------------|
G|--------------------------------------------------------------------|
D|--------------------------------------------------------------------|

d|---------10101010---------10101010---------10101010---------10101010|
A|-7-7-7-7-10101010-7-7-7-7-10101010-7-7-7-7-10101010-7-7-7-7-10101010|
F|-7-7-7-7----------7-7-7-7----------7-7-7-7----------7-7-7-7---------|
C|--------------------------------------------------------------------|
G|--------------------------------------------------------------------|
D|--------------------------------------------------------------------|

d|-10101010-----------------------------------------------------------|
A|-10101010-----------------------------------------------------------|
F|-------------------------7-7-7-7-------------------------7-7-7-7----|
C|---------9-9-9-9-5-5-5-5-7-7-7-7-7-7-7-7-9-9-9-9-5-5-5-5-7-7-7-7----|
G|---------9-9-9-9-5-5-5-5-5-5-5-5-7-7-7-7-9-9-9-9-5-5-5-5-5-5-5-5----|
D|---------7-7-7-7-3-3-3-3---------5-5-5-5-7-7-7-7-3-3-3-3------------|

	    |---Palm-Muted---|			      |-------|
d|--------------------------------------------------------------------|
A|-----------------------------7-7-7-8-8-8-10-10-10-8-8-8-------------|
F|-----------------------------7-7-7-7-7-7--9--9--9-7-7-7-------------|
C|-7-7-7-7--9-9-9-9---5-5-5-5------------------------------7-7-7-7----|
G|-7-7-7-7--9-9-9-9---5-5-5-5------------------------------7-7-7-7----|
D|-5-5-5-5--7-7-7-7---3-3-3-3------------------------------5-5-5-5----|

Ska Part 		Guitar 1	(x2)
d|--------------------------------------------------------------------|
A|-x-7-x-7-x-7-x-7-10-x-10-x10-x-10-x-7-x-7-x-7-x-7-10-x-10-x-10-x-10-|
F|-x-7-x-7-x-7-x-7--9-x--9-x-9-x--7-x-7-x-7-x-7-x-7--9-x--9-x--9-x--9-|
C|--------------------------------------------------------------------|
G|--------------------------------------------------------------------|
D|--------------------------------------------------------------------|
			Guitar 2	(x2)
  |------Palm-Muted---------------|
d|--------------------------------------------------------------------|
A|--------------------------------------------------------------------|
F|-----------------7-7-7-7--------------------------------------------|
C|-9-9-9-9-5-5-5-5-7-7-7-7-7-7-7-7------------------------------------|
G|-9-9-9-9-5-5-5-5-5-5-5-5-7-7-7-7------------------------------------|
D|-7-7-7-7-3-3-3-3---------5-5-5-5------------------------------------|

Repeat until end
d|-----------------2-2-2-2-------------------------2-2-2-2------------|
A|---------3-3-3-3-3-3-3-3-----------------3-3-3-3-3-3-3-3------------|
F|-4-4-4-4-0-0-0-0-2-2-2-2-2-2-2-2-4-4-4-4-0-0-0-0-2-2-2-2-2-2-2-2----|
C|-4-4-4-4-0-0-0-0-0-0-0-0-2-2-2-2-4-4-4-4-0-0-0-0-0-0-0-0-2-2-2-2----|
G|-2-2-2-2-2-2-2-2---------0-0-0-0-2-2-2-2-2-2-2-2---------0-0-0-0----|
D|---------3-3-3-3-------------------------3-3-3-3--------------------|
comments
We did not receive enough feedback on this tab! Please rate:
print report bad tab
1 2 3 4 5
3 comments total.
0 reply
Doonan wrote on January 5 2008, 06:32 am

dude you've put "FULL D TUNING!" at the top,
but its in standard tuning there.
other then that nice tab :)

0 reply
bandgeek10 wrote on June 10 2008, 11:44 pm

way to go, man. awesome tab. thanks for this :)

0 reply
codycrossman wrote on April 14 2014, 09:45 pm

Ummmmm....Why is Verse 1 played with a 323?????? should be 232 dude. It's a Bm chord.

I want to post or [tab]
guest
You may want to rate the tab now too:
select rating
Please do not post tabs as comments. Select "correction" instead!