Oops, an error
Loading. Please wait.

Flamenco Tab

17,693 views 25 this week
1 commentread comment
1 2 3 4 5
excellent!
x 3
add to favorites launch autoscroll
font size
0
reset
Autoscroll
+/-
esc
set tempo
stop
Contributor
Difficulty
intermediate
WARNING: You are trying to view
                                    content from Ultimate-Guitar.com
                                    in an unauthorized application,
                                    which is prohibited.

                                    Please use an official Ultimate
                                    Guitar Tabs application for iPhone,
                                    iPad or Android to access legitimate
                                    chords, guitar, bass, and drum tabs
                                    from Ultimate-Guitar.com database.

                                    Type "ultimate guitar tabs" in Apple
                                    App Store's or Android Market's
                                    search to find the application.
Song: Flamenco
Artist: Sub Focus
Album: Airplane/Flamenco
Label: RAM Records
Catalog#: RAMM 60
Artist Website: http://www.myspace.com/subfocus
Label Website: http://www.myspace.com/ramrecordsltd

Transcribed by: Sam Wooldridge


(00:00)

e:||--15-----------------|--12--------------|--13b14b13b14~~~--|
b:||------12------14~~~--|------15--12------|------------------|
g:||----------12---------|--------------12--|------------------|
d:||---------------------|------------------|------------------|
a:||---------------------|------------------|------------------|
E:||---------------------|------------------|------------------|
                                                            (x3)


(00:16)

e:||--15--------------|------18--17--15------|
b:||--15--------------|--18--18--17--15--18--|
g:||------------------|--17--------------17--|
d:||------------------|----------------------|
a:||------(17)--(15)--|----------------------|
E:||------------------|----------------------|
                                         (x10)



(00:44)

e:||-----------------|---------------|---------------|---------------------||
b:||-----------------|---------------|---------------|---------------------||
g:||-----------------|---------------|---------------|---------------------||
d:||--------0--------|-----2---------|-----0h3p0-----|--2--2--0h2p0--------||
a:||-----1-----1-----|--0-----0h1p0--|--1---------1--|---------------3~~~--||
E:||--3-----------3--|---------------|---------------|---------------------||
  |                                                                         |
  |                                                                         |
  |                                      (Play on second repeat only)       |
e:||-----------------|---------------|---------------|---------------------||
b:||-----------------|---------------|-----------0---|---------------------||
g:||-----------------|---------------|--0--2--3------|--3--2----3--2-------||
d:||-----------------|---------------|---------------|---------------------||
a:||-----------------|---------------|---------------|---------------------||
E:||-----------------|---------------|---------------|---------------------||
                                                                         (x3)



(01:01)

e:||--15--------------|------18--17--15------|
b:||--15--------------|--18--18--17--15--18--|
g:||------------------|--17--------------17--|
d:||------------------|----------------------|
a:||------(17)--(15)--|----------------------|
E:||------------------|----------------------|
                                          (x2)



(01:06)

e:||-----------------|-----------------|-----------------|---------------|
b:||-----------------|-----------------|-----------------|---------------|
g:||-----------------|--8--8--8--7-----|-----------------|--5/8--5/7-----|
d:||--5--5--5--4--5--|--------------8--|--5--5--5--4--5--|------------8--|
a:||-----------------|--6--6--6--5-----|-----------------|--3/6--3/5-----|
E:||--3--3--3--2--3--|--------------6--|--3--3--3--2--3--|------------6--|
                                                                      (x2)



(01:18)

e:||-----------------|-----------------|-----------------|-----------------|
b:||-----------------|-----------------|-----------------|-----------------|
g:||-----------------|-----------------|-----------------|--8--8--8--7-----|
d:||--5\-------------|--5\----------8--|--5/-------------|--------------8--|
a:||-----------------|-----------------|-----------------|--6--6--6--5-----|
E:||--3\-------------|--3\----------6--|--3/-------------|--------------6--|
                                                                        (x1)



(01:29)

e:||-----------------|---------------|---------------|----------------------|
b:||-----------------|---------------|---------------|----------------------|
g:||-----------------|---------------|---------------|----------------------|
d:||--------0--------|-----2---------|-----0h3p0-----|--2--2--0h2p0---------|
a:||-----1-----1-----|--0-----0h1p0--|--1---------1--|---------------3~~~~--|
E:||--3-----------3--|---------------|---------------|----------------------|
                                                                         (x3)



(01:45)

e:||--15--------------|------18--17--15------|
b:||--15--------------|--18--18--17--15--18--|
g:||------------------|--17--------------17--|
d:||------------------|----------------------|
a:||------(17)--(15)--|----------------------|
E:||------------------|----------------------|
                                          (x2)



(01:51)

e:||-----------------|-----------------|-----------------|---------------|
b:||-----------------|-----------------|-----------------|---------------|
g:||-----------------|--8--8--8--7-----|-----------------|--5/8--5/7-----|
d:||--5--5--5--4--5--|--------------8--|--5--5--5--4--5--|------------8--|
a:||-----------------|--6--6--6--5-----|-----------------|--3/6--3/5-----|
E:||--3--3--3--2--3--|--------------6--|--3--3--3--2--3--|------------6--|
                                                                      (x2)



(02:02)

e:||-----------------|-----------------|-----------------|-----------------|
b:||-----------------|-----------------|-----------------|-----------------|
g:||-----------------|-----------------|-----------------|--8--8--8--7-----|
d:||--5\-------------|--5\----------8--|--5/-------------|--------------8--|
a:||-----------------|-----------------|-----------------|--6--6--6--5-----|
E:||--3\-------------|--3\----------6--|--3/-------------|--------------6--|
                                                                        (x1)



(02:13)

e:||--------------------------------|--------------------------------||
b:||--------------------------------|--------------------------------||
g:||--------------------------------|--------------------------------||
d:||--5--5--5--5--5--5--5--5--5--5--|--7--7--7--7--7--7--7--7--7--7--||
a:||--5--5--5--5--5--5--5--5--5--5--|--7--7--7--7--7--7--7--7--7--7--||
E:||--3--3--3--3--3--3--3--3--3--3--|--5--5--5--5--5--5--5--5--5--5--||
  |                                                                   |
  |                                                                   |
e:||--------------------------------|--------------------------------||
b:||--------------------------------|--------------------------------||
g:||--------------------------------|--------------------------------||
d:||--------------------------------|--------------------------------||
a:||--------------------------------|--------------------------------||
E:||--------------------------------|--------------------------------||


e:||--------------------------------|---------------------------------||
b:||--------------------------------|---------------------------------||
g:||--------------------------------|---------------------------------||
d:||--8--8--8--8--8--8--8--8--8--8--|--10-10-10-10-10-10-10-10-10-10--||
a:||--8--8--8--8--8--8--8--8--8--8--|--10-10-10-10-10-10-10-10-10-10--||
E:||--6--6--6--6--6--6--6--6--6--6--|--8--8--8--8--8--8--8--8--8--8---||
  |                                                                    |
  |                                                                    |
  |                                                                    |
e:||--5-----5--------5-----5--------|---------------------------------||
b:||--5-----5--------5-----5--------|---------------------------------||
g:||--------------------------------|---------------------------------||
d:||--------------------------------|---------------------------------||
a:||--------------------------------|---------------------------------||
E:||--------------------------------|---------------------------------||
                                                                    (x4)



(02:36)
     
e:||-----------------|---------------|---------------|---------------------||
b:||-----------------|---------------|---------------|---------------------||
g:||-----------------|---------------|---------------|---------------------||
d:||--------0--------|-----2---------|-----0h3p0-----|--2--2--0h2p0--------||
a:||-----1-----1-----|--0-----0h1p0--|--1---------1--|---------------3~~~--||
E:||--3-----------3--|---------------|---------------|---------------------||
  |                                                                         |
  |                                                                         |
  |                                                                         |
e:||--3--3---3---3---|--3--3--3--3---|--5--5--5--5---|--3---3----3---3-----||
b:||--3--3---3---3---|--3--3--3--3---|--5--5--5--5---|--3---3----3---3-----||
g:||-----------------|---------------|---------------|---------------------||
d:||-----------------|---------------|---------------|---------------------||
a:||-----------------|---------------|---------------|---------------------||
E:||-----------------|---------------|---------------|---------------------||
                                                                         (x3)



(02:52)

Break



(02:58)

e:||-----------------|---------------|---------------|---------------------||
b:||-----------------|---------------|---------------|---------------------||
g:||-----------------|---------------|---------------|---------------------||
d:||--------0--------|-----2---------|-----0h3p0-----|--2--2--0h2p0--------||
a:||-----1-----1-----|--0-----0h1p0--|--1---------1--|---------------3~~~--||
E:||--3-----------3--|---------------|---------------|---------------------||
  |                                                                         |
  |                                                                         |
  |                                      (Play on second repeat only)       |
e:||-----------------|---------------|---------------|---------------------||
b:||-----------------|---------------|-----------0---|---------------------||
g:||-----------------|---------------|--0--2--3------|--3--2----3--2-------||
d:||-----------------|---------------|---------------|---------------------||
a:||-----------------|---------------|---------------|---------------------||
E:||-----------------|---------------|---------------|---------------------||
                                                                         (x3)



(03:14)

e:||--15--------------|------18--17--15------|
b:||--15--------------|--18--18--17--15--18--|
g:||------------------|--17--------------17--|
d:||------------------|----------------------|
a:||------(17)--(15)--|----------------------|
E:||------------------|----------------------|
                                          (x2)



(03:20)

e:||-----------------|-----------------|-----------------|---------------|
b:||-----------------|-----------------|-----------------|---------------|
g:||-----------------|--8--8--8--7-----|-----------------|--5/8--5/7-----|
d:||--5--5--5--4--5--|--------------8--|--5--5--5--4--5--|------------8--|
a:||-----------------|--6--6--6--5-----|-----------------|--3/6--3/5-----|
E:||--3--3--3--2--3--|--------------6--|--3--3--3--2--3--|------------6--|
                                                                      (x2)



(03:31)

e:||-----------------|-----------------|-----------------|-----------------|
b:||-----------------|-----------------|-----------------|-----------------|
g:||-----------------|-----------------|-----------------|--8--8--8--7-----|
d:||--5\-------------|--5\----------8--|--5/-------------|--------------8--|
a:||-----------------|-----------------|-----------------|--6--6--6--5-----|
E:||--3\-------------|--3\----------6--|--3/-------------|--------------6--|
                                                                        (x1)



(03:42)

e:||-----------------|---------------|---------------|----------------------|
b:||-----------------|---------------|---------------|----------------------|
g:||-----------------|---------------|---------------|----------------------|
d:||--------0--------|-----2---------|-----0h3p0-----|--2--2--0h2p0---------|
a:||-----1-----1-----|--0-----0h1p0--|--1---------1--|---------------3~~~~--|
E:||--3-----------3--|---------------|---------------|----------------------|
                                                                         (x3)



(03:59)

e:||--15--------------|------18--17--15------|
b:||--15--------------|--18--18--17--15--18--|
g:||------------------|--17--------------17--|
d:||------------------|----------------------|
a:||------(17)--(15)--|----------------------|
E:||------------------|----------------------|
                                          (x2)



(04:04)

e:||-----------------|-----------------|-----------------|---------------|
b:||-----------------|-----------------|-----------------|---------------|
g:||-----------------|--8--8--8--7-----|-----------------|--5/8--5/7-----|
d:||--5--5--5--4--5--|--------------8--|--5--5--5--4--5--|------------8--|
a:||-----------------|--6--6--6--5-----|-----------------|--3/6--3/5-----|
E:||--3--3--3--2--3--|--------------6--|--3--3--3--2--3--|------------6--|
                                                                      (x2)



(04:16)

e:||-----------------|-----------------|-----------------|-----------------|
b:||-----------------|-----------------|-----------------|-----------------|
g:||-----------------|-----------------|-----------------|--8--8--8--7-----|
d:||--5\-------------|--5\----------8--|--5/-------------|--------------8--|
a:||-----------------|-----------------|-----------------|--6--6--6--5-----|
E:||--3\-------------|--3\----------6--|--3/-------------|--------------6--|
                                                                        (x1)



(04:27)

e:||--------------------------------|--------------------------------||
b:||--------------------------------|--------------------------------||
g:||--------------------------------|--------------------------------||
d:||--5--5--5--5--5--5--5--5--5--5--|--7--7--7--7--7--7--7--7--7--7--||
a:||--5--5--5--5--5--5--5--5--5--5--|--7--7--7--7--7--7--7--7--7--7--||
E:||--3--3--3--3--3--3--3--3--3--3--|--5--5--5--5--5--5--5--5--5--5--||
  |                                                                   |
  |                                                                   |
e:||--------------------------------|--------------------------------||
b:||--------------------------------|--------------------------------||
g:||--------------------------------|--------------------------------||
d:||--------------------------------|--------------------------------||
a:||--------------------------------|--------------------------------||
E:||--------------------------------|--------------------------------||


e:||--------------------------------|---------------------------------||
b:||--------------------------------|---------------------------------||
g:||--------------------------------|---------------------------------||
d:||--8--8--8--8--8--8--8--8--8--8--|--10-10-10-10-10-10-10-10-10-10--||
a:||--8--8--8--8--8--8--8--8--8--8--|--10-10-10-10-10-10-10-10-10-10--||
E:||--6--6--6--6--6--6--6--6--6--6--|--8--8--8--8--8--8--8--8--8--8---||
  |                                                                    |
  |                                                                    |
  |                                                                    |
e:||--5-----5--------5-----5--------|---------------------------------||
b:||--5-----5--------5-----5--------|---------------------------------||
g:||--------------------------------|---------------------------------||
d:||--------------------------------|---------------------------------||
a:||--------------------------------|---------------------------------||
E:||--------------------------------|---------------------------------||
                                                                    (x4)


Something like that!
comments
We did not receive enough feedback on this tab! Please rate:
print report bad tab
1 2 3 4 5
1 comment total.
0 reply
RokLobsta wrote on September 26 2010, 11:13 pm

Nice tab. Thanks for the upload

I want to post or [tab]
guest
You may want to rate the tab now too:
select rating
Please do not post tabs as comments. Select "correction" instead!