Oops, an error
Loading. Please wait.

From The Cradle To The Grave Tab

ver1
ver1

Album

Whole song

More versions @911Tabs.com
481 views 1 this week
no commentswrite comment
1 2 3 4 5
please rate
Autoscroll
+/-
esc
set tempo
stop
Contributor
Hey! There's an official Ultimate Guitar app which is ideal
for learning songs when you're away from computer. Get the app
WARNING: You are trying to view
                                    content from Ultimate-Guitar.com
                                    in an unauthorized application,
                                    which is prohibited.

                                    Please use an official Ultimate
                                    Guitar Tabs application for iPhone,
                                    iPad or Android to access legitimate
                                    chords, guitar, bass, and drum tabs
                                    from Ultimate-Guitar.com database.

                                    Type "ultimate guitar tabs" in Apple
                                    App Store's or Android Market's
                                    search to find the application.
Subhumans - From the Cradle to the Grave (Album tab)

This is a cooperative work of axeslash and lavazza, so be kind to both!

01.Intro (lavazza)
02.Forget (axeslash)
03.Waste of Breath (lavazza)
04.Where´s the Freedom (lavazza)
05.Reality is Waiting for a bus (axeslash)
06.Us Fish must swim together (lavazza)
07.Wake Up Screaming (lavazza)
08.Adversity (axeslash is working on it, wait a bit please.....)
09.Rain (lavazza)
10.From the Cradle to the Grave (lavazza)

-------
1.Intro
-------

e:--------------------|
b:--------------------|
g:--------1012--1012--|
d:9-9-9-9-1012--1012--|4x
a:9-9-9-9-8-10--8-10--|
e:7-7-7-7-------------|

e:--------------|
b:--------------|
g:--.---.---.---|
d:9-7-7-6-6-7---|
a:9-7-7-6-6-7---|
e:7-5-5-4-4-5---|

e:----------------|----------------|----------------|
b:----------------|----------------|9/1010109/101010|
g:----------------|----------------|8/9-9-9-8/9-9-9-|
d:7-7-7-7-7-7-7-7-|6/7-7-7-6/7-7-7-|6/7-7-7-6/7-7-7-|
a:7-7-7-7-7-7-7-7-|6/7-7-7-6/7-7-7-|----------------|
e:5-5-5-5-5-5-5-5-|4/5-5-5-4/5-5-5-|----------------|

e:------------------|------------------|------------------|
b:11/10101011/101010|11/10101011/101010|11/1011/1011/9/10-|
g:10/9-9-9-10/9-9-9-|10/9-9-9-10/9-9-9-|10/9-10/9-10/8/9--|
d:-8/7-7-7--8/7-7-7-|-8/7-7-7--8/7-7-7-|-8/7--8/7--8/6/7--|
a:------------------|------------------|------------------|
e:------------------|------------------|------------------|

e:--------------------|
b:--------------------|
g:--------1012--1012--|
d:9-9-9-9-1012--1012--|4x
a:9-9-9-9-8-10--8-10--|
e:7-7-7-7-------------|

e:--------------|
b:--------------|
g:--.---.---.---|
d:9-7-7-6-6-7---|
a:9-7-7-6-6-7---|
e:7-5-5-4-4-5---|

--------
2.Forget
--------

Intro: Play Once
e|---------------------------------------------------------------------------|
B|-------------------------------------------------Trem.---------------------|
G|-16-16-16-16-16-16-16-16-16-16-16-16-16-16-16-16\\\\\\\\-------------------|
D|-14-14-14-14-14-14-14-14-14-14-14-14-14-14-14-14\\\\\\\\-------------------|
A|---------------------------------------------------------------------------|
E|---------------------------------------------------------------------------|
Verse: Play Twice
e|---------------------------------------------------------------------------|
B|---------------------------------------------------------------------------|
G|----------------------------------------16-16-16-16-16-16-16-16------------|
D|---999999999999999999999999999999999999-14-14-14-14-14-14-14-14------------|
A|---777777777777777777777777777777777777------------------------------------|
E|-pm|----------------------------------|------------------------------------|
Chorus: Play Once
e|---------------------------------------------------------------------------|
B|---------------------------------------------------------------------------|
G|-14-14-14-14-14-14-14-14-14-14-14-14-12-12-12-12-11-11-11-11-10-10-10-10---|
D|-14-14-14-14-14-14-14-14-14-14-14-14-12-12-12-12-11-11-11-11-10-10-10-10---|
A|-12-12-12-12-12-12-12-12-12-12-12-12-10-10-10-10--9--9--9--9--8--8--8--8---|
E|---------------------------------------------------------------------------|
Solo 1: Play Once
e|---------------------------------------------------------------------------|
B|---------------------------------------------------------------------------|
G|-15^--15^--15^--16-16-15-15-13----13-15^--15^--15^--16-16-15-15-13----13---|
D|-------------------------------15----------------------------------15------|
A|---------------------------------------------------------------------------|
E|---------------------------------------------------------------------------|

e|---------------------------------------------------------------------------|
B|---------------------------------------------------------------------------|
G|-15^--15^--15^--16-16-15-15-13----13-15^--15^--15^--16-16-15-15-13----13---|
D|-------------------------------15----------------------------------15------|
A|---------------------------------------------------------------------------|
E|---------------------------------------------------------------------------|

e|---------------------------------------------------------------------------|
B|---------------------------------------------------------------------------|
G|-7^--7-7^--7-7^-7-9^--9-9^--9-9^-9-11^--11-11^--11-11^-11-14^--14-14^--14--|
D|---------------------------------------------------------------------------|
A|---------------------------------------------------------------------------|
E|---------------------------------------------------------------------------|

e|---------------------------------------------------------------------------|
B|----------------------------------------------------------Trem.------------|
G|-14^-14-17^--17-17^--17-17^-17-19^--19-19^--19-19^--19-21~~~~~~~~\\\\\\\\--|
D|---------------------------------------------------------------------------|
A|---------------------------------------------------------------------------|
E|---------------------------------------------------------------------------|
Verse: Play Twice
e|---------------------------------------------------------------------------|
B|---------------------------------------------------------------------------|
G|----------------------------------------16-16-16-16-16-16-16-16------------|
D|---999999999999999999999999999999999999-14-14-14-14-14-14-14-14------------|
A|---777777777777777777777777777777777777------------------------------------|
E|-pm|----------------------------------|------------------------------------|
Chorus: Play Once
e|---------------------------------------------------------------------------|
B|---------------------------------------------------------------------------|
G|-14-14-14-14-14-14-14-14-14-14-14-14-12-12-12-12-11-11-11-11-10-10-10-10---|
D|-14-14-14-14-14-14-14-14-14-14-14-14-12-12-12-12-11-11-11-11-10-10-10-10---|
A|-12-12-12-12-12-12-12-12-12-12-12-12-10-10-10-10--9--9--9--9--8--8--8--8---|
Solo 2: Play Once
e|---------------------------------------------------------------------------|
B|---------------------------------------------------------------------------|
G|-7^--7-7^--7-7^-7-9^--9-9^--9-9^-9-11^--11-11^--11-11^-11-14^--14-14^--14--|
D|---------------------------------------------------------------------------|
A|---------------------------------------------------------------------------|
E|---------------------------------------------------------------------------|

e|---------------------------------------------------------------------------|
B|----------------------------------------------------------Trem.------------|
G|-14^-14-17^--17-17^--17-17^-17-19^--19-19^--19-19^--19-21~~~~~~~~\\\\\\\\--|
D|---------------------------------------------------------------------------|
A|---------------------------------------------------------------------------|
E|---------------------------------------------------------------------------|
Outro: Play Once
e|---------------------------------------------------------------------------|
B|---------------------------------------------------------------------------|
G|---9-9-9-9-9-9-9-9-9-9-9-9-9-9-9-9\----------------------------------------|
D|---9-9-9-9-9-9-9-9-9-9-9-9-9-9-9-9\----------------------------------------|
A|---7-7-7-7-7-7-7-7-7-7-7-7-7-7-7-7\----------------------------------------|
E|---------------------------------------------------------------------------|

-----------------
3.Waste of Breath
-----------------

Intro:
e:12--12--12-----|
b:15b-15b-15b-pb-|
g:---------------|
d:---------------|
a:---------------|
e:---------------|

Verse:
e:----------------|----------------|
b:----------------|----------------|
g:x-9-x-9-x-9-x-9-|5-5-5-5-5-5-5-5-| play the riff 6x (2x without voice)
d:x-9-x-9-x-9-x-9-|5-5-5-5-5-5-5-5-|
a:7---------------|3-3-3-3-3-3-3-3-|
e:----------------|----------------|

You paint your leather jacket but it comes off in the rain
The more you cut your hair the more it grows again
The badges (that) you pin on yourself fall off or start to rust
And the more they take the piss the less people you can trust

Pre-Chorus:
  PM______________
e:----------------|----------------|
b.----------------|----------------|
g:----------------|----------------|
d:2-2-2-2-4-4-4-4-|5-5-5-5-7-7-7-7-|
a:2-2-2-2-4-4-4-4-|5-5-5-5-7-7-7-7-|
e:0-0-0-0-2-2-2-2-|3-3-3-3-5-5-5-5-|

Chorus:
e:----------------|
b:----------------|
g:7-------9-------|
d:7-------9-------|
a:5-------7-------|
e:----------------|

It´s the story of your live
And the end of it´s your death
And every word that´s inbetween
Is just a waste of breathe

Verse
You don´t know you might have been or who you now should be
Or what you ought to write on walls or why you wanna be free
And when you start to panic cos the inspiration´s there
But you´re not sure how to use it and anyway no one seems to care

Pre-Chorus
Chorus

Solo
e:------------------|----------------|----------------|----------------|
b:------------------|--------6-9-6---|----------------|--------6-9-6---|
g:9-9-9-9-7h9p7-10-9|----7-9-------9-|9-9-9-9-7-10-9-7|----7-9-------9-|
d:------------------|7-9-------------|----------------|7-9-------------|
a:------------------|----------------|----------------|----------------|
e:------------------|----------------|----------------|----------------|

e:9-7-6--6h7p6-6h7p7|7-7-9-10-12-13-12-10|12-12-10h12p10-12-13-12-10|
b:------------------|--------------------|--------------------------|
g:------------------|--------------------|--------------------------|
d:------------------|--------------------|--------------------------|
a:------------------|--------------------|--------------------------|
e:------------------|--------------------|--------------------------|

e:10-10-10-10-10-10sd|
b:-------------------|
g:-------------------|
d:-------------------|
a:-------------------|
e:-------------------|

  PM______________
e:----------------|----------------|
b.----------------|----------------|
g:----------------|----------------|
d:2-2-2-2-4-4-4-4-|5-5-5-5-7---7-7-|
a:2-2-2-2-4-4-4-4-|5-5-5-5-7---7-7-|
e:0-0-0-0-2-2-2-2-|3-3-3-3-5---5-5-|


Verse
You´re the classical all-round failure who never seems to win
You´d like to write a book but you´re not sure how to begin
It´s the story of your life and the endof it´s your death
And every word that´s inbetweenis just a waste of breathe

Pre-Chorus
Chorus

---------------------
4.Where´s the Freedom
---------------------

e:--------------|--------------|--------------|--------------|
b:--------------|--------------|--------------|--------------|
g:--------------|--------------|--------------|--------------|
d:5-5/7-7-7-7---|5-5/7-7-7-7---|5-5/7-7-7-7---|5-5/7-7-7-7---|2x
a:5-5/7-7-7-7---|5-5/7-7-7-7---|5-5/7-7-7-7---|5-5/7-7-7-7---|
e:--------------|--------------|--------------|--------------|

Verse
PM_________________________________
e:----------------|----------------|--------------|
b:----------------|----------------|--------------|
g:9-9-9-9-9-9-9-9-|9-9-9-9-9-9-9-9-|--8----8------|
d:9-9-9-9-9-9-9-9-|9-9-9-9-9-9-9-9-|9----9----9---|
a:7-7-7-7-7-7-7-7-|7-7-7-7-7-7-7-7-|--------------|
e:----------------|----------------|--------------|

PM_________________________________
e:----------------|----------------|
b:----------------|----------------|
g:9-9-9---8-8-8---|6-6-6---8-8-8---|
d:9-9-9---8-8-8---|6-6-6---8-8-8---| play a few times
a:7-7-7---6-6-6---|4-4-4---6-6-6---|
e:----------------|----------------|

We're going backwards
Into the sin of self-neglect
What do we stand for?
It's very easy to forget
The protest marches
Is it the done thing to object?
So where's the freedom?
Your conscience hangs around your neck

Chorus:
e:----------------|----------------|----------------|----------------|
b:----------------|----------------|----------------|----------------|
g:9-9-9-9-9-9-9-9-|8-8-8-8-8-8-8-8-|9-9-9-9-9-9-9-9-|8-8-8-8-8-8-8-8-|
d:9-9-9-9-9-9-9-9-|8-8-8-8-8-8-8-8-|9-9-9-9-9-9-9-9-|8-8-8-8-8-8-8-8-|
a:7-7-7-7-7-7-7-7-|6-6-6-6-6-6-6-6-|7-7-7-7-7-7-7-7-|6-6-6-6-6-6-6-6-|
e:----------------|----------------|----------------|----------------|

e:----------------|----------|
b:----------------|----------|
g:9-9-9-9-9-9-9-9-|11-x-13-x-|
d:9-9-9-9-9-9-9-9-|11-x-13-x-|
a:7-7-7-7-7-7-7-7-|09-x-11-x-|
e:----------------|----------|

e:----------------|----------------|----------------|----------------|
b:----------------|----------------|----------------|----------------|
g:9-9-9-9-9-9-9-9-|8-8-8-8-8-8-8-8-|9-9-9-9-9-9-9-9-|8-8-8-8-8-8-8-8-|
d:9-9-9-9-9-9-9-9-|8-8-8-8-8-8-8-8-|9-9-9-9-9-9-9-9-|8-8-8-8-8-8-8-8-|
a:7-7-7-7-7-7-7-7-|6-6-6-6-6-6-6-6-|7-7-7-7-7-7-7-7-|6-6-6-6-6-6-6-6-|
e:----------------|----------------|----------------|----------------|

e:----------------|----------|
b:----------------|----------|
g:9-9-9-9-9-9-9-9-|11-x-13-x-|
d:9-9-9-9-9-9-9-9-|11-x-13-x-|
a:7-7-7-7-7-7-7-7-|09-x-11-x-|
e:----------------|----------|
Where's the freedom?

Verse:
We're going crazy
With paranoia, fear, and greed.
Accepting standards
Believing what we hear and read.
And when we think we've sussed out a new reality
But is this freedom just another hand from which we feed?

Chorus
Where's the freedom?


PM_________________________________
e:----------------|----------------|--------------|
b:----------------|----------------|--------------|
g:9-9-9-9-9-9-9-9-|9-9-9-9-9-9-9-9-|--8----8------|
d:9-9-9-9-9-9-9-9-|9-9-9-9-9-9-9-9-|9----9----9---|
a:7-7-7-7-7-7-7-7-|7-7-7-7-7-7-7-7-|--------------|
e:----------------|----------------|--------------|

e:----------------|
b:----------------|
g:9---------------|
d:9---------------|
a:7---------------|
e:----------------|

e:----------------|------------|------------|------------|------------|-------|
b:----------------|9--7--6--7--|9--7--6--7--|9--7--6--7--|------------|-------|
g:9--8--6-6-6-8---|------------|------------|------------|9--8--7--6--|5------|
d:----------------|------------|------------|------------|------------|-------|
a:----------------|------------|------------|------------|------------|-------|
e:----------------|------------|------------|------------|------------|-------|

Verse3:
e:--------------|--------------|--------------|--------------|
b:--------------|--------------|--------------|--------------|
g:--------------|--------------|--------------|--------------|
d:5-5/7-7-7-7---|5-5/7-7-7-7---|5-5/7-7-7-7---|5-5/7-7-7-7---|
a:5-5/7-7-7-7---|5-5/7-7-7-7---|5-5/7-7-7-7---|5-5/7-7-7-7---|
e:--------------|--------------|--------------|--------------|

We're going nowhere
In vicious circles we gyrate
The new sub-culture
With cliches painted on their face
We cannot see past
The elitest barriers we create.
We reject the system.
But put another in it's place

Chorus:
Where's the freedom? 

e:-------------|
b:-------------|
g:6--8--9--10--| repeat
d:6--8--9--10--|
a:4--6--7--08--|
e:-------------|

Where´s your Freedom?

------------------------------
5.Reality is Waiting for a bus
------------------------------

Guitars 1 and 2
e|-----------------------------------------------------------------------------|
B|-----------------------------------------------------------------------------|
G|---------7----------------------9--------7---------------------9---------7---|
D|-----7-9---9-9-9-9-9-10-10-9-9-------7-9---9-9-9-9-9-10-10-9-9-------7-9---9-|
A|-7-9---------9-9-9-9-10-10-9-9---7-9---------9-9-9-9-10-10-9-9---7-9---------|
E|-------------7-7-7-7--8--8-7-7---------------7-7-7-7--8--8-7-7---------------|

e|-------------------------------------------------------------------------------------|
B|-------------------------------------------------------------------------------------|
G|---------------------9---------7-----------------------9---------7-------------------|
D|-9-9-9-9-10-10-9-9-7-------7-9---9-9-9-9-9-10-10-9-9-7-------7-9---9-9---------------|
A|-9-9-9-9-10-10-9-9-7---7-9---------9-9-9-9-10-10-9-9-7---7-9---------9---------------|
E|-7-7-7-7--8--8-7-7-5---------------7-7-7-7--8--8-7-7-5---------------7---------------|

e|-------------------------------------------------------------------------|
B|-------------------------------------------------------------------------|
G|-------------------------------------------------------------------------|
D|-9-9-9-9-9-9-10-10-9-9-9-9-9-9-10-10-9-9-9-9-9-9-10-10-9-9-9-9-9-9-10-10-|
A|-9-9-9-9-9-9-10-10-9-9-9-9-9-9-10-10-9-9-9-9-9-9-10-10-9-9-9-9-9-9-10-10-|
E|-7-7-7-7-7-7--8--8-7-7-7-7-7-7--8--8-7-7-7-7-7-7--8--8-7-7-7-7-7-7--8--8-|

e|-----------------------------------------------------------------|
B|-----------------------------------------------------------------|
G|-----------------------------------------------------------------|
D|-7-7-7-7-7-7-7-7-5-5-5-5-5-5-5-5-4-4-4-4-4-4-4-4-3-3-3-3-3-3-3-3-|
A|-7-7-7-7-7-7-7-7-5-5-5-5-5-5-5-5-4-4-4-4-4-4-4-4-3-3-3-3-3-3-3-3-|
E|-5-5-5-5-5-5-5-5-3-3-3-3-3-3-3-3-2-2-2-2-2-2-2-2-1-1-1-1-1-1-1-1-|

e|---------------------------------------------------------------------------------|
B|---------------------------------------------------------------------------------|
G|-------------------------------------------------------------------9---------7---|
D|-2-2-2-2-2-2-2-2-2-2-2-2-2-2-2-2-9---------------9-9-9-9-10-10-9-9-------7-9---9-|
A|-2-2-2-2-2-2-2-2-2-2-2-2-2-2-2-2-9---------------9-9-9-9-10-10-9-9---7-9---------|
E|-0-0-0-0-0-0-0-0-0-0-0-0-0-0-0-0-7---------------7-7-7-7--8--8-7-7---------------|
  [x-x-x-x-x-x-x-x-x-x-x-x-x-x-x-x]

e|---------------------------------------------------------------------------------|
B|---------------------------------------------------------------------------------|
G|-------------------9---------7---------------------9---------7-------------------|
D|-9-9-9-9-10-10-9-9-------7-9---9-9-9-9-9-10-10-9-9-------7-9---9-9---------------|
A|-9-9-9-9-10-10-9-9---7-9---------9-9-9-9-10-10-9-9---7-9---------9---------------|
E|-7-7-7-7--8--8-7-7---------------7-7-7-7--8--8-7-7---------------7---------------|

e|-------------------------------------------------------------------------|
B|-------------------------------------------------------------------------|
G|-------------------------------------------------------------------------|
D|-9-9-9-9-9-9-10-10-9-9-9-9-9-9-10-10-9-9-9-9-9-9-10-10-9-9-9-9-9-9-10-10-|
A|-9-9-9-9-9-9-10-10-9-9-9-9-9-9-10-10-9-9-9-9-9-9-10-10-9-9-9-9-9-9-10-10-|
E|-7-7-7-7-7-7--8--8-7-7-7-7-7-7--8--8-7-7-7-7-7-7--8--8-7-7-7-7-7-7--8--8-|

e|-----------------------------------------------------------------|
B|-----------------------------------------------------------------|
G|-----------------------------------------------------------------|
D|-7-7-7-7-7-7-7-7-5-5-5-5-5-5-5-5-4-4-4-4-4-4-4-4-3-3-3-3-3-3-3-3-|
A|-7-7-7-7-7-7-7-7-5-5-5-5-5-5-5-5-4-4-4-4-4-4-4-4-3-3-3-3-3-3-3-3-|
E|-5-5-5-5-5-5-5-5-3-3-3-3-3-3-3-3-2-2-2-2-2-2-2-2-1-1-1-1-1-1-1-1-|

e|---------------------------------------------------------------------------------|
B|---------------------------------------------------------------------------------|
G|-------------------------------------------------------------------9---------7---|
D|-2-2-2-2-2-2-2-2-2-2-2-2-2-2-2-2-9---------------9-9-9-9-10-10-9-9-------7-9---9-|
A|-2-2-2-2-2-2-2-2-2-2-2-2-2-2-2-2-9---------------9-9-9-9-10-10-9-9---7-9---------|
E|-0-0-0-0-0-0-0-0-0-0-0-0-0-0-0-0-7---------------7-7-7-7--8--8-7-7---------------|
  [x-x-x-x-x-x-x-x-x-x-x-x-x-x-x-x]

e|---------------------------------------------------------------------------------|
B|---------------------------------------------------------------------------------|
G|-------------------9---------7---------------------9---------7-------------------|
D|-9-9-9-9-10-10-9-9-------7-9---9-9-9-9-9-10-10-9-9-------7-9---9-9---------------|
A|-9-9-9-9-10-10-9-9---7-9---------9-9-9-9-10-10-9-9---7-9---------9---------------|
E|-7-7-7-7--8--8-7-7---------------7-7-7-7--8--8-7-7---------------7---------------|


Guitar 1
e|---------------------------------------------------------------------------|
B|-10^--10^--12^--12^-10-12^-9-7---------10^--10^--12^--12^-10-X-9-7---7-/12-|
G|-------------------------------9-7-9-7-----------------------------9-------|
D|---------------------------------------------------------------------------|
A|---------------------------------------------------------------------------|
E|---------------------------------------------------------------------------|
Guitar 2
e|-----------------------------------------------------------------------|
B|-----------------------------------------------------------------------|
G|-----------------------------------------------------------------------|
D|-----------------------------------------------------------------------|
A|-9-9-9-9-10-10-10-9-5-5-5-5-5-5-5-5-9-9-9-9-10-10-10-9-7-7-7-7-7-7-7-7-|
E|-7-7-7-7--8--8--8-7-5-5-5-5-5-5-5-5-7-7-7-7--8--8--8-7-5-5-5-5-5-5-5-5-|

Guitar 1
e|----------------------------------------------------|
B|-/12-12-12-12-12-12-12-12-/12-12-12-12-/12-12-12-12-|
G|-/12-12-12-12-12-12-12-12-/12-12-12-12-/12-12-12-12-|
D|----------------------------------------------------|
A|----------------------------------------------------|
E|----------------------------------------------------|
Guitar 2                                                   
e|----------------------------------------------------|
B|----------------------------------------------------|
G|----------------------------------------------------|
D|----------------------------------------------------|
A|-/9-9-9-9-9-9-9-9-9-9-9-9-9-9-9-9-9-9-9-9-9-9-9-9-9-|
E|-/7-7-7-7-7-7-7-7-7-7-7-7-7-7-7-7-7-7-7-7-7-7-7-7-7-|

Guitar 1
e|----------------------------------------------------|
B|-/12-12-/12-12-/12-12-12-12-12-12-12-12-12-12-12-12-|
G|-/12-12-/12-12-/12-12-12-12-12-12-12-12-12-12-12-12-|
D|----------------------------------------------------|
A|----------------------------------------------------|
E|----------------------------------------------------|
Guitar 2
e|----------------------------------------------------|
B|----------------------------------------------------|
G|----------------------------------------------------|
D|----------------------------------------------------|
A|-/9-9-9-9-9-9-9-9-9-9-9-9-9-9-9-9-9-9-9-9-9-9-9-9-9-|
E|-/7-7-7-7-7-7-7-7-7-7-7-7-7-7-7-7-7-7-7-7-7-7-7-7-7-|

Guitar 1
e|-----------------------------------------------------|
B|-14^--14^--14^---12h14p12h14p12h14p12h14-------------|
G|-----------------------------------------14-12----12-|
D|-----------------------------------------------14----|
A|-----------------------------------------------------|
E|-----------------------------------------------------|
Guitar 2
e|-----------------------------------------------------|
B|-----------------------------------------------------|
G|-----------------------------------------------------|
D|-9-------------------------7-------------------------|
A|-9-------------------------7-------------------------|
E|-7-------------------------5-------------------------|

Guitar 1
e|---------------------------------------------------------------------------|
B|-14-12-14-12-14-12-14-12-14-12-14-12-14-12-X--15^w-------------------------|
G|---------------------------------------------------------------------------|
D|---------------------------------------------------------------------------|
A|---------------------------------------------------------------------------|
E|---------------------------------------------------------------------------|
Guitar 2
e|---------------------------------------------------------------------------|
B|---------------------------------------------------------------------------|
G|---------------------------------------------------------------------------|
D|-9----------------------7---------------------9----------------------------|
A|-9----------------------7---------------------9----------------------------|
E|-7----------------------5---------------------7----------------------------|

Guitars 1 and 2
e|------------------------------------------------------------------------------|
B|------------------------------------------------------------------------------|
G|------------------------------------------------------------------------------|
D|-9-9-9-9-9-9-10-10-9-9-9-9-9-9-10-10-9-9-9-9-9-9-10-10-9-9-9-9-9-9-10-10-9----|
A|-9-9-9-9-9-9-10-10-9-9-9-9-9-9-10-10-9-9-9-9-9-9-10-10-9-9-9-9-9-9-10-10-9----|
E|-7-7-7-7-7-7--8--8-7-7-7-7-7-7--8--8-7-7-7-7-7-7--8--8-7-7-7-7-7-7--8--8-7----|
  [x-x-x-x-x-x-x-x-x-x-x-x-x-x-x-x-x-x]

e|-------------------------------------------------------------------------|
B|-------------------------------------------------------------------------|
G|-------------------------------------------------------------------------|
D|-9-9-9-9-9-9-10-10-9-9-9-9-9-9-10-10-9-9-9-9-9-9-10-10-9-9-9-9-9-9-10-10-|
A|-9-9-9-9-9-9-10-10-9-9-9-9-9-9-10-10-9-9-9-9-9-9-10-10-9-9-9-9-9-9-10-10-|
E|-7-7-7-7-7-7--8--8-7-7-7-7-7-7--8--8-7-7-7-7-7-7--8--8-7-7-7-7-7-7--8--8-|

Guitar 1
e|---------------------------------------------------|
B|---------------------------------------------------|
G|---------------------------------------------------|
D|-9-9-9-9-9-9-9-9-7--------9-9-9-9-9-9-9-9-7--------|
A|-9-9-9-9-9-9-9-9-7--------9-9-9-9-9-9-9-9-7--------|
E|-7-7-7-7-7-7-7-7-5--------7-7-7-7-7-7-7-7-5--------|
Guitar 2  
e|---------------------------------------------------|
B|---------------------------------------------------|
G|---------------------------------------------------|
D|-9------10---9---7--------9------10---9---7--------|
A|-9------10---9---7--------9------10---9---7--------|
E|-7-------8---7---5--------7-------8---7---5--------|

Guitars 1 and 2
e|------------------------------------------------------------------------------------|
B|------------------------------------------------------------------------------------|
G|------------------------------------------------------------------------------------|
D|-9--9-9-----7--------9--------7--------9--------7--------9---------7----------------|
A|-9--9-9-----7--------9--------7--------9--------7--------9---------7----------------|
E|-7--7-7-----5--------7--------5--------7--------5--------7---------5----------------|

e|------------------------------------------------------------------------------------|
B|-8--------7--------6-------5--------------------------------------------------------|
G|-7--------6--------5-------4----/16-16-16-16-16-16-16-16-16-16-16-16-16-16-16-16----|
D|-5--------4--------3-------2----/14-14-14-14-14-14-14-14-14-14-14-14-14-14-14-14----|
A|------------------------------------------------------------------------------------|
E|------------------------------------------------------------------------------------|

e|-------------------------|
B|-------------------------|
G|-------------------------|
D|-9-9-9-9-9-9-10-10-9-9-7-|
A|-9-9-9-9-9-9-10-10-9-9-7-|
E|-7-7-7-7-7-7--8--8-7-7-5-|

----------------------------
6.Us Fish must swim together
----------------------------

Intro:
e:5---3---7--5---|------|----------------|----------------|----------------|
b:5---3---7--5---|5~~~~-|----------------|----------------|----------------|
g:6---4---8--6---|------|----------------|----------------|----------------|
d:7---5---9--7---|------|----------------|----------------|----------------|
a:7---5---9--7---|------|------5-7---5---|------5-7---5---|------5-7-8-5---|
e:5---3---7--5---|------|5-7-8-----8-----|5-7-8-----8-----|5-7-8-----------|

e:----------------|----------------|----------------|
b:----------------|----------------|----------------|
g:----------------|----------------|----------------|
d:----------------|----------------|----------------|repeat a few times
a:------5-7---5---|------5-7---5---|------5-7-8-5---|
e:5-7-8-----8-----|5-7-8-----8-----|5-7-8-----------|

Verse:
e:5---7--8----------|
b:5---7--9----------|
g:6---8--9----------|
d:7---9-10-xx-xxxxxx|
a:7---9-10-xx-xxxxxx|
e:5---7--8-xx-xxxxxx|

Post Verse:
e:5---7--8-6---8--9-|
b:5---7--9-6---8--9-|
g:6---8--9-6---8--9-|
d:7---9-10-7---9-10-| 2x
a:7---9-10-7---9-10-|
e:5---7--8-5---7--8-|

Verse

Post Verse 2:
e:5---7--8-6---8--9-|-8---7-5-6---8--9-|
b:5---7--9-6---8--9-|-8---7-5-6---8--9-|
g:6---8--9-6---8--9-|-9---8-6-6---8--9-|
d:7---9-10-7---9-10-|10---9-7-7---9-10-|
a:7---9-10-7---9-10-|10---9-7-7---9-10-|
e:5---7--8-5---7--8-|-8---7-5-5---7--8-|

Verse

Post Verse:
e:5---7--8-6---8--9-|
b:5---7--9-6---8--9-|
g:6---8--9-6---8--9-|
d:7---9-10-7---9-10-| 2x
a:7---9-10-7---9-10-|
e:5---7--8-5---7--8-|

Verse

until the end.....

-------------------
7.Wake up Screaming
-------------------

e:----------------|----------------|----------------|----------------|
b:------------6---|------------6---|------------4---|------------4---|
g:----9-----------|----9-----------|----7-----------|----7-----------|
d:--------8-------|--------8-------|--------6-------|--------6-------|
a:7---------------|7---------------|5---------------|5---------------|
e:----------------|----------------|----------------|----------------|
 
I don´t think I am what I was before
I never watched anyone die before
I wish I´d never left home
I wish I´d left it alone
Temptation is adisease
You can never do as you please
Your body takes over and your mind don´t care
Never think twice what might happen out there

e:------------|------------|------------|------------|
b:----8---7---|----8---7---|----8---7---|----8---7---|
g:7-9---9---9-|7-9---9---9-|7-9---9---9-|7-9---9---9-|
d:------------|------------|------------|------------|
a:------------|------------|------------|------------|
e:------------|------------|------------|------------|

e:------------|------------|------------|------------|
b:----6---5---|----6---5---|----6---5---|----6---5---|
g:5-7---7---7-|5-7---7---7-|5-7---7---7-|5-7---7---7-|
d:------------|------------|------------|------------|
a:------------|------------|------------|------------|
e:------------|------------|------------|------------|

e:------------|------------|------------|------------|
b:----8---7---|----8---7---|----8---7---|----8---7---|
g:7-9---9---9-|7-9---9---9-|7-9---9---9-|7-9---9---9-|
d:------------|------------|------------|------------|
a:------------|------------|------------|------------|
e:------------|------------|------------|------------|

e:---------------|---------------|---------------|---------------|
b:---------------|---------------|---------------|---------------|
g:9-------7--10--|9-------7--10--|7-------5---8--|7-------5---8--|
d:9-------7--10--|9-------7--10--|7-------5---8--|7-------5---8--|
a:7-------5---8--|7-------5---8--|5-------3---6--|5-------3---6--|
e:---------------|---------------|---------------|---------------|

Go straight in for the ultimate sin
And nobody else ever seems to care

e:--------------------------------|--------------------------------|
b:--------------------------------|--------------------------------|
g:9---9-9-9-9-9-9-7---7-710--1010-|9---9-9-9-9-9-9-7---7-710--1010-|
d:9---9-9-9-9-9-9-7---7-710--1010-|9---9-9-9-9-9-9-7---7-710--1010-|
a:7---7-7-7-7-7-7-5---5-5-8---8-8-|7---7-7-7-7-7-7-5---5-5-8---8-8-|
e:--------------------------------|--------------------------------|


e:--------------------------------|--------------------------------|
b:--------------------------------|--------------------------------|
g:7---7-7-7-7-7-7-5---5-5-8---8-8-|7---7-7-7-7-7-7-5---5-5-8---8-8-|
d:7---7-7-7-7-7-7-5---5-5-8---8-8-|7---7-7-7-7-7-7-5---5-5-8---8-8-|
a:5---5-5-5-5-5-5-3---3-3-6---6-6-|5---5-5-5-5-5-5-3---3-3-6---6-6-|
e:--------------------------------|--------------------------------|

So I took what I thought was mine
And waited for a very long time
And I thought I knew what happened to you
Cos you told me exactly what to do
So I did it right stay up all night
Felt like killing myself for you

I don´t think I think like I did before
I never watched anyone die before
I felt like I died as well
The look the words the smell
The way you looked at me
As if I´d never be free
I remember the words liek a favourite song
Cos I forget the way things went wrong
Faked a picture of perfect health
Then I realised I was killing myself

The solo is played on the high e-string in 12th and 10th fret

E (-799---) PM
I don´t think I am what I was before
I never watched anyone die before
D (-577---) PM
I dream in slow motion and 
I WAKE UP SCREAMING 

e:--------------------------------|--------------------------------|
b:--------------------------------|--------------------------------|
g:9---9-9-9-9-9-9-7---7-710--1010-|9---9-9-9-9-9-9-7---7-710--1010-|
d:9---9-9-9-9-9-9-7---7-710--1010-|9---9-9-9-9-9-9-7---7-710--1010-|
a:7---7-7-7-7-7-7-5---5-5-8---8-8-|7---7-7-7-7-7-7-5---5-5-8---8-8-|
e:--------------------------------|--------------------------------|


e:--------------------------------|--------------------------------|
b:--------------------------------|--------------------------------|
g:7---7-7-7-7-7-7-5---5-5-8---8-8-|7---7-7-7-7-7-7-5---5-5-8---8-8-|
d:7---7-7-7-7-7-7-5---5-5-8---8-8-|7---7-7-7-7-7-7-5---5-5-8---8-8-|
a:5---5-5-5-5-5-5-3---3-3-6---6-6-|5---5-5-5-5-5-5-3---3-3-6---6-6-|
e:--------------------------------|--------------------------------|

e:--------------------|--------------------|
b:--------------------|--------------------|
g:9---9---7-7-7101010-|9---9---7-7-7101010-|
d:9---9---7-7-7101010-|9---9---7-7-7101010-|
a:7---7---5-5-5-8-8-8-|7---7---5-5-5-8-8-8-|
e:--------------------|--------------------|

e:--------------------|--------------------|
b:--------------------|--------------------|
g:7---7---5-5-5-8-8-8-|7---7---5-5-5-8-8-8-|
d:7---7---5-5-5-8-8-8-|7---7---5-5-5-8-8-8-|
a:5---5---3-3-3-6-6-6-|5---5---3-3-3-6-6-6-|
e:--------------------|--------------------|

End on

E (-799---)

-----------
8.Adversity
-----------
The machine is working really hard to get, because after the Intro is gets really confusing. 
Be patient!

------
9.Rain
------

Intro:
e:------------------|------------------|
b:------------------|------------------|
g:11-11-11-13-13-13-|14-14-14-16-16-16-|
d:11-11-11-13-13-13-|14-14-14-16-16-16-|
a:09-09-09-11-11-11-|12-12-12-14-14-14-|
e:------------------|------------------|

e:------------------|------------------|
b:------------------|------------------|
g:18-18-18-18-18-18-|18-18-18-18-18-18-|
d:18-18-18-18-18-18-|18-18-18-18-18-18-|
a:16-16-16-16-16-16-|16-16-16-16-16-16-|
e:------------------|------------------|

Riff1:
e:------------------|
b:------------------|
g:11-11----------12-|
d:11-11-10-11-11-12-|
a:09-09-10-11-11-10-|
e:------08-09-09----|

Well it´s dark outside
And the raining (it´s faling)
And the atmosphere
Is like it always has been

F# (stop) Riff1
Thought of revolution
F# (stop) Riff1
How and why
Jussed pass on by 
Gloom and depression
Faked Deprivation
Well I got no money

Chorus:
e:--------------------|
b:--------------------|
g:/14--/14--/14--/14--|
d:/14--/14--/14--/14--|
a:/12--/12--/12--/12--|
e:--------------------|

Are you depressive? Or depressing?
Or obsessive? Or obsessed?
Someone or no one?
Are you alive or dead?

e:------------------|
b:------------------|
g:------------------|
d:------------------|Bass repeats (1 oktave deeper)
a:12-12-12-10-------|
e:------------13-11-|

Riff1

Do you take your ideas 
from other people?
Surrounded by boredom
you get boring

F# (stop) Riff1
And then you start to enjoy it
F# (stop) Riff1
take all the plugs out
and sit in darkness
It´s dark in your head
you´re not alive anymore
And it´s raining

Chorus

e:------------------|
b:------------------|
g:------------------|
d:------------------|Bass repeats (1 oktave deeper)
a:12-12-12-10-------|
e:------------13-11-|

e:------------------|------------------|
b:------------------|------------------|
g:11-11-11-13-13-13-|14-14-14-16-16-16-|
d:11-11-11-13-13-13-|14-14-14-16-16-16-|
a:09-09-09-11-11-11-|12-12-12-14-14-14-|
e:------------------|------------------|

e:------------------|------------------|
b:------------------|------------------|
g:18-18-18-18-18-18-|18-18-18----------|
d:18-18-18-18-18-18-|18-18-18----------|
a:16-16-16-16-16-16-|16-16-16->>slide<<|
e:------------------|------------------|

e:------------------|
b:------------------|
g:11-11-11-11-11-11-| 
d:11-11-11-11-11-11-|repeat 5x
a:09-09-09-09-09-09-|
e:------------------|

e:---------------|------------------|
b:---------------|------------------|
g:11-09----------|09-09-09-09-09-09-|
d:------11-09----|09-09-09-09-09-09-|
a:------------11-|07-07-07-07-07-07-|
e:---------------|------------------|

e:------------------|----|------------------|
b:------------------|----|------------------|
g:07-07-07-07-07-07-|----|09-09-09-09-09-09-|
d:07-07-07-07-07-07-|>3x<|09-09-09-09-09-09-|
a:05-05-05-05-05-05-|----|07-07-07-07-07-07-|
e:------------------|----|------------------|

e:------------------|------------------|------------------|
b:------------------|------------------|------------------|
g:11-11-11-11-11-11-|14-13-14-16-14-16-|18-18-18-18-18-18-|
d:11-11-11-11-11-11-|14-13-14-16-14-16-|18-18-18-18-18-18-|
a:09-09-09-09-09-09-|12-11-12-14-12-14-|16-16-16-16-16-16-|
e:------------------|------------------|------------------|

e:------------------|----|------------------|----|------------------|
b:------------------|----|------------------|----|------------------|
g:09-09-09-09-09-09-|----|07-07-07-07-07-07-|----|09-09-09-09-09-09-|
d:09-09-09-09-09-09-|>3x<|07-07-07-07-07-07-|>3x<|09-09-09-09-09-09-|
a:07-07-07-07-07-07-|----|05-05-05-05-05-05-|----|07-07-07-07-07-07-|
e:------------------|----|------------------|----|------------------|

End on Riff1

-------------------------------
10 From the Cradle to the Grave
-------------------------------

Intro
e:----------------|----------------------|
b:----------------|----------------------|
g:9---9-9-9-9-9-9-|13---13-13-11---11-11-|
d:9---9-9-9-9-9-9-|13---13-13-11---11-11-|
a:7---7-7-7-7-7-7-|11---11-11-09---09-09-|
e:----------------|----------------------|

e:----------------------|------------------|
b:----------------------|------------------|
g:10---10-10---10-10-10-|------------------|
d:10---10-10---10-10-10-|7--7--7--7--7--7--|sometimes the A5 is an oktave higher
a:08---08-08---08-08-08-|7--7--7--7--7--7--|
e:----------------------|5--5--5--5--5--5--|
these riffs are played some time with repetitions
End on (-688---) with tremolo picking

Verse:
e:--------------------|--------------------|
b:--------------------|--------------------|
g:--------------------|--------------------|
d:7/9-9-9-9-7/9-9-9-9-|7/9-9-9-9-7/9-9-9-9-|
a:7/9-9-9-9-7/9-9-9-9-|7/9-9-9-9-7/9-9-9-9-|
e:5/7-7-7-7-5/7-7-7-7-|5/7-7-7-7-5/7-7-7-7-|

e:--------------------|--------------------|
b:--------------------|--------------------|
g:--------------------|--------------------|
d:7/8-8-8-8-7/8-8-8-8-|7/8-8-8-8-7/8-8-8-8-|
a:7/8-8-8-8-7/8-8-8-8-|7/8-8-8-8-7/8-8-8-8-|
e:5/6-6-6-6-5/6-6-6-6-|5/6-6-6-6-5/6-6-6-6-|

Well they took you from your mother´s womb and put you in a school
Told you how to run your life by following the rules
Told you not to pick your nose or disrespect the queen
Scrub your teeth three times a day keep your mind and body clean

e:----------------|----------------|--------------|
b:----------------|----------------|--------------|
g:9---9-9-8---8-8-|7---7-7-6---6-6-|5---5-5-4-----|
d:9---9-9-8---8-8-|7---7-7-6---6-6-|5---5-5-4-----|
a:7---7-7-6---6-6-|5---5-5-4---4-4-|3---3-3-2-----|
e:----------------|----------------|--------------|

Verse:
Save up all your pocket money nothing is for free
And you´d better trust your parents cos there´s no one else you see
And then they send you off each day remember what you´re told
You may think you don´t need teaching but you´ll need it when you´re old

e:----------------|----------------|--------------|
b:----------------|----------------|--------------|
g:9---9-9-8---8-8-|7---7-7-6---6-6-|5---5-5-4-----|
d:9---9-9-8---8-8-|7---7-7-6---6-6-|5---5-5-4-----|+VerseRiff few times
a:7---7-7-6---6-6-|5---5-5-4---4-4-|3---3-3-2-----|
e:----------------|----------------|--------------|

e:~~~~~~~~~~~~~~|------------------------|------------------------|
b:9-10-11-12-13-|------------------------|------------------------|
g:--------------|13-13-13-13-13-13-13-13-|13-13-13-13-13-13-13-13-|
d:--------------|13-13-13-13-13-13-13-13-|13-13-13-13-13-13-13-13-|
a:--------------|11-11-11-11-11-11-11-11-|11-11-11-11-11-11-11-11-|
e:--------------|------------------------|------------------------|

e:----------------------|----------------------|
b:----------------------|----------------------|
g:14---14-14-13---13-13-|12---12-12-11---11-10-|
d:14---14-14-13---13-13-|12---12-12-11---11-10-|
a:12---12-12-11---11-11-|10---10-10-09---09-08-|
e:----------------------|----------------------|

e:----------------|----------------|----------------|----------------|
b:----------------|----------------|----------------|----------------|
g:----------------|----------------|----------------|----------------|
d:x-x-8-8-x-x-8-8-|x-x-8-8-x-x-8-8-|x-x-9-9-x-x-9-9-|x-x-9-9-x-x-9-9-|2x
a:x-x-8-8-x-x-8-8-|x-x-8-8-x-x-8-8-|x-x-9-9-x-x-9-9-|x-x-9-9-x-x-9-9-|
e:x-x-6-6-x-x-6-6-|x-x-6-6-x-x-6-6-|x-x-7-7-x-x-7-7-|x-x-7-7-x-x-7-7-|

3rd Verse:
e:--------------------|--------------------|--------------------|
b:--------------------|--------------------|--------------------|
g:--------------------|--------------------|--------------------|
d:x-x-16-16-x-x-16-16-|x-x-14-14-x-x-14-14-|x-x-12-12-x-x-12-12-|
a:x-x-16-16-x-x-16-16-|x-x-14-14-x-x-14-14-|x-x-12-12-x-x-12-12-|
e:x-x-14-14-x-x-14-14-|x-x-12-12-x-x-12-12-|x-x-10-10-x-x-10-10-|

e:------------------------|
b:------------------------|
g:------------------------|
d:12--12--12--14--14--14--|
a:12--12--12--14--14--14--|
e:10--10--10--12--12--12--|

And if you´re too intelligent they´ll cut you down to size
They´ll praise you ´til you´re happy then they´ll fill you full of lies
´cos intelligence is threatening and genious is sin
If you could ever see through them they known they´d never win

e:----------------|--------------------|
b:----------------|--------------------|
g:x-x-9-9-x-x-9-9-|x-x-10-10-x-x-10-10-|
d:x-x-9-9-x-x-9-9-|x-x-10-10-x-x-10-10-|repeat 3x
a:x-x-7-7-x-x-7-7-|x-x-08-08-x-x-08-08-|
e:----------------|--------------------|

e:------------------|*-------*-------|
b:------------------|7-*-----7-*-----|
g:x-x-9-9-x-x-10-10-|--7-*-*---7-*-*-|
d:x-x-9-9-x-x-10-10-|----7-7-----7-7-|repeat 3x
a:x-x-7-7-x-x-08-08-|----------------|
e:------------------|----------------|

e:*-------*-------|
b:7-*-*-*-7-------|
g:--7-7-7---*-*-*-|*=flageolet
d:----------7-7-7-|repeat 3x
a:----------------|
e:----------------|

e:------------|------------|------------|------------------|
b:------------|------------|------------|------------------|
g:------------|------------|------------|------------------|
d:------------|------------|------------|5--5--5--7--7--7--|
a:------7-9---|------5-7---|------3-5---|5--5--5--7--7--7--|
e:7-7-x-------|5-5-x-------|3-3-x-------|3--3--3--5--5--5--|

e:----------------|--------------------|--------------|
b:----------------|--------------------|--------------|
g:----------------|--------5b5b5b7b7b7b|9b------------|
d:9---9---7---7---|5---5---------------|--------------|
a:9---9---7---7---|5---5---------------|--------------|
e:7---7---5---5---|3---3---------------|--------------|


e:--------------------|--------------------|--------------------|
b:--------------------|--------------------|--------------------|
g:--------------------|--------------------|--------------------|
d:x-x-16-16-x-x-16-16-|x-x-14-14-x-x-14-14-|x-x-12-12-x-x-12-12-|
a:x-x-16-16-x-x-16-16-|x-x-14-14-x-x-14-14-|x-x-12-12-x-x-12-12-|
e:x-x-14-14-x-x-14-14-|x-x-12-12-x-x-12-12-|x-x-10-10-x-x-10-10-|

e:------------------------|
b:------------------------|
g:------------------------|
d:12--12--12--14--14--14--|
a:12--12--12--14--14--14--|
e:10--10--10--12--12--12--|


Solo 
e:--------------|--------------|--------------|
b:--------------|15b~~~~~~~~~~~|17b~~~~~~~~~~~|
g:14b~~~~~~~~~~~|--------------|--------------|
d:--------------|--------------|--------------|
a:--------------|--------------|--------------|
e:--------------|--------------|--------------|

e:--------------------|--------------------|--------------------|
b:--------------------|--------------------|--------------------|
g:--------------------|--------------------|--------------------|
d:x-x-16-16-x-x-16-16-|x-x-14-14-x-x-14-14-|x-x-12-12-x-x-12-12-|
a:x-x-16-16-x-x-16-16-|x-x-14-14-x-x-14-14-|x-x-12-12-x-x-12-12-|
e:x-x-14-14-x-x-14-14-|x-x-12-12-x-x-12-12-|x-x-10-10-x-x-10-10-|

e:------------------------|
b:------------------------|
g:------------------------|
d:12--12--12--14--14--14--|
a:12--12--12--14--14--14--|
e:10--10--10--12--12--12--|


4th Verse
e:---------------|---------------|---------------|------------------------|
b:---------------|---------------|---------------|------------------------|
g:16-------------|14-------------|12-------------|12--12--12--14--14--14--|
d:16-------------|14-------------|12-------------|12--12--12--14--14--14--|
a:14-------------|12-------------|10-------------|10--10--10--12--12--12--|
e:---------------|---------------|---------------|------------------------|

So they channel your ability into the right direction
If you´re good enough and rich enough you can be a politician
On the other hand if you´re too thick they´ll tell you that you´re lazy
They´ll put you down and wind you up until it drives you crazy

e:----------------|--------------------|
b:----------------|--------------------|
g:x-x-9-9-x-x-9-9-|x-x-10-10-x-x-10-10-|
d:x-x-9-9-x-x-9-9-|x-x-10-10-x-x-10-10-|repeat 3x
a:x-x-7-7-x-x-7-7-|x-x-08-08-x-x-08-08-|
e:----------------|--------------------|

e:------------------|*-------*-------|
b:------------------|7-*-----7-*-----|
g:x-x-9-9-x-x-10-10-|--7-*-*---7-*-*-|
d:x-x-9-9-x-x-10-10-|----7-7-----7-7-|repeat 3x
a:x-x-7-7-x-x-08-08-|----------------|
e:------------------|----------------|

e:*-------*-------|
b:7-*-*-*-7-------|
g:--7-7-7---*-*-*-|*=flageolet
d:----------7-7-7-|repeat 3x
a:----------------|
e:----------------|

e:------------|------------|------------|------------------|
b:------------|------------|------------|------------------|
g:------------|------------|------------|------------------|
d:------------|------------|------------|5--5--5--7--7--7--|
a:------7-9---|------5-7---|------3-5---|5--5--5--7--7--7--|
e:7-7-x-------|5-5-x-------|3-3-x-------|3--3--3--5--5--5--|

e:----------------|----------------|----------------|----------------|
b:----------------|----------------|----------------|----------------|
g:----------------|----------------|7--5-----5--5-5-|7--5-----5--5-5-|
d:9--7--2--7--7-7-|9--7--2--2--2-2-|7--5--5--5--5-5-|7--5--5--5--5-5-|
a:9--7--2--7--7-7-|9--7--2--2--2-2-|5--3--5--3--3-3-|5--3--5--3--3-3-|
e:7--5--0--5--5-5-|7--5--0--0--0-0-|------3---------|------3---------|

5th Verse
e:----------------|----------------|
b:----------------|----------------|
g:7--5-----5--5-5-|7--5-----5--5-5-|
d:7--5--5--5--5-5-|7--5--5--5--5-5-|
a:5--3--5--3--3-3-|5--3--5--3--3-3-|
e:------3---------|------3---------|
They´ll say you ought to learn a trade to help yoi in your life
Success is written in three parts a job a house a wife
They´ll say that school prepares you for the awesome world outside
Well it certainly gives you bigotry 

e:-----------------|-----------------|
b:-----------------|-----------------|
g:-----------------|-----------------|
d:0-2-3------------|0-2-3------------|
a:------0-2-3------|------0-2-3------|
e:-----------------|-----------------|

a patriotic pride

e:----------------|----------------|----------------|----------------|
b:----------------|----------------|----------------|----------------|
g:5-5-5-5-5-5-5-5-|5-5-5-5-5-5-5-5-|7-7-7-7-7-7-7-7-|7-7-7-7-7-7-7-7-|
d:5-5-5-5-5-5-5-5-|5-5-5-5-5-5-5-5-|7-7-7-7-7-7-7-7-|7-7-7-7-7-7-7-7-|
a:3-3-3-3-3-3-3-3-|3-3-3-3-3-3-3-3-|5-5-5-5-5-5-5-5-|5-5-5-5-5-5-5-5-|
e:----------------|----------------|----------------|----------------|
Racism sexism teacher to class
from school to work remain the same are you white and middle class?

e:-----------------|-----------------|
b:-----------------|-----------------|
g:-----------------|-----------------|
d:0-2-3------------|0-2-3------------|
a:------0-2-3------|------0-2-3------|
e:-----------------|-----------------|

e:---------------|
b:---------------|
g:10-------------|
d:10--10--5--10--|4x
a:08--10--5--10--|
e:----08--3--08--|

6th Verse
e:----------------|----------------|
b:----------------|----------------|
g:7--5-----5--5-5-|7--5-----5--5-5-|
d:7--5--5--5--5-5-|7--5--5--5--5-5-|
a:5--3--5--3--3-3-|5--3--5--3--3-3-|
e:------3---------|------3---------|

You´ll learn that bad men dress in black and good men dress in white
And the pamphlets in the playground say that´s right
And that girl were made for housework boys were made to fight
And the naughty pictures on page 3 


e:-----------------|-----------------|
b:-----------------|-----------------|
g:-----------------|-----------------|
d:0-2-3------------|0-2-3------------|
a:------0-2-3------|------0-2-3------|
e:-----------------|-----------------|

make everything alright

e:----------------|----------------|----------------|----------------|
b:----------------|----------------|----------------|----------------|
g:5-5-5-5-5-5-5-5-|5-5-5-5-5-5-5-5-|7-7-7-7-7-7-7-7-|7-7-7-7-7-7-7-7-|
d:5-5-5-5-5-5-5-5-|5-5-5-5-5-5-5-5-|7-7-7-7-7-7-7-7-|7-7-7-7-7-7-7-7-|
a:3-3-3-3-3-3-3-3-|3-3-3-3-3-3-3-3-|5-5-5-5-5-5-5-5-|5-5-5-5-5-5-5-5-|
e:----------------|----------------|----------------|----------------|

And so from school to the outside world these morals you will take
And unless you can reject them you´ll have you mind at stake

e:-----------------|-----------------|
b:-----------------|-----------------|
g:-----------------|-----------------|
d:0-2-3------------|0-2-3------------|
a:------0-2-3------|------0-2-3------|
e:-----------------|-----------------|

e:---------------|
b:---------------|
g:10-------------|
d:10--10--5--10--|4x
a:08--10--5--10--|
e:----08--3--08--|

e:----------------|----------------|
b:----------------|----------------|
g:7--5-----5--5-5-|7--5-----5--5-5-|
d:7--5--5--5--5-5-|7--5--5--5--5-5-|
a:5--3--5--3--3-3-|5--3--5--3--3-3-|
e:------3---------|------3---------|

7th Verse
PM____________________________________________
e:----------|----------|----------|----------|
b:----------|----------|----------|----------|
g:----------|----------|----------|----------|
d:12--------|13--------|14--------|15--------|
a:12-<<16x>>|13-<<16x>>|14-<<16x>>|15-<<16x>>|
e:10--------|11--------|12--------|13--------|

PM______________________
e:----------|----------|----------
b:----------|----------|----------
g:12--------|13--------|14--------
d:12-<<16x>>|13-<<16x>>|14--------
a:10--------|11--------|12--------
e:----------|----------|----------

They´ll give you a decision when you get to 18 too
The right to vote for someone else who says he cares for you
But the only thing he cares about is getting to the top
By conning you with empty words that promise you a lot
But the end resullt is slavery to a false set of ideals
You´ll be tempted to believe them cos they´ll seem so very real
The slavery of attitudes that make you keep in line
Subconsciously devoted to the morals of our time

e:------------|
b:------------|
g:7-7-8-8-9-9-|
d:7-7-8-8-9-9-|
a:5-5-6-6-7-7-|
e:------------|

And when you end up one the dole which you very likely will
They´ll offer you a brand new trade learning how to kill

e:----------------|-------------------|
b:----------------|-------------------|
g:----------------|-------------------|
d:7-7-7-7-7---8---|8-7-8-10-8-7h8p7---|
a:7-7-7-7-7---8---|-------------------|
e:5-5-5-5-5---6---|-------------------|

e:------------|
b:------------|
g:7-7-8-8-9-9-|
d:7-7-8-8-9-9-|
a:5-5-6-6-7-7-|
e:------------|
Why don´t go you join the army? 
Be a man and not a fool
There´s someone else to think for you 
just like there was a school

e:----------------|-------------------|
b:----------------|-------------------|
g:----------------|-------------------|
d:7-7-7-7-7---8---|8-7-8-10-8-7h8p7---|
a:7-7-7-7-7---8---|-------------------|
e:5-5-5-5-5---6---|-------------------|

e:------------|
b:------------|
g:7-7-8-8-9-9-|
d:7-7-8-8-9-9-|
a:5-5-6-6-7-7-|
e:------------|

N.C.
They´ll promise you absolution from the murders you´ll commit
In the name of god and country they can get away with it
They fill you full of orders and promise you rewards
Like busting up your family by sending you abroad
A holiday in Germany or Iceland or Hong Kong
Making money being useless well it seems it cant be wrong

e:------------|
b:------------|
g:------------|
d:7-7---7-7---|
a:7-7---7-7---|
e:5-5---5-5---|

But then it´s off to Northern Ireland where you´ll practice what they preached
You´ll shoot to keep yourself alive and kill to keep the peace
And then it won´t be so much fun as you hear the wounded crying
´cosbefore they couldn´t speak english, and you didn´t know what they were saying

(Lots of Dead Notes)
But when the children call you BASTARD! it will make you think again
When you cannot tell the difference between animals and men

e:----------------|----------------|
b:----------------|----------------|
g:----------------|----------------|
d:7-7---7-7---8---|7-7---7-7---6---|very often
a:7-7---7-7---8---|7-7---7-7---6---|
e:5-5---5-5---6---|5-5---5-5---4---|

e:----------------|
b:----------------|
g:16b-16b-16b-16b-|
d:----------------|
a:----------------|
e:----------------|

e:----------------|----------------|
b:----------------|----------------|
g:----------------|----------------|
d:7-7---7-7---8---|7-7---7-7---6---|
a:7-7---7-7---8---|7-7---7-7---6---|
e:5-5---5-5---6---|5-5---5-5---4---|

e:----------------|
b:----------------|
g:16b-16b-16b-16b-|
d:----------------|
a:----------------|
e:----------------|

e:--------------------|------------------------|
b:--------------------|------------------------|
g:--------------------|13-13-13-13-11-11-11-11-|
d:14---14-14-14-14-14-|13-13-13-13-11-11-11-11-|
a:14---14-14-14-14-14-|11-11-11-11-09-09-09-09-|
e:12---12-12-12-12-12-|------------------------|

e:--------------------|------------------------|
b:--------------------|------------------------|
g:--------------------|------------------------|
d:15---15-15-15-15-15-|14--14--14--14--14--14--|
a:15---15-15-15-15-15-|14--14--14--14--14--14--|
e:13---13-13-13-13-13-|12--12--12--12--12--12--|

N.C.
Animals don´t wear uniforms but they kill as much as you
But the army kills for money and animals kill for food
It´s the basest degradation in the name of what is right
Become something you never were and regret it ´til you die

e:----------------|
b:----------------|
g:----------------|
d:7---7---7---7---|
a:7---7---7---7---|
e:5-3-5-3-5-3-5-3-|

N.C.
´cos your father will tell you sonny you must do as you were told
And aou´ll say the same thing to your kids when you´re 32 years old
And unless you can react against the brainwash from the start
Your government will rule your mind and you mind will rule your heart

d:/14-\12-\10-

You´ll conform to every social law and be the system´s slave
From birth to school to work to death from the cradle to the grave

e:-------------------|--------------------|
b:-------------------|--------------------|
g:-------------------|10------------------|
d:7------------------|10------------------|
a:7--(several times)-|08--(several times)-|
e:5------------------|--------------------|

e:----------------------|------------------|
b:----------------------|------------------|
g:10---10-10---10-10-10-|------------------|
d:10---10-10---10-10-10-|7--7--7--7--7--7--|
a:08---08-08---08-08-08-|7--7--7--7--7--7--|
e:----------------------|5--5--5--5--5--5--|

e:----------------|----------------------|
b:----------------|----------------------|
g:9---9-9-9-9-9-9-|13---13-13-11---11-11-|
d:9---9-9-9-9-9-9-|13---13-13-11---11-11-| (same as Intro slowly fading out)
a:7---7-7-7-7-7-7-|11---11-11-09---09-09-|
e:----------------|----------------------|

comments
We did not receive enough feedback on this tab! Please rate:
print report bad tab
1 2 3 4 5
I want to post or [tab]
guest
You may want to rate the tab now too:
select rating
Please do not post tabs as comments. Select "correction" instead!