Oops, an error
Loading. Please wait.

From The Cradle To The Grave Tab

ver1
ver1

Album

Whole song

More versions @911Tabs.com
783 views 9 this week
no commentswrite comment
1 2 3 4 5
please rate
Autoscroll
+/-
esc
set tempo
stop
Contributor
WARNING: You are trying to view
                                    content from Ultimate-Guitar.com
                                    in an unauthorized application,
                                    which is prohibited.

                                    Please use an official Ultimate
                                    Guitar Tabs application for iPhone,
                                    iPad or Android to access legitimate
                                    chords, guitar, bass, and drum tabs
                                    from Ultimate-Guitar.com database.

                                    Type "ultimate guitar tabs" in Apple
                                    App Store's or Android Market's
                                    search to find the application.
Subhumans - From the Cradle to the grave

Intro
e:----------------|----------------------|
b:----------------|----------------------|
g:9---9-9-9-9-9-9-|13---13-13-11---11-11-|
d:9---9-9-9-9-9-9-|13---13-13-11---11-11-|
a:7---7-7-7-7-7-7-|11---11-11-09---09-09-|
e:----------------|----------------------|

e:----------------------|------------------|
b:----------------------|------------------|
g:10---10-10---10-10-10-|------------------|
d:10---10-10---10-10-10-|7--7--7--7--7--7--|sometimes the A5 is an oktave higher
a:08---08-08---08-08-08-|7--7--7--7--7--7--|
e:----------------------|5--5--5--5--5--5--|
these riffs are played some time with repetitions
End on (-688---) with tremolo picking

Verse:
e:--------------------|--------------------|
b:--------------------|--------------------|
g:--------------------|--------------------|
d:7/9-9-9-9-7/9-9-9-9-|7/9-9-9-9-7/9-9-9-9-|
a:7/9-9-9-9-7/9-9-9-9-|7/9-9-9-9-7/9-9-9-9-|
e:5/7-7-7-7-5/7-7-7-7-|5/7-7-7-7-5/7-7-7-7-|

e:--------------------|--------------------|
b:--------------------|--------------------|
g:--------------------|--------------------|
d:7/8-8-8-8-7/8-8-8-8-|7/8-8-8-8-7/8-8-8-8-|
a:7/8-8-8-8-7/8-8-8-8-|7/8-8-8-8-7/8-8-8-8-|
e:5/6-6-6-6-5/6-6-6-6-|5/6-6-6-6-5/6-6-6-6-|

Well they took you from your mother´s womb and put you in a school
Told you how to run your life by following the rules
Told you not to pick your nose or disrespect the queen
Scrub your teeth three times a day keep your mind and body clean

e:----------------|----------------|--------------|
b:----------------|----------------|--------------|
g:9---9-9-8---8-8-|7---7-7-6---6-6-|5---5-5-4-----|
d:9---9-9-8---8-8-|7---7-7-6---6-6-|5---5-5-4-----|
a:7---7-7-6---6-6-|5---5-5-4---4-4-|3---3-3-2-----|
e:----------------|----------------|--------------|

Verse:
Save up all your pocket money nothing is for free
And you´d better trust your parents cos there´s no one else you see
And then they send you off each day remember what you´re told
You may think you don´t need teaching but you´ll need it when you´re old

e:----------------|----------------|--------------|
b:----------------|----------------|--------------|
g:9---9-9-8---8-8-|7---7-7-6---6-6-|5---5-5-4-----|
d:9---9-9-8---8-8-|7---7-7-6---6-6-|5---5-5-4-----|+VerseRiff few times
a:7---7-7-6---6-6-|5---5-5-4---4-4-|3---3-3-2-----|
e:----------------|----------------|--------------|

e:~~~~~~~~~~~~~~|------------------------|------------------------|
b:9-10-11-12-13-|------------------------|------------------------|
g:--------------|13-13-13-13-13-13-13-13-|13-13-13-13-13-13-13-13-|
d:--------------|13-13-13-13-13-13-13-13-|13-13-13-13-13-13-13-13-|
a:--------------|11-11-11-11-11-11-11-11-|11-11-11-11-11-11-11-11-|
e:--------------|------------------------|------------------------|

e:----------------------|----------------------|
b:----------------------|----------------------|
g:14---14-14-13---13-13-|12---12-12-11---11-10-|
d:14---14-14-13---13-13-|12---12-12-11---11-10-|
a:12---12-12-11---11-11-|10---10-10-09---09-08-|
e:----------------------|----------------------|

e:----------------|----------------|----------------|----------------|
b:----------------|----------------|----------------|----------------|
g:----------------|----------------|----------------|----------------|
d:x-x-8-8-x-x-8-8-|x-x-8-8-x-x-8-8-|x-x-9-9-x-x-9-9-|x-x-9-9-x-x-9-9-|2x
a:x-x-8-8-x-x-8-8-|x-x-8-8-x-x-8-8-|x-x-9-9-x-x-9-9-|x-x-9-9-x-x-9-9-|
e:x-x-6-6-x-x-6-6-|x-x-6-6-x-x-6-6-|x-x-7-7-x-x-7-7-|x-x-7-7-x-x-7-7-|

3rd Verse:
e:--------------------|--------------------|--------------------|
b:--------------------|--------------------|--------------------|
g:--------------------|--------------------|--------------------|
d:x-x-16-16-x-x-16-16-|x-x-14-14-x-x-14-14-|x-x-12-12-x-x-12-12-|
a:x-x-16-16-x-x-16-16-|x-x-14-14-x-x-14-14-|x-x-12-12-x-x-12-12-|
e:x-x-14-14-x-x-14-14-|x-x-12-12-x-x-12-12-|x-x-10-10-x-x-10-10-|

e:------------------------|
b:------------------------|
g:------------------------|
d:12--12--12--14--14--14--|
a:12--12--12--14--14--14--|
e:10--10--10--12--12--12--|

And if you´re too intelligent they´ll cut you down to size
They´ll praise you ´til you´re happy then they´ll fill you full of lies
´cos intelligence is threatening and genious is sin
If you could ever see through them they known they´d never win

e:----------------|--------------------|
b:----------------|--------------------|
g:x-x-9-9-x-x-9-9-|x-x-10-10-x-x-10-10-|
d:x-x-9-9-x-x-9-9-|x-x-10-10-x-x-10-10-|repeat 3x
a:x-x-7-7-x-x-7-7-|x-x-08-08-x-x-08-08-|
e:----------------|--------------------|

e:------------------|*-------*-------|
b:------------------|7-*-----7-*-----|
g:x-x-9-9-x-x-10-10-|--7-*-*---7-*-*-|
d:x-x-9-9-x-x-10-10-|----7-7-----7-7-|repeat 3x
a:x-x-7-7-x-x-08-08-|----------------|
e:------------------|----------------|

e:*-------*-------|
b:7-*-*-*-7-------|
g:--7-7-7---*-*-*-|*=flageolet
d:----------7-7-7-|repeat 3x
a:----------------|
e:----------------|

e:------------|------------|------------|------------------|
b:------------|------------|------------|------------------|
g:------------|------------|------------|------------------|
d:------------|------------|------------|5--5--5--7--7--7--|
a:------7-9---|------5-7---|------3-5---|5--5--5--7--7--7--|
e:7-7-x-------|5-5-x-------|3-3-x-------|3--3--3--5--5--5--|

e:----------------|--------------------|--------------|
b:----------------|--------------------|--------------|
g:----------------|--------5b5b5b7b7b7b|9b------------|
d:9---9---7---7---|5---5---------------|--------------|
a:9---9---7---7---|5---5---------------|--------------|
e:7---7---5---5---|3---3---------------|--------------|


e:--------------------|--------------------|--------------------|
b:--------------------|--------------------|--------------------|
g:--------------------|--------------------|--------------------|
d:x-x-16-16-x-x-16-16-|x-x-14-14-x-x-14-14-|x-x-12-12-x-x-12-12-|
a:x-x-16-16-x-x-16-16-|x-x-14-14-x-x-14-14-|x-x-12-12-x-x-12-12-|
e:x-x-14-14-x-x-14-14-|x-x-12-12-x-x-12-12-|x-x-10-10-x-x-10-10-|

e:------------------------|
b:------------------------|
g:------------------------|
d:12--12--12--14--14--14--|
a:12--12--12--14--14--14--|
e:10--10--10--12--12--12--|


Solo 
e:--------------|--------------|--------------|
b:--------------|15b~~~~~~~~~~~|17b~~~~~~~~~~~|
g:14b~~~~~~~~~~~|--------------|--------------|
d:--------------|--------------|--------------|
a:--------------|--------------|--------------|
e:--------------|--------------|--------------|

e:--------------------|--------------------|--------------------|
b:--------------------|--------------------|--------------------|
g:--------------------|--------------------|--------------------|
d:x-x-16-16-x-x-16-16-|x-x-14-14-x-x-14-14-|x-x-12-12-x-x-12-12-|
a:x-x-16-16-x-x-16-16-|x-x-14-14-x-x-14-14-|x-x-12-12-x-x-12-12-|
e:x-x-14-14-x-x-14-14-|x-x-12-12-x-x-12-12-|x-x-10-10-x-x-10-10-|

e:------------------------|
b:------------------------|
g:------------------------|
d:12--12--12--14--14--14--|
a:12--12--12--14--14--14--|
e:10--10--10--12--12--12--|


4th Verse
e:---------------|---------------|---------------|------------------------|
b:---------------|---------------|---------------|------------------------|
g:16-------------|14-------------|12-------------|12--12--12--14--14--14--|
d:16-------------|14-------------|12-------------|12--12--12--14--14--14--|
a:14-------------|12-------------|10-------------|10--10--10--12--12--12--|
e:---------------|---------------|---------------|------------------------|

So they channel your ability into the right direction
If you´re good enough and rich enough you can be a politician
On the other hand if you´re too thick they´ll tell you that you´re lazy
They´ll put you down and wind you up until it drives you crazy

e:----------------|--------------------|
b:----------------|--------------------|
g:x-x-9-9-x-x-9-9-|x-x-10-10-x-x-10-10-|
d:x-x-9-9-x-x-9-9-|x-x-10-10-x-x-10-10-|repeat 3x
a:x-x-7-7-x-x-7-7-|x-x-08-08-x-x-08-08-|
e:----------------|--------------------|

e:------------------|*-------*-------|
b:------------------|7-*-----7-*-----|
g:x-x-9-9-x-x-10-10-|--7-*-*---7-*-*-|
d:x-x-9-9-x-x-10-10-|----7-7-----7-7-|repeat 3x
a:x-x-7-7-x-x-08-08-|----------------|
e:------------------|----------------|

e:*-------*-------|
b:7-*-*-*-7-------|
g:--7-7-7---*-*-*-|*=flageolet
d:----------7-7-7-|repeat 3x
a:----------------|
e:----------------|

e:------------|------------|------------|------------------|
b:------------|------------|------------|------------------|
g:------------|------------|------------|------------------|
d:------------|------------|------------|5--5--5--7--7--7--|
a:------7-9---|------5-7---|------3-5---|5--5--5--7--7--7--|
e:7-7-x-------|5-5-x-------|3-3-x-------|3--3--3--5--5--5--|

e:----------------|----------------|----------------|----------------|
b:----------------|----------------|----------------|----------------|
g:----------------|----------------|7--5-----5--5-5-|7--5-----5--5-5-|
d:9--7--2--7--7-7-|9--7--2--2--2-2-|7--5--5--5--5-5-|7--5--5--5--5-5-|
a:9--7--2--7--7-7-|9--7--2--2--2-2-|5--3--5--3--3-3-|5--3--5--3--3-3-|
e:7--5--0--5--5-5-|7--5--0--0--0-0-|------3---------|------3---------|

5th Verse
e:----------------|----------------|
b:----------------|----------------|
g:7--5-----5--5-5-|7--5-----5--5-5-|
d:7--5--5--5--5-5-|7--5--5--5--5-5-|
a:5--3--5--3--3-3-|5--3--5--3--3-3-|
e:------3---------|------3---------|
They´ll say you ought to learn a trade to help yoi in your life
Success is written in three parts a job a house a wife
They´ll say that school prepares you for the awesome world outside
Well it certainly gives you bigotry 

e:-----------------|-----------------|
b:-----------------|-----------------|
g:-----------------|-----------------|
d:0-2-3------------|0-2-3------------|
a:------0-2-3------|------0-2-3------|
e:-----------------|-----------------|

a patriotic pride

e:----------------|----------------|----------------|----------------|
b:----------------|----------------|----------------|----------------|
g:5-5-5-5-5-5-5-5-|5-5-5-5-5-5-5-5-|7-7-7-7-7-7-7-7-|7-7-7-7-7-7-7-7-|
d:5-5-5-5-5-5-5-5-|5-5-5-5-5-5-5-5-|7-7-7-7-7-7-7-7-|7-7-7-7-7-7-7-7-|
a:3-3-3-3-3-3-3-3-|3-3-3-3-3-3-3-3-|5-5-5-5-5-5-5-5-|5-5-5-5-5-5-5-5-|
e:----------------|----------------|----------------|----------------|
Racism sexism teacher to class
from school to work remain the same are you white and middle class?

e:-----------------|-----------------|
b:-----------------|-----------------|
g:-----------------|-----------------|
d:0-2-3------------|0-2-3------------|
a:------0-2-3------|------0-2-3------|
e:-----------------|-----------------|

e:---------------|
b:---------------|
g:10-------------|
d:10--10--5--10--|4x
a:08--10--5--10--|
e:----08--3--08--|

6th Verse
e:----------------|----------------|
b:----------------|----------------|
g:7--5-----5--5-5-|7--5-----5--5-5-|
d:7--5--5--5--5-5-|7--5--5--5--5-5-|
a:5--3--5--3--3-3-|5--3--5--3--3-3-|
e:------3---------|------3---------|

You´ll learn that bad men dress in black and good men dress in white
And the pamphlets in the playground say that´s right
And that girl were made for housework boys were made to fight
And the naughty pictures on page 3 


e:-----------------|-----------------|
b:-----------------|-----------------|
g:-----------------|-----------------|
d:0-2-3------------|0-2-3------------|
a:------0-2-3------|------0-2-3------|
e:-----------------|-----------------|

make everything alright

e:----------------|----------------|----------------|----------------|
b:----------------|----------------|----------------|----------------|
g:5-5-5-5-5-5-5-5-|5-5-5-5-5-5-5-5-|7-7-7-7-7-7-7-7-|7-7-7-7-7-7-7-7-|
d:5-5-5-5-5-5-5-5-|5-5-5-5-5-5-5-5-|7-7-7-7-7-7-7-7-|7-7-7-7-7-7-7-7-|
a:3-3-3-3-3-3-3-3-|3-3-3-3-3-3-3-3-|5-5-5-5-5-5-5-5-|5-5-5-5-5-5-5-5-|
e:----------------|----------------|----------------|----------------|

And so from school to the outside world these morals you will take
And unless you can reject them you´ll have you mind at stake

e:-----------------|-----------------|
b:-----------------|-----------------|
g:-----------------|-----------------|
d:0-2-3------------|0-2-3------------|
a:------0-2-3------|------0-2-3------|
e:-----------------|-----------------|

e:---------------|
b:---------------|
g:10-------------|
d:10--10--5--10--|4x
a:08--10--5--10--|
e:----08--3--08--|

e:----------------|----------------|
b:----------------|----------------|
g:7--5-----5--5-5-|7--5-----5--5-5-|
d:7--5--5--5--5-5-|7--5--5--5--5-5-|
a:5--3--5--3--3-3-|5--3--5--3--3-3-|
e:------3---------|------3---------|

7th Verse
PM____________________________________________
e:----------|----------|----------|----------|
b:----------|----------|----------|----------|
g:----------|----------|----------|----------|
d:12--------|13--------|14--------|15--------|
a:12-<<16x>>|13-<<16x>>|14-<<16x>>|15-<<16x>>|
e:10--------|11--------|12--------|13--------|

PM______________________
e:----------|----------|----------
b:----------|----------|----------
g:12--------|13--------|14--------
d:12-<<16x>>|13-<<16x>>|14--------
a:10--------|11--------|12--------
e:----------|----------|----------

They´ll give you a decision when you get to 18 too
The right to vote for someone else who says he cares for you
But the only thing he cares about is getting to the top
By conning you with empty words that promise you a lot
But the end resullt is slavery to a false set of ideals
You´ll be tempted to believe them cos they´ll seem so very real
The slavery of attitudes that make you keep in line
Subconsciously devoted to the morals of our time

e:------------|
b:------------|
g:7-7-8-8-9-9-|
d:7-7-8-8-9-9-|
a:5-5-6-6-7-7-|
e:------------|

And when you end up one the dole which you very likely will
They´ll offer you a brand new trade learning how to kill

e:----------------|-------------------|
b:----------------|-------------------|
g:----------------|-------------------|
d:7-7-7-7-7---8---|8-7-8-10-8-7h8p7---|
a:7-7-7-7-7---8---|-------------------|
e:5-5-5-5-5---6---|-------------------|

e:------------|
b:------------|
g:7-7-8-8-9-9-|
d:7-7-8-8-9-9-|
a:5-5-6-6-7-7-|
e:------------|
Why don´t go you join the army? 
Be a man and not a fool
There´s someone else to think for you 
just like there was a school

e:----------------|-------------------|
b:----------------|-------------------|
g:----------------|-------------------|
d:7-7-7-7-7---8---|8-7-8-10-8-7h8p7---|
a:7-7-7-7-7---8---|-------------------|
e:5-5-5-5-5---6---|-------------------|

e:------------|
b:------------|
g:7-7-8-8-9-9-|
d:7-7-8-8-9-9-|
a:5-5-6-6-7-7-|
e:------------|

N.C.
They´ll promise you absolution from the murders you´ll commit
In the name of god and country they can get away with it
They fill you full of orders and promise you rewards
Like busting up your family by sending you abroad
A holiday in Germany or Iceland or Hong Kong
Making money being useless well it seems it cant be wrong

e:------------|
b:------------|
g:------------|
d:7-7---7-7---|
a:7-7---7-7---|
e:5-5---5-5---|

But then it´s off to Northern Ireland where you´ll practice what they preached
You´ll shoot to keep yourself alive and kill to keep the peace
And then it won´t be so much fun as you hear the wounded crying
´cosbefore they couldn´t speak english, and you didn´t know what they were saying

(Lots of Dead Notes)
But when the children call you BASTARD! it will make you think again
When you cannot tell the difference between animals and men

e:----------------|----------------|
b:----------------|----------------|
g:----------------|----------------|
d:7-7---7-7---8---|7-7---7-7---6---|very often
a:7-7---7-7---8---|7-7---7-7---6---|
e:5-5---5-5---6---|5-5---5-5---4---|

e:----------------|
b:----------------|
g:16b-16b-16b-16b-|
d:----------------|
a:----------------|
e:----------------|

e:----------------|----------------|
b:----------------|----------------|
g:----------------|----------------|
d:7-7---7-7---8---|7-7---7-7---6---|
a:7-7---7-7---8---|7-7---7-7---6---|
e:5-5---5-5---6---|5-5---5-5---4---|

e:----------------|
b:----------------|
g:16b-16b-16b-16b-|
d:----------------|
a:----------------|
e:----------------|

e:--------------------|------------------------|
b:--------------------|------------------------|
g:--------------------|13-13-13-13-11-11-11-11-|
d:14---14-14-14-14-14-|13-13-13-13-11-11-11-11-|
a:14---14-14-14-14-14-|11-11-11-11-09-09-09-09-|
e:12---12-12-12-12-12-|------------------------|

e:--------------------|------------------------|
b:--------------------|------------------------|
g:--------------------|------------------------|
d:15---15-15-15-15-15-|14--14--14--14--14--14--|
a:15---15-15-15-15-15-|14--14--14--14--14--14--|
e:13---13-13-13-13-13-|12--12--12--12--12--12--|

N.C.
Animals don´t wear uniforms but they kill as much as you
But the army kills for money and animals kill for food
It´s the basest degradation in the name of what is right
Become something you never were and regret it ´til you die

e:----------------|
b:----------------|
g:----------------|
d:7---7---7---7---|
a:7---7---7---7---|
e:5-3-5-3-5-3-5-3-|

N.C.
´cos your father will tell you sonny you must do as you were told
And aou´ll say the same thing to your kids when you´re 32 years old
And unless you can react against the brainwash from the start
Your government will rule your mind and you mind will rule your heart

d:/14-\12-\10-

You´ll conform to every social law and be the system´s slave
From birth to school to work to death from the cradle to the grave

e:-------------------|--------------------|
b:-------------------|--------------------|
g:-------------------|10------------------|
d:7------------------|10------------------|
a:7--(several times)-|08--(several times)-|
e:5------------------|--------------------|

e:----------------------|------------------|
b:----------------------|------------------|
g:10---10-10---10-10-10-|------------------|
d:10---10-10---10-10-10-|7--7--7--7--7--7--|
a:08---08-08---08-08-08-|7--7--7--7--7--7--|
e:----------------------|5--5--5--5--5--5--|

e:----------------|----------------------|
b:----------------|----------------------|
g:9---9-9-9-9-9-9-|13---13-13-11---11-11-|
d:9---9-9-9-9-9-9-|13---13-13-11---11-11-| (same as Intro slowly fading out)
a:7---7-7-7-7-7-7-|11---11-11-09---09-09-|
e:----------------|----------------------|

comment:lavazza on UG 
comments
We did not receive enough feedback on this tab! Please rate:
1 2 3 4 5
I want to post or [tab]
guest
You may want to rate the tab now too:
select rating
Please do not post tabs as comments. Select "correction" instead!