Oops, an error
Loading. Please wait.

Reality Is Waiting For A Bus Tab

346 views 3 this week
no commentswrite comment
1 2 3 4 5
excellent!
x 1
Autoscroll
+/-
esc
set tempo
stop
Contributor
Tabbers playing skills
beginner
Hey! There's an official Ultimate Guitar app which is ideal
for learning songs when you're away from computer. Get the app
WARNING: You are trying to view
                                    content from Ultimate-Guitar.com
                                    in an unauthorized application,
                                    which is prohibited.

                                    Please use an official Ultimate
                                    Guitar Tabs application for iPhone,
                                    iPad or Android to access legitimate
                                    chords, guitar, bass, and drum tabs
                                    from Ultimate-Guitar.com database.

                                    Type "ultimate guitar tabs" in Apple
                                    App Store's or Android Market's
                                    search to find the application.
-------------------------------------------------------------------------------
Reality Is Waiting For A Bus - Subhumans
From The Cradle To The Grave
-------------------------------------------------------------------------------
Tabbed by: axeslash
Email: holmzito@yahoo.com

Tuning: Standard for both guitars

Guitars 1 and 2
e|-----------------------------------------------------------------------------|
B|-----------------------------------------------------------------------------|
G|---------7----------------------9--------7---------------------9---------7---|
D|-----7-9---9-9-9-9-9-10-10-9-9-------7-9---9-9-9-9-9-10-10-9-9-------7-9---9-|
A|-7-9---------9-9-9-9-10-10-9-9---7-9---------9-9-9-9-10-10-9-9---7-9---------|
E|-------------7-7-7-7--8--8-7-7---------------7-7-7-7--8--8-7-7---------------|

e|-------------------------------------------------------------------------------------|
B|-------------------------------------------------------------------------------------|
G|---------------------9---------7-----------------------9---------7-------------------|
D|-9-9-9-9-10-10-9-9-7-------7-9---9-9-9-9-9-10-10-9-9-7-------7-9---9-9---------------|
A|-9-9-9-9-10-10-9-9-7---7-9---------9-9-9-9-10-10-9-9-7---7-9---------9---------------|
E|-7-7-7-7--8--8-7-7-5---------------7-7-7-7--8--8-7-7-5---------------7---------------|

e|-------------------------------------------------------------------------|
B|-------------------------------------------------------------------------|
G|-------------------------------------------------------------------------|
D|-9-9-9-9-9-9-10-10-9-9-9-9-9-9-10-10-9-9-9-9-9-9-10-10-9-9-9-9-9-9-10-10-|
A|-9-9-9-9-9-9-10-10-9-9-9-9-9-9-10-10-9-9-9-9-9-9-10-10-9-9-9-9-9-9-10-10-|
E|-7-7-7-7-7-7--8--8-7-7-7-7-7-7--8--8-7-7-7-7-7-7--8--8-7-7-7-7-7-7--8--8-|

e|-----------------------------------------------------------------|
B|-----------------------------------------------------------------|
G|-----------------------------------------------------------------|
D|-7-7-7-7-7-7-7-7-5-5-5-5-5-5-5-5-4-4-4-4-4-4-4-4-3-3-3-3-3-3-3-3-|
A|-7-7-7-7-7-7-7-7-5-5-5-5-5-5-5-5-4-4-4-4-4-4-4-4-3-3-3-3-3-3-3-3-|
E|-5-5-5-5-5-5-5-5-3-3-3-3-3-3-3-3-2-2-2-2-2-2-2-2-1-1-1-1-1-1-1-1-|

e|---------------------------------------------------------------------------------|
B|---------------------------------------------------------------------------------|
G|-------------------------------------------------------------------9---------7---|
D|-2-2-2-2-2-2-2-2-2-2-2-2-2-2-2-2-9---------------9-9-9-9-10-10-9-9-------7-9---9-|
A|-2-2-2-2-2-2-2-2-2-2-2-2-2-2-2-2-9---------------9-9-9-9-10-10-9-9---7-9---------|
E|-0-0-0-0-0-0-0-0-0-0-0-0-0-0-0-0-7---------------7-7-7-7--8--8-7-7---------------|
  [x-x-x-x-x-x-x-x-x-x-x-x-x-x-x-x]

e|---------------------------------------------------------------------------------|
B|---------------------------------------------------------------------------------|
G|-------------------9---------7---------------------9---------7-------------------|
D|-9-9-9-9-10-10-9-9-------7-9---9-9-9-9-9-10-10-9-9-------7-9---9-9---------------|
A|-9-9-9-9-10-10-9-9---7-9---------9-9-9-9-10-10-9-9---7-9---------9---------------|
E|-7-7-7-7--8--8-7-7---------------7-7-7-7--8--8-7-7---------------7---------------|

e|-------------------------------------------------------------------------|
B|-------------------------------------------------------------------------|
G|-------------------------------------------------------------------------|
D|-9-9-9-9-9-9-10-10-9-9-9-9-9-9-10-10-9-9-9-9-9-9-10-10-9-9-9-9-9-9-10-10-|
A|-9-9-9-9-9-9-10-10-9-9-9-9-9-9-10-10-9-9-9-9-9-9-10-10-9-9-9-9-9-9-10-10-|
E|-7-7-7-7-7-7--8--8-7-7-7-7-7-7--8--8-7-7-7-7-7-7--8--8-7-7-7-7-7-7--8--8-|

e|-----------------------------------------------------------------|
B|-----------------------------------------------------------------|
G|-----------------------------------------------------------------|
D|-7-7-7-7-7-7-7-7-5-5-5-5-5-5-5-5-4-4-4-4-4-4-4-4-3-3-3-3-3-3-3-3-|
A|-7-7-7-7-7-7-7-7-5-5-5-5-5-5-5-5-4-4-4-4-4-4-4-4-3-3-3-3-3-3-3-3-|
E|-5-5-5-5-5-5-5-5-3-3-3-3-3-3-3-3-2-2-2-2-2-2-2-2-1-1-1-1-1-1-1-1-|

e|---------------------------------------------------------------------------------|
B|---------------------------------------------------------------------------------|
G|-------------------------------------------------------------------9---------7---|
D|-2-2-2-2-2-2-2-2-2-2-2-2-2-2-2-2-9---------------9-9-9-9-10-10-9-9-------7-9---9-|
A|-2-2-2-2-2-2-2-2-2-2-2-2-2-2-2-2-9---------------9-9-9-9-10-10-9-9---7-9---------|
E|-0-0-0-0-0-0-0-0-0-0-0-0-0-0-0-0-7---------------7-7-7-7--8--8-7-7---------------|
  [x-x-x-x-x-x-x-x-x-x-x-x-x-x-x-x]

e|---------------------------------------------------------------------------------|
B|---------------------------------------------------------------------------------|
G|-------------------9---------7---------------------9---------7-------------------|
D|-9-9-9-9-10-10-9-9-------7-9---9-9-9-9-9-10-10-9-9-------7-9---9-9---------------|
A|-9-9-9-9-10-10-9-9---7-9---------9-9-9-9-10-10-9-9---7-9---------9---------------|
E|-7-7-7-7--8--8-7-7---------------7-7-7-7--8--8-7-7---------------7---------------|


Guitar 1
e|---------------------------------------------------------------------------|
B|-10^--10^--12^--12^-10-12^-9-7---------10^--10^--12^--12^-10-X-9-7---7-/12-|
G|-------------------------------9-7-9-7-----------------------------9-------|
D|---------------------------------------------------------------------------|
A|---------------------------------------------------------------------------|
E|---------------------------------------------------------------------------|
Guitar 2
e|-----------------------------------------------------------------------|
B|-----------------------------------------------------------------------|
G|-----------------------------------------------------------------------|
D|-----------------------------------------------------------------------|
A|-9-9-9-9-10-10-10-9-5-5-5-5-5-5-5-5-9-9-9-9-10-10-10-9-7-7-7-7-7-7-7-7-|
E|-7-7-7-7--8--8--8-7-5-5-5-5-5-5-5-5-7-7-7-7--8--8--8-7-5-5-5-5-5-5-5-5-|

Guitar 1
e|----------------------------------------------------|
B|-/12-12-12-12-12-12-12-12-/12-12-12-12-/12-12-12-12-|
G|-/12-12-12-12-12-12-12-12-/12-12-12-12-/12-12-12-12-|
D|----------------------------------------------------|
A|----------------------------------------------------|
E|----------------------------------------------------|
Guitar 2                                                   
e|----------------------------------------------------|
B|----------------------------------------------------|
G|----------------------------------------------------|
D|----------------------------------------------------|
A|-/9-9-9-9-9-9-9-9-9-9-9-9-9-9-9-9-9-9-9-9-9-9-9-9-9-|
E|-/7-7-7-7-7-7-7-7-7-7-7-7-7-7-7-7-7-7-7-7-7-7-7-7-7-|

Guitar 1
e|----------------------------------------------------|
B|-/12-12-/12-12-/12-12-12-12-12-12-12-12-12-12-12-12-|
G|-/12-12-/12-12-/12-12-12-12-12-12-12-12-12-12-12-12-|
D|----------------------------------------------------|
A|----------------------------------------------------|
E|----------------------------------------------------|
Guitar 2
e|----------------------------------------------------|
B|----------------------------------------------------|
G|----------------------------------------------------|
D|----------------------------------------------------|
A|-/9-9-9-9-9-9-9-9-9-9-9-9-9-9-9-9-9-9-9-9-9-9-9-9-9-|
E|-/7-7-7-7-7-7-7-7-7-7-7-7-7-7-7-7-7-7-7-7-7-7-7-7-7-|

Guitar 1
e|-----------------------------------------------------|
B|-14^--14^--14^---12h14p12h14p12h14p12h14-------------|
G|-----------------------------------------14-12----12-|
D|-----------------------------------------------14----|
A|-----------------------------------------------------|
E|-----------------------------------------------------|
Guitar 2
e|-----------------------------------------------------|
B|-----------------------------------------------------|
G|-----------------------------------------------------|
D|-9-------------------------7-------------------------|
A|-9-------------------------7-------------------------|
E|-7-------------------------5-------------------------|

Guitar 1
e|---------------------------------------------------------------------------|
B|-14-12-14-12-14-12-14-12-14-12-14-12-14-12-X--15^w-------------------------|
G|---------------------------------------------------------------------------|
D|---------------------------------------------------------------------------|
A|---------------------------------------------------------------------------|
E|---------------------------------------------------------------------------|
Guitar 2
e|---------------------------------------------------------------------------|
B|---------------------------------------------------------------------------|
G|---------------------------------------------------------------------------|
D|-9----------------------7---------------------9----------------------------|
A|-9----------------------7---------------------9----------------------------|
E|-7----------------------5---------------------7----------------------------|

Guitars 1 and 2
e|------------------------------------------------------------------------------|
B|------------------------------------------------------------------------------|
G|------------------------------------------------------------------------------|
D|-9-9-9-9-9-9-10-10-9-9-9-9-9-9-10-10-9-9-9-9-9-9-10-10-9-9-9-9-9-9-10-10-9----|
A|-9-9-9-9-9-9-10-10-9-9-9-9-9-9-10-10-9-9-9-9-9-9-10-10-9-9-9-9-9-9-10-10-9----|
E|-7-7-7-7-7-7--8--8-7-7-7-7-7-7--8--8-7-7-7-7-7-7--8--8-7-7-7-7-7-7--8--8-7----|
  [x-x-x-x-x-x-x-x-x-x-x-x-x-x-x-x-x-x]

e|-------------------------------------------------------------------------|
B|-------------------------------------------------------------------------|
G|-------------------------------------------------------------------------|
D|-9-9-9-9-9-9-10-10-9-9-9-9-9-9-10-10-9-9-9-9-9-9-10-10-9-9-9-9-9-9-10-10-|
A|-9-9-9-9-9-9-10-10-9-9-9-9-9-9-10-10-9-9-9-9-9-9-10-10-9-9-9-9-9-9-10-10-|
E|-7-7-7-7-7-7--8--8-7-7-7-7-7-7--8--8-7-7-7-7-7-7--8--8-7-7-7-7-7-7--8--8-|

Guitar 1
e|---------------------------------------------------|
B|---------------------------------------------------|
G|---------------------------------------------------|
D|-9-9-9-9-9-9-9-9-7--------9-9-9-9-9-9-9-9-7--------|
A|-9-9-9-9-9-9-9-9-7--------9-9-9-9-9-9-9-9-7--------|
E|-7-7-7-7-7-7-7-7-5--------7-7-7-7-7-7-7-7-5--------|
Guitar 2  
e|---------------------------------------------------|
B|---------------------------------------------------|
G|---------------------------------------------------|
D|-9------10---9---7--------9------10---9---7--------|
A|-9------10---9---7--------9------10---9---7--------|
E|-7-------8---7---5--------7-------8---7---5--------|

Guitars 1 and 2
e|------------------------------------------------------------------------------------|
B|------------------------------------------------------------------------------------|
G|------------------------------------------------------------------------------------|
D|-9--9-9-----7--------9--------7--------9--------7--------9---------7----------------|
A|-9--9-9-----7--------9--------7--------9--------7--------9---------7----------------|
E|-7--7-7-----5--------7--------5--------7--------5--------7---------5----------------|

e|------------------------------------------------------------------------------------|
B|-8--------7--------6-------5--------------------------------------------------------|
G|-7--------6--------5-------4----/16-16-16-16-16-16-16-16-16-16-16-16-16-16-16-16----|
D|-5--------4--------3-------2----/14-14-14-14-14-14-14-14-14-14-14-14-14-14-14-14----|
A|------------------------------------------------------------------------------------|
E|------------------------------------------------------------------------------------|

e|-------------------------|
B|-------------------------|
G|-------------------------|
D|-9-9-9-9-9-9-10-10-9-9-7-|
A|-9-9-9-9-9-9-10-10-9-9-7-|
E|-7-7-7-7-7-7--8--8-7-7-5-|


| ^w whole step bend
| ^  half step bend 
|[x] palm mute
| /  slide up
| \  slide down
| h  hammer-on
| p  pull-off
| ~  vibrato
| +  harmonic
| X  Mute note
===============================================================================
comments
We did not receive enough feedback on this tab! Please rate:
print report bad tab
1 2 3 4 5
I want to post or [tab]
guest
You may want to rate the tab now too:
select rating
Please do not post tabs as comments. Select "correction" instead!