Oops, an error
Loading. Please wait.

Santeria Tab

229,616 views 202 this week
6 commentsread comments
1 2 3 4 5
x 12
add to favorites
launch autoscroll
font size
Tab Pro tools
  • play this tab
  • loop segment
  • change instrument
  • show fretboard
  • metronome
set tempo
WARNING: You are trying to view
                                    content from Ultimate-Guitar.com
                                    in an unauthorized application,
                                    which is prohibited.

                                    Please use an official Ultimate
                                    Guitar Tabs application for iPhone,
                                    iPad or Android to access legitimate
                                    chords, guitar, bass, and drum tabs
                                    from Ultimate-Guitar.com database.

                                    Type "ultimate guitar tabs" in Apple
                                    App Store's or Android Market's
                                    search to find the application.
Intro, also repeated during verse. Different Order during Chorus
        E                       Ab
e--------------------    e----------------
b--------------------    b---4------------
g-----9-------9-9----    g-----5----------
d---9---9---------9--    d-------6--------
a-7-------7-7-------7    a-----------6-2-4
e--------------------    e-4-------4------

        Dbm                     B
e--------------------    e---2------------
b-----------5--------    b-----4----------
g-----6-------6------    g-------4--------
d---6---6-------6----    d----------------
a-4-------4----------    a-2-------2------
e--------------------    e----------------

Solo, as close as I could


print report bad tab
6 comments total. Showing first comments.
-1 reply
kidsin5 wrote on May 13 2002, 12:00 am

this is close, but its wrong. I hjave the book, so ill post the right version

0 reply
lilius wrote on October 18 2003, 12:00 am

when will you post it kidsin5...???

0 reply
OAM144 wrote on January 23 2004, 12:00 am

did u post that?

I want to post or [tab]
You may want to rate the tab now too:
select rating
Please do not post tabs as comments. Select "correction" instead!