Oops, an error
Loading. Please wait.

Demise Of The Clone Tab

ver2
ver2

Whole song

Interactive

More versions @911Tabs.com
94 views 3 this week
no commentswrite comment
1 2 3 4 5
please rate
Autoscroll
+/-
esc
set tempo
stop
Contributor
Hey! There's an official Ultimate Guitar app which is ideal
for learning songs when you're away from computer. Get the app
WARNING: You are trying to view
                                    content from Ultimate-Guitar.com
                                    in an unauthorized application,
                                    which is prohibited.

                                    Please use an official Ultimate
                                    Guitar Tabs application for iPhone,
                                    iPad or Android to access legitimate
                                    chords, guitar, bass, and drum tabs
                                    from Ultimate-Guitar.com database.

                                    Type "ultimate guitar tabs" in Apple
                                    App Store's or Android Market's
                                    search to find the application.
#----------------------------------PLEASE NOTE---------------------------------#
#This file is the author's own work and represents their interpretation of the #
#song. You may only use this file for private study, scholarship, or research. #
#------------------------------------------------------------------------------#

                               DEMISE OF THE CLONE
                           As recorded by Suffocation
                       (From the 2004 Album SOULS TO DENY)

Words by Frank Mullen

Music by Suffocation
Arranged by Suffocation


Gtr I (Db Gb B E Ab Db) - 'Terrance Hobbs'
Gtr II (Db Gb B E Ab Db) - 'Guy Marchais'

   Intro
    Q=205
   3/4
    Gtr I
    PM--|            ~~~                                        ~~
||-----------|-------------|-------------------------|---------------|
||o----------|-------------|-------------------------|----------0----|
||-----------|-------------|-------------------------|---------10----|
||-----------|-------------|-7-7-7-7---------6-6-6-6-|----------9----|
||o-3-3-3-2--|-(2)---------|---------8-8-8-8---------|-7-7-7-7-------|
||--5-5-5-4--|-(4)---1-----|-------------------------|---------------|
|
|   Gtr II
|   PM--|            ~~~                                        ~~
||-----------|-------------|-------------------------|---------------|
||o----------|-------------|-------------------------|----------0----|
||-----------|-------------|-------------------------|---------10----|
||-----------|-------------|-7-7-7-7---------6-6-6-6-|----------9----|
||o-7-7-7-6--|-(6)---------|---------8-8-8-8---------|-7-7-7-7-------|
||--5-5-5-4--|-(4)--[1]----|-------------------------|---------------|


  Gtrs I, II
  PM-----------------------|
|----------|----------|---------------|--------------------|
|----------|----------|---------------|--------------------|
|----------|----------|---------------|--------------------|
|----------|-------4--|-5--7--2-2-2-2-|-1-1-2-2-3-3-3-3-2--|
|-8-8-8-7--|-0--6--2--|-3--7----------|--------------------|
|-6-6-6-5--|-0--4-----|----5----------|--------------------|


  Gtr I
                   ~~~                                        ~~
|----------|-------------|-------------------------|---------------|
|----------|-------------|-------------------------|----------0----|
|-5-5-5-4--|-(4)---------|-------------------------|---------10----|
|-7-7-7-6--|-(6)---------|-7-7-7-7---------6-6-6-6-|----------9----|
|----------|-------------|---------8-8-8-8---------|-7-7-7-7-------|
|----------|-------1-----|-------------------------|---------------|
|
| Gtr II
|                  ~~~                                        ~~
|----------|-------------|-------------------------|---------------|
|----------|-------------|-------------------------|----------0----|
|-5-5-5-4--|-(4)---------|-------------------------|---------10----|
|-7-7-7-6--|-(6)---------|-7-7-7-7---------6-6-6-6-|----------9----|
|----------|-------------|---------8-8-8-8---------|-7-7-7-7-------|
|----------|------[1]----|-------------------------|---------------|


  Gtrs I, II
  PM-----------------------|
|----------|----------|---------------|---------------------||
|----------|----------|---------------|--------------------o||
|----------|----------|---------------|---------------------||
|----------|-------4--|-5--7--2-2-2-2-|-1-1-2-2-3-3-3-3-2---||
|-8-8-8-7--|-0--6--2--|-3--7----------|--------------------o||
|-6-6-6-5--|-0--4-----|----5----------|---------------------||


  Gtrs I, II
  PM-----------------|
|-----------|-----------|
|-----------|-----------|
|-----------|-----------|
|-----------|-----------|
|-7--6-7-6--|-6--5-5-7--|
|-5--4-5-4--|-4--3-3-5--|


 Pre-Verse
 5/4
  Gtr I
|-21-21-21-21-21-21-21-21-------------------------------------|
|-------------------------21-21-21-21-21-21-21-21-22-22-22-22-|
|-------------------------------------------------------------|
|-------------------------------------------------------------|
|-------------------------------------------------------------|
|-------------------------------------------------------------|
|
| Gtr II
|-------------------------------------------------------------|
|-------------------------------------------------------------|
|-------------------------------------------------------------|
|--------------------------------------------------7--7--7--7-|
|--4--4--4--4--4--4--4--4-------------------------------------|
|--------------------------4--4--4--4--4--4--4--4-------------|


|---------------------------------------------------------------|
|-22-22-22-22-21-21-21-21-21-21-21-21---------------------------|
|-------------------------------------20-20-20-20-20-20-20-20---|
|---------------------------------------------------------------|
|---------------------------------------------------------------|
|---------------------------------------------------------------|
|
|---------------------------------------------------------------|
|---------------------------------------------------------------|
|---------------------------------------------------------------|
|--7--7--7--7--6--6--6--6--6--6--6--6---------------------------|
|--------------------------------------3--3--3--3--3--3--3--3---|
|---------------------------------------------------------------|


  Gtr I
|-------------------------------------------------------------|
|-------------------------------------------------------------|
|-21-21-21-21-21-21-21-21-17-17-17-17-17-17-17-17-18-18-18-18-|
|-------------------------------------------------------------|
|-------------------------------------------------------------|
|-------------------------------------------------------------|
|
| Gtr II
|-------------------------------------------------------------|
|-------------------------------------------------------------|
|-------------------------------------------------------------|
|-------------------------------------------------------------|
|--4--4--4--4--4--4--4--4--6--6--6--6--6--6--6--6--7--7--7--7-|
|-------------------------------------------------------------|


 6/4
|--------------------------------------------------------------------------|
|-------------21-21-21-21-21-21-21-21-21-21-21-21-21-21-21-21-21-21-21-21--|
|-18-18-18-18--------------------------------------------------------------|
|--------------------------------------------------------------------------|
|--------------------------------------------------------------------------|
|--------------------------------------------------------------------------|
|
|--------------------------------------------------------------------------|
|--------------------------------------------------------------------------|
|--------------------------------------------------------------------------|
|--------------6--6--6--6--6--6--6--6--6--6--6--6--6--6--6--6--6--6--6--6--|
|--7--7--7--7--------------------------------------------------------------|
|--------------------------------------------------------------------------|


   Verse A
    Q=200
   1/4   6/4                 5/4
    Gtrs I, II
    PM-------------------|
||------|-------------------|------------------------------------------|
||o-----|-------------------|------------------------------------------|
||------|-------------------|------------------------------------------|
||--7-6-|-------4--5--8--9--|-5-5-5-5-5-5-5-5-5-5-5-5-5-5-5-5-5-5-5-5--|
||o-5-4-|-4--7--2--3--6--7--|------------------------------------------|
||------|-2--5--------------|------------------------------------------|


 1/4   6/4                 5/4
  Gtrs I, II
  PM-------------------|
|-----|-------------------|-----------------------------------------|
|-----|-------------------|-----------------------------------------|
|-----|-------------------|-----------------------------------------|
|-7-6-|-------4--5--8--9--|-6-6-6-6-6-6-6-6-6-6-6-6-6-6-6-6-6-6-6-6-|
|-5-4-|-4--7--2--3--6--7--|-----------------------------------------|
|-----|-2--5--------------|-----------------------------------------|


 1/4   6/4                 4/4
  Gtrs I, II
  PM-------------------|
|-----|-------------------|---------------------------------|
|-----|-------------------|---------------------------------|
|-----|-------------------|---------------------------------|
|-7-6-|-------4--5--8--9--|-5-5-5-5-5-5-5-5-5-5-5-5-5-5-5-5-|
|-5-4-|-4--7--2--3--6--7--|---------------------------------|
|-----|-2--5--------------|---------------------------------|


  Q=220
 5/4
      Gtrs I, II
|-----------------------------------------|
|-----------------------------------------|
|---------6-6-6-6-5-5-5-5-----------------|
|-------------------------6-6-6-6-7-7-7-7-|
|-----------------------------------------|
|-4-4-4-4---------------------------------|


                                    1.
 4/4
|---------------------------------|------------------------------------||
|---------------------------------|-----------------------------------o||
|---------5-5-5-5-6-6-6-6-8-8-8-8-|-9-9-9-9----------------------------||
|-9-9-9-9-------------------------|---------6-6-6-6-6-6-6-6-6-6-6-6----||
|---------------------------------|-----------------------------------o||
|---------------------------------|------------------------------------||


 Verse B
  2.205
 6/4
  Gtr I
                 ~~~
|----------------------|--------------------------------------------|
|----------------------|--------------------------------------------|
|----8-----/11---------|--------------------------------------------|
|-------7--------------|--------------------------------------------|
|-6-------------[6]----|--------------------------------------------|
|----------------------|--------------------------------------------|
|
| Gtr II
|                        PM---------------------------------------|
|----------------------|--------------------------------------------|
|----------------------|--------------------------------------------|
|----------------------|--------------------------------------------|
|----------------------|-6-6-6-----------------------2-2-2----------|
|----------------------|---------------3-3-3--4-4-4-----------------|
|----------------------|--------5-5-5-----------------------4-4-4---|


    Gtrs I, II
    PM-----------------------------------------
||--------------------------------------------|
||o-------------------------------------------|
||--------------------------------------------|
||--5-5-5-----------------------1-1-1---------|
||o----------------------3-3-3----------------|
||---------2-2-2--3-3-3----------------4-4-4--|


 ----------------------------------------|
|--------------------------------------------|
|--------------------------------------------|
|--------------------------------------------|
|-6-6-6-----------------------2-2-2----------|
|---------------3-3-3--4-4-4-----------------|
|--------5-5-5-----------------------4-4-4---|


  1.,2.,3.
  Gtrs I, II
  PM-----------------------------------------------------------|
                                                                   4x
|-------------------------------------------|----------------------||
|-------------------------------------------|---------------------o||
|-------------------------------------------|----------------------||
|-5-5-5-----------------------1-1-1---------|----------------------||
|----------------------3-3-3----------------|-7--6-7-6--6--5-5-7--o||
|--------2-2-2--3-3-3----------------4-4-4--|-5--4-5-4--4--3-3-5---||


  4.                                          Q=220
                                             2/4
  Gtrs I, II
  PM-------------------------------------|
|-------------------------------------------|------------------|
|-------------------------------------------|------------------|
|-------------------------------------------|------------------|
|-5-5-5-----------------------1-1-1---------|-6-6-6-6-6-6-6-6--|
|----------------------3-3-3----------------|------------------|
|--------2-2-2--3-3-3----------------4-4-4--|------------------|


 4/4                               5/4
  Gtrs I, II
|---------------------------------|-----------------------------------------|
|---------------------------------|-----------------------------------------|
|-6-6-6-6-5-5-5-5-----------------|---------5-5-5-5-6-6-6-6-8-8-8-8-9-9-9-9-|
|-----------------6-6-6-6-7-7-7-7-|-9-9-9-9---------------------------------|
|---------------------------------|-----------------------------------------|
|---------------------------------|-----------------------------------------|


   Bridge
    Q=225
   3/4
    Gtrs I, II
    PM--------------------------------------------------------|
                                                                 3x
||--------------|---------------|---------------|----------------||
||o-------------|---------------|---------------|---------------o||
||--------------|---------------|---------------|----------------||
||--6---7---9---|-6---6---------|-6---6---------|-6---6----------||
||o---4---5---7-|---4---4-------|---4---4-------|---4---4-------o||
||--------------|---------0-0-0-|---------0-0-0-|---------0-0-0--||


  Q=220
 7/4
  Gtrs I, II
|---------------------------------------------------------|
|---------------------------------------------------------|
|-------------------------6-6-6-6-5-5-5-5-----------------|
|-5-5-5-5-5-5-5-5-------------------------6-6-6-6-7-7-7-7-|
|---------------------------------------------------------|
|-----------------4-4-4-4---------------------------------|


 5/4
|-------------------------------------------|
|-------------------------------------------|
|---------5-5-5-5-6-6-6-6-8-8-8-8-9-9-9-9---|
|-9-9-9-9-----------------------------------|
|-------------------------------------------|
|-------------------------------------------|


 Pre-Verse
  Q=205
 5/4
  Gtr I
|-------------------------------------------------------------|
|-------------------------------------------------22-22-22-22-|
|-18-18-18-18-18-18-18-18-------------------------------------|
|-------------------------18-18-18-18-18-18-18-18-------------|
|-------------------------------------------------------------|
|-------------------------------------------------------------|
|
| Gtr II
|-------------------------------------------------------------|
|-------------------------------------------------------------|
|-------------------------------------------------------------|
|--------------------------------------------------7--7--7--7-|
|--4--4--4--4--4--4--4--4-------------------------------------|
|--------------------------4--4--4--4--4--4--4--4-------------|


|---------------------------------------------------------------|
|-22-22-22-22-21-21-21-21-21-21-21-21---------------------------|
|-------------------------------------20-20-20-20-20-20-20-20---|
|---------------------------------------------------------------|
|---------------------------------------------------------------|
|---------------------------------------------------------------|
|
|---------------------------------------------------------------|
|---------------------------------------------------------------|
|---------------------------------------------------------------|
|--7--7--7--7--6--6--6--6--6--6--6--6---------------------------|
|--------------------------------------3--3--3--3--3--3--3--3---|
|---------------------------------------------------------------|


  Gtr I
|-------------------------------------------------------------|
|-------------------------------------------------------------|
|-21-21-21-21-21-21-21-21-17-17-17-17-17-17-17-17-18-18-18-18-|
|-------------------------------------------------------------|
|-------------------------------------------------------------|
|-------------------------------------------------------------|
|
| Gtr II
|-------------------------------------------------------------|
|-------------------------------------------------------------|
|-------------------------------------------------------------|
|-------------------------------------------------------------|
|--4--4--4--4--4--4--4--4--6--6--6--6--6--6--6--6--7--7--7--7-|
|-------------------------------------------------------------|


 6/4
|--------------------------------------------------------------------------|
|--------------------------------------------------------------------------|
|-18-18-18-18--------------------------------------------------------------|
|-------------18-18-18-18-18-18-18-18-18-18-18-18-18-18-18-18-18-18-18-18--|
|--------------------------------------------------------------------------|
|--------------------------------------------------------------------------|
|
|--------------------------------------------------------------------------|
|--------------------------------------------------------------------------|
|--------------------------------------------------------------------------|
|--------------6--6--6--6--6--6--6--6--6--6--6--6--6--6--6--6--6--6--6--6--|
|--7--7--7--7--------------------------------------------------------------|
|--------------------------------------------------------------------------|


   Verse A
    Q=200
   1/4   6/4                 5/4
    Gtrs I, II
    PM-------------------|
||------|-------------------|------------------------------------------|
||o-----|-------------------|------------------------------------------|
||------|-------------------|------------------------------------------|
||--7-6-|-------4--5--8--9--|-5-5-5-5-5-5-5-5-5-5-5-5-5-5-5-5-5-5-5-5--|
||o-5-4-|-4--7--2--3--6--7--|------------------------------------------|
||------|-2--5--------------|------------------------------------------|


 1/4   6/4                 5/4
  Gtrs I, II
  PM-------------------|
|-----|-------------------|-----------------------------------------|
|-----|-------------------|-----------------------------------------|
|-----|-------------------|-----------------------------------------|
|-7-6-|-------4--5--8--9--|-6-6-6-6-6-6-6-6-6-6-6-6-6-6-6-6-6-6-6-6-|
|-5-4-|-4--7--2--3--6--7--|-----------------------------------------|
|-----|-2--5--------------|-----------------------------------------|


 1/4   6/4                 4/4
  Gtrs I, II
  PM-------------------|
|-----|-------------------|---------------------------------|
|-----|-------------------|---------------------------------|
|-----|-------------------|---------------------------------|
|-7-6-|-------4--5--8--9--|-5-5-5-5-5-5-5-5-5-5-5-5-5-5-5-5-|
|-5-4-|-4--7--2--3--6--7--|---------------------------------|
|-----|-2--5--------------|---------------------------------|


  Q=220
 5/4                                       4/4
  Gtrs I, II
|-----------------------------------------|---------------------------------|
|-----------------------------------------|---------------------------------|
|---------6-6-6-6-5-5-5-5-----------------|---------5-5-5-5-6-6-6-6-8-8-8-8-|
|-------------------------6-6-6-6-7-7-7-7-|-9-9-9-9-------------------------|
|-----------------------------------------|---------------------------------|
|-4-4-4-4---------------------------------|---------------------------------|


  1.                                  2.
                                     1/4
|----------------------------------||---------|
|---------------------------------o||---------|
|-9-9-9-9--------------------------||-9-9-9-9-|
|---------6-6-6-6-6-6-6-6-6-6-6-6--||---------|
|---------------------------------o||---------|
|----------------------------------||---------|


   Verse B
    Q=205
   6/4
    Gtrs I, II
    PM-----------------------------------------
||--------------------------------------------|
||o-------------------------------------------|
||--------------------------------------------|
||--5-5-5-----------------------1-1-1---------|
||o----------------------3-3-3----------------|
||---------2-2-2--3-3-3----------------4-4-4--|


 ----------------------------------------|
|----------------------------------------------|
|----------------------------------------------|
|----------------------------------------------|
|-6-6-6-----------------------2-2-2------------|
|---------------3-3-3--4-4-4-------------------|
|--------5-5-5-----------------------4-4-4-----|


  1.,2.,3.
  Gtrs I, II
  PM-----------------------------------------------------------|
                                                                   4x
|-------------------------------------------|----------------------||
|-------------------------------------------|---------------------o||
|-------------------------------------------|----------------------||
|-5-5-5-----------------------1-1-1---------|----------------------||
|----------------------3-3-3----------------|-7--6-7-6--6--5-5-7--o||
|--------2-2-2--3-3-3----------------4-4-4--|-5--4-5-4--4--3-3-5---||


  4.
                                             2/4
  Gtrs I, II
  PM-------------------------------------|
|-------------------------------------------|------------------|
|-------------------------------------------|------------------|
|-------------------------------------------|------------------|
|-5-5-5-----------------------1-1-1---------|-6-6-6-6-6-6-6-6--|
|----------------------3-3-3----------------|------------------|
|--------2-2-2--3-3-3----------------4-4-4--|------------------|


          Q=220
 5/4
  Gtrs I, II
|-----------------------------------------|
|-----------------------------------------|
|---------6-6-6-6-5-5-5-5-----------------|
|-------------------------6-6-6-6-7-7-7-7-|
|-----------------------------------------|
|-4-4-4-4---------------------------------|


|-------------------------------------------|
|-------------------------------------------|
|---------5-5-5-5-6-6-6-6-8-8-8-8-9-9-9-9---|
|-9-9-9-9-----------------------------------|
|-------------------------------------------|
|-------------------------------------------|


 Breakdown
  Q=200
 3/4
  Gtr I
                                PM-----------------------|
|--------------|--------------|--------------|--------------|
|--------------|--------------|--------------|--------------|
|--------------|--------------|--------------|--------------|
|--------------|--------------|-6-6-6-5-6-4--|-7-7-7-6-5-6--|
|--------------|--------------|-4-4-4-3-4-3--|-5-5-5-4-3-4--|
|--------------|--------------|-4-4-4-3-4-3--|-5-5-5-4-3-4--|
|
| Gtr II
| PM-----------------------|
|--------------|--------------|--------------|--------------|
|--------------|--------------|--------------|--------------|
|--------------|--------------|--------------|--------------|
|-6-6-6-5-6-4--|-7-7-7-6-5-6--|--------------|--------------|
|-4-4-4-3-4-3--|-5-5-5-4-3-4--|--------------|--------------|
|-4-4-4-3-4-3--|-5-5-5-4-3-4--|--------------|--------------|


  Gtrs I, II
  PM-----------------------|    PM-----------------------|
|--------------|--------------|--------------|---------------|
|--------------|--------------|--------------|---------------|
|--------------|--------------|--------------|---------------|
|-6-6-6-5-6-4--|-7-7-7-6-5-6--|-6-6-6-5-6-4--|-7-7-7-6-5-6---|
|-4-4-4-3-4-3--|-5-5-5-4-3-4--|-4-4-4-3-4-3--|-5-5-5-4-3-4---|
|-4-4-4-3-4-3--|-5-5-5-4-3-4--|-4-4-4-3-4-3--|-5-5-5-4-3-4---|


  Q=220
  Gtr I
|-------------------------|-------------------------|
|-------------------------|-------------------------|
|-6-6-6-6---------5-5-5-5-|-6-6-6-6-8-8-8-8-9-9-9-9-|
|-------------------------|-------------------------|
|---------4-4-4-4---------|-------------------------|
|-------------------------|-------------------------|
|
| Gtr II
|-------------------------|-------------------------|
|-------------------------|-------------------------|
|-----------------2-2-2-2-|-3-3-3-3-5-5-5-5-6-6-6-6-|
|-4-4-4-4-----------------|-------------------------|
|-------------------------|-------------------------|
|---------2-2-2-2---------|-------------------------|


  Q=200
  PM-----------------------|
|--------------|--------------|
|--------------|--------------|
|--------------|--------------|
|-6-6-6-5-6-4--|-7-7-7-6-5-6--|
|-4-4-4-3-4-3--|-5-5-5-4-3-4--|
|-4-4-4-3-4-3--|-5-5-5-4-3-4--|
|
| PM-----------------------|
|--------------|--------------|
|--------------|--------------|
|--------------|--------------|
|-6-6-6-5-6-4--|-7-7-7-6-5-6--|
|-4-4-4-3-4-3--|-5-5-5-4-3-4--|
|-4-4-4-3-4-3--|-5-5-5-4-3-4--|


  Gtr I
                                  PM-----------------------|
                                                                4x
|--------------|--------------||---------------|----------------||
|--------------|--------------||o--------------|---------------o||
|--------------|--------------||---------------|----------------||
|-6------------|--------------||--6-6-6-5-6-4--|-7-7-7-6-5-6----||
|-4------------|--------------||o-4-4-4-3-4-3--|-5-5-5-4-3-4---o||
|-4------------|--------------||--4-4-4-3-4-3--|-5-5-5-4-3-4----||
|
| Gtr II
| PM-----------------------|      PM-----------------------|
|                                                               4x
|--------------|--------------||---------------|----------------||
|--------------|--------------||o--------------|---------------o||
|--------------|--------------||---------------|----------------||
|-6-6-6-5-6-4--|-7-7-7-6-5-6--||--6-6-6-5-6-4--|-7-7-7-6-5-6----||
|-4-4-4-3-4-3--|-5-5-5-4-3-4--||o-4-4-4-3-4-3--|-5-5-5-4-3-4---o||
|-4-4-4-3-4-3--|-5-5-5-4-3-4--||--4-4-4-3-4-3--|-5-5-5-4-3-4----||


  Gtrs I, II
  PM--|            PM|         PM------------|
|--------------|-------------|---------------------|-------------|
|--------------|-------------|---------------------|-------------|
|--------------|-------------|---------------------|-------------|
|--------------|-3-----------|-----------------6---|---8---------|
|-4-4-4-0-4-5--|-------3p2---|-------------------5-|-----5---4---|
|-2-2-2-0-2-3--|---4-3-----0-|-5-5-5-5-5-5-5-5-----|-7-----6---5-|


    Gtrs I, II
    PM-----------------------|
                                 4x
||---------------|---------------||
||o--------------|--------------o||
||---------------|---------------||
||--6-6-6-5-6-4--|-7-7-7-6-5-6---||
||o-4-4-4-3-4-3--|-5-5-5-4-3-4--o||
||--4-4-4-3-4-3--|-5-5-5-4-3-4---||


  Gtrs I, II
  PM--|            PM|         PM------------|
|--------------|-------------|---------------------|-------------|
|--------------|-------------|---------------------|-------------|
|--------------|-------------|---------------------|-------------|
|--------------|-3-----------|-----------------6---|---8---------|
|-4-4-4-0-4-5--|-------3p2---|-------------------5-|-----5---4---|
|-2-2-2-0-2-3--|---4-3-----0-|-5-5-5-5-5-5-5-5-----|-7-----6---5-|


    Gtrs I, II
    PM-----------------------|
                                 4x
||---------------|---------------||
||o--------------|--------------o||
||---------------|---------------||
||--6-6-6-5-6-4--|-7-7-7-6-5-6---||
||o-4-4-4-3-4-3--|-5-5-5-4-3-4--o||
||--4-4-4-3-4-3--|-5-5-5-4-3-4---||


  Gtrs I, II
  PM--|            PM|         PM------------|
|--------------|-------------|---------------------|-------------|
|--------------|-------------|---------------------|-------------|
|--------------|-------------|---------------------|-------------|
|--------------|-3-----------|-----------------6---|---8---------|
|-4-4-4-0-4-5--|-------3p2---|-------------------5-|-----5---4---|
|-2-2-2-0-2-3--|---4-3-----0-|-5-5-5-5-5-5-5-5-----|-7-----6---5-|


    Gtrs I, II
    PM-----------------------|
||---------------|---------------||
||o--------------|--------------o||
||---------------|---------------||
||--6-6-6-5-6-4--|-7-7-7-6-5-6---||
||o-4-4-4-3-4-3--|-5-5-5-4-3-4--o||
||--4-4-4-3-4-3--|-5-5-5-4-3-4---||


 Bridge
  Q=225
  Gtr I
                        PM----------------------------------|
|-------------|---------------|---------------|-----------------|
|-------------|---------------|---------------|-----------------|
|-------------|---------------|---------------|-----------------|
|-------------|---------------|-6---6---------|-6---6-----------|
|-------------|---------------|---4---4-------|---4---4---------|
|-------------|---------0-0-0-|---------0-0-0-|---------0-0-0---|
|
| Gtr II
| PM--------------------------------------------------------|
|-------------|---------------|---------------|-----------------|
|-------------|---------------|---------------|-----------------|
|-------------|---------------|---------------|-----------------|
|-6---7---9---|-6---6---------|-6---6---------|-6---6-----------|
|---4---5---7-|---4---4-------|---4---4-------|---4---4---------|
|-------------|---------0-0-0-|---------0-0-0-|---------0-0-0---|


                                  1.,2.
    Gtrs I, II
    PM--------------------------------------------------------|
                                                                  3x
||--------------|---------------|---------------|-----------------||
||o-------------|---------------|---------------|----------------o||
||--------------|---------------|---------------|-----------------||
||--6---7---9---|-6---6---------|-6---6---------|-6---6-----------||
||o---4---5---7-|---4---4-------|---4---4-------|---4---4--------o||
||--------------|---------0-0-0-|---------0-0-0-|---------0-0-0---||


  3.
            4/4
  Gtrs I, II
             PM----------------------------|
|----------|---------------------------------|
|----------|---------------------------------|
|-9-8-5----|---------------------------------|
|----------|---------------------------------|
|-7-6-3----|---------------------------------|
|----------|-2-2-2-2-5-5-5-5-5-5-5-5-4-4-4-4-|


                                  1.
   3/4
    Gtrs I, II
    PM--------------------------------------------------------|
||--------------|---------------|---------------|----------------||
||o-------------|---------------|---------------|---------------o||
||--------------|---------------|---------------|----------------||
||--6---7---9---|-6---6---------|-6---6---------|-6---6----------||
||o---4---5---7-|---4---4-------|---4---4-------|---4---4-------o||
||--------------|---------0-0-0-|---------0-0-0-|---------0-0-0--||


  2.
            4/4
  Gtrs I, II
             PM----------------------------|
|----------|---------------------------------|
|----------|---------------------------------|
|-9-8-5----|---------------------------------|
|----------|---------------------------------|
|-7-6-3----|---------------------------------|
|----------|-2-2-2-2-5-5-5-5-5-5-5-5-4-4-4-4-|


                                  1.
   3/4
    Gtrs I, II
    PM--------------------------------------------------------|
||--------------|---------------|---------------|----------------||
||o-------------|---------------|---------------|---------------o||
||--------------|---------------|---------------|----------------||
||--6---7---9---|-6---6---------|-6---6---------|-6---6----------||
||o---4---5---7-|---4---4-------|---4---4-------|---4---4-------o||
||--------------|---------0-0-0-|---------0-0-0-|---------0-0-0--||


  2.
            5/4
  Gtrs I, II
             PM------------|
|----------|--------------------|
|----------|--------------------|
|-9-8-5----|--------------------|
|----------|---------7-6--------|
|-7-6-3----|-4-5-4-5-5-4-6-7-5--|
|----------|-2-3-2-3-----4-5-3--|


                                  1.
   3/4
    Gtrs I, II
    PM--------------------------------------------------------|
||--------------|---------------|---------------|----------------||
||o-------------|---------------|---------------|---------------o||
||--------------|---------------|---------------|----------------||
||--6---7---9---|-6---6---------|-6---6---------|-6---6----------||
||o---4---5---7-|---4---4-------|---4---4-------|---4---4-------o||
||--------------|---------0-0-0-|---------0-0-0-|---------0-0-0--||


  2.
            4/4
  Gtrs I, II
             PM----------------------------|
|----------|---------------------------------|
|----------|---------------------------------|
|-9-8-5----|---------------------------------|
|----------|---------------------------------|
|-7-6-3----|---------------------------------|
|----------|-2-2-2-2-5-5-5-5-5-5-5-5-4-4-4-4-|


 3/4                                           2/4
  Gtrs I, II
  PM--------------------------------------------------|
|-------------|---------------|---------------|------------|
|-------------|---------------|---------------|------------|
|-------------|---------------|---------------|------------|
|-6---7---9---|-6---6---------|-6---6---------|-6---6------|
|---4---5---7-|---4---4-------|---4---4-------|---4---4----|
|-------------|---------0-0-0-|---------0-0-0-|------------|


  Q=220
 3/4                       5/4
|-------------------------|-----------------------------------------|
|-------------------------|-----------------------------------------|
|-------------------------|---------6-6-6-6-5-5-5-5-----------------|
|---------5-5-5-5-5-5-5-5-|-------------------------6-6-6-6-7-7-7-7-|
|-------------------------|-----------------------------------------|
|-3-3-3-3-----------------|-4-4-4-4---------------------------------|


|-------------------------------------------|
|-------------------------------------------|
|---------5-5-5-5-6-6-6-6-8-8-8-8-9-9-9-9---|
|-9-9-9-9-----------------------------------|
|-------------------------------------------|
|-------------------------------------------|


 Outro
  Q=205
 5/4
  Gtr I
|-------------------------------------------------------------|
|-------------------------------------------------22-22-22-22-|
|-18-18-18-18-18-18-18-18-------------------------------------|
|-------------------------18-18-18-18-18-18-18-18-------------|
|-------------------------------------------------------------|
|-------------------------------------------------------------|
|
| Gtr II
|-------------------------------------------------------------|
|-------------------------------------------------------------|
|-------------------------------------------------------------|
|-------------------------------------------------------------|
|--4--4--4--4--4--4--4--4--------------------------7--7--7--7-|
|--------------------------4--4--4--4--4--4--4--4-------------|


|---------------------------------------------------------------|
|-22-22-22-22-21-21-21-21-21-21-21-21---------------------------|
|-------------------------------------20-20-20-20-20-20-20-20---|
|---------------------------------------------------------------|
|---------------------------------------------------------------|
|---------------------------------------------------------------|
|
|---------------------------------------------------------------|
|---------------------------------------------------------------|
|---------------------------------------------------------------|
|---------------------------------------------------------------|
|--7--7--7--7--6--6--6--6--6--6--6--6--3--3--3--3--3--3--3--3---|
|---------------------------------------------------------------|


  Gtr I
|-------------------------------------------------------------|
|-------------------------------------------------------------|
|-21-21-21-21-21-21-21-21-17-17-17-17-17-17-17-17-18-18-18-18-|
|-------------------------------------------------------------|
|-------------------------------------------------------------|
|-------------------------------------------------------------|
|
| Gtr II
|-------------------------------------------------------------|
|-------------------------------------------------------------|
|-------------------------------------------------------------|
|-------------------------------------------------------------|
|--4--4--4--4--4--4--4--4--6--6--6--6--6--6--6--6--7--7--7--7-|
|-------------------------------------------------------------|


 6/4
|--------------------------------------------------------------------------|
|--------------------------------------------------------------------------|
|-18-18-18-18--------------------------------------------------------------|
|-------------18-18-18-18-18-18-18-18-18-18-18-18-18-18-18-18-18-18-18-18--|
|--------------------------------------------------------------------------|
|--------------------------------------------------------------------------|
|
|--------------------------------------------------------------------------|
|--------------------------------------------------------------------------|
|--------------------------------------------------------------------------|
|--------------------------------------------------------------------------|
|--7--7--7--7--6--6--6--6--6--6--6--6--6--6--6--6--6--6--6--6--6--6--6--6--|
|--------------------------------------------------------------------------|


 4/4
|-------------------------------------------------|
|-------------------------------------------------|
|-------------------------------------------------|
|-19-19-19-19-19-19-19-19-18-18-18-18-18-18-18-18-|
|-------------------------------------------------|
|-------------------------------------------------|
|
|-------------------------------------------------|
|-------------------------------------------------|
|-------------------------------------------------|
|--7--7--7--7--7--7--7--7--6--6--6--6--6--6--6--6-|
|-------------------------------------------------|
|-------------------------------------------------|

|--------------------------------------------------|
|--------------------------------------------------|
|--------------------------------------------------|
|--13-13-13-13-13-13-13-13-14-14-14-14-14-14-14-14-|
|--------------------------------------------------|
|--------------------------------------------------|
|
|--------------------------------------------------|
|--------------------------------------------------|
|--------------------------------------------------|
|--------------------------------------------------|
|---3--3--3--3--3--3--3--3--4--4--4--4--4--4--4--4-|
|--------------------------------------------------|


|----------------------------------------------------|
|----------------------------------------------------|
|----------------------------------------------------|
|-10-10-10-10-10-10-10-10-11-11-11-11-11-11-11-11----|
|----------------------------------------------------|
|----------------------------------------------------|
|
|----------------------------------------------------|
|----------------------------------------------------|
|----------------------------------------------------|
|----------------------------------------------------|
|--6--6--6--6--6--6--6--6--7--7--7--7--7--7--7--7----|
|----------------------------------------------------|


 3/4
|-------*|
|-------*|
|-6\----*|
|-6\----*|
|-4\----*|
|-------*|


Tablature Legend
----------------
 h   - hammer-on
 p   - pull-off
 b   - bend
 pb  - pre-bend
 r   - bend release (if no number after the r, then release immediately)
 /\  - slide into or out of (from/to "nowhere")
 s   - legato slide
 S   - shift slide
  - natural harmonic
[n]  - artificial harmonic
n(n) - tapped harmonic
 ~   - vibrato
 tr  - trill
 T   - tap
 TP  - trem. picking
 PM  - palm muting
\n/  - tremolo bar dip; n = amount to dip
 \n  - tremolo bar down
 n/  - tremolo bar up
/n\  - tremolo bar inverted dip
 =   - hold bend; also acts as connecting device for hammers/pulls
 <>  - volume swell (louder/softer)
 x   - on rhythm slash represents muted slash
 o   - on rhythm slash represents single note slash

Misc Legend
-----------
 |  - bar
||  - double bar
||o - repeat start
o|| - repeat end
*|  - double bar (ending)
 :  - bar (freetime)
 $  - Segno
 &  - Coda
Tempo markers -  = BPM(8/16=s8/s16), where s8 = swing 8ths, 
s16 = swing 16ths
comments
We did not receive enough feedback on this tab! Please rate:
print report bad tab
1 2 3 4 5
I want to post or [tab]
guest
You may want to rate the tab now too:
select rating
Please do not post tabs as comments. Select "correction" instead!