Oops, an error
Loading. Please wait.

Effigy Of The Forgotten Tab

ver2
ver2

Whole song

Interactive

More versions @911Tabs.com
122 views 1 this week
no commentswrite comment
1 2 3 4 5
please rate
Autoscroll
+/-
esc
set tempo
stop
Contributor
Hey! There's an official Ultimate Guitar app which is ideal
for learning songs when you're away from computer. Get the app
WARNING: You are trying to view
                                    content from Ultimate-Guitar.com
                                    in an unauthorized application,
                                    which is prohibited.

                                    Please use an official Ultimate
                                    Guitar Tabs application for iPhone,
                                    iPad or Android to access legitimate
                                    chords, guitar, bass, and drum tabs
                                    from Ultimate-Guitar.com database.

                                    Type "ultimate guitar tabs" in Apple
                                    App Store's or Android Market's
                                    search to find the application.
Song : EFFIGY OF THE FORGOTTEN
Band : SUFFOCATION
ALBUM : EFFIGY OF THE FORGOTTEN


::TABULATURE LEGEND::
 " - tremolo/grind       h - hammer on           
 ~ - vibrato             \ - slide down
 p - pull off            / - slide down
 tr - trill              ^ - pinch harmonics     
 = - sustained note      b - bend string         
 p.m. - palm muting      t - tapping 
           <> - natural harmonics

TUNING: C [C,F,Bb,eb,g,c]

[Part 1 (x5)]
|--------------------------|
|--------------------------|
|--------------------------|
|--------------------------|
|-4-5-4-5-4-4-4-5-4-5---3--|
|-2-3-2-3-2-2-2-3-2-3-221--|
  . . . . . . . . . .

[Part 2 (x2)]
|---------------------------------|------------------------------------|
|---------------------------------|------------------------------------|
|---------------------------------|------------------------------------|
|------------------------------3~-|------------------------------------|
|---------------------44443333----|---------77776666----66665555-------|
|-22222222555544441111------------|-44444444--------3333---------44444-|

[PART 1 (x4)]

[Part 3 (x2)]
|----------------------------------|----------------------------------|
|----------------------------------|----------------------------------|
|----------------------------------|----------------------------------|
|-----------------------------3333-|----------------------------------|
|-6666--------44443333----4444-----|-6666--------44443333----2222-----|
|-----33332222--------5555---------|-----33332222--------4444----3333-|

[Part 4]
|----------------------------------|----------------------------------|-
|----------------------------------|----------------------------------|-
|----------------------------------|----------------------------------|-
|----------------------------------|----------------------------------|-
|----------------------------------|-------------------------33332222-|-
|-22222200223366661111000033332222-|-222222002233666611110000---------|-
|                                  |                                  |
|----------------------------------|----------------------------------|-
|----------------------------------|----------------------------------|-
|----------------------------------|----------------------------------|-
|----------------------------------|----------------------------------|-
|-4-----------8--------------------|-4-----------8--------------------|-
|-2-----0-22336--------------------|-2-----0-22336--------------------|-
  .           .                      .           .

-|----------------------------------|----------------------------------|
-|----------------------------------|----------------------------------|
-|----------------------------------|----------------------------------|
-|----------------------------------|----------------------------------|
-|----------------------------------|-----------002222333355556666-----|
-|-22222200223366661111000033332222-|-1111111100------------------5555-|
 |                                  |                                  |
-|----------------------------------|----------------------------------|
-|----------------------------------|----------------------------------|
-|----------------------------------|----------------------------------|
-|----------------------------------|-------------4--------------------|
-|-4-----------8--------------------|-3---------o-2---333-555-666------|
-|-2-----0-22336--------------------|-1-------0-------------------555--|
   .           .                      .       . . .   ... ... ... ...

[PART 4 (x2)] [PART 1 (x7)] [PART 2 (x2)] [PART 1]

[Outro]
|-------------|
|-------------|
|-------------|
|-------------|
|-4-5-4-5-4-4-|
|-2-3-2-3-2-2-|
  . . . . . .

[Part 5 (x2)]
|-------------------------|-------------------------|-
|-------------------------|-------------------------|-
|-------------------------|-------------------------|-
|-------------------------|-------------------------|-
|-3-3-3-4-3-3-3-3-3-4---4-|-3-3-3-4-3-3-3-3-3-4---4-|-
|-1-1-1-2-1-1-1-1-1-2-0-2-|-1-1-1-2-1-1-1-1-1-2-0-2-|-
| . . .   . . . . .   .   | . . .   . . . . .   .   |
|-------------------------|-------------------------|-
|-------------------------|-------------------------|-
|-------------------------|-------------------------|-
|-------------------------|-------------------------|-
|-3-3-3-4-3-3-3-3-3-4---4-|-3-3-3-4-3-3-3-3-3-4---4-|-
|-1-1-1-2-1-1-1-1-1-2-0-2-|-1-1-1-2-1-1-1-1-1-2-0-2-|-
  . . .   . . . . .   .     . . . . . . . . .   .

-|-------------------------|-------------------------|-
-|-------------------------|-------------------------|-
-|-------------------------|-5-------------4-3-2-----|-
-|-----5-----------------3-|---4---4-5-4-3-------3-2-|-
-|---4---4-3-----3---3-2---|-----3-------------------|-
-|-3---------5-2---4-------|-------------------------|-
 | . . . . . . . . . . . . | . . . . . . . . . . . . |
-|-------------------------|-------------------------|-
-|-------------------------|-------------------------|-
-|-------------------------|-5-------------4-3-2-----|-
-|-----5-----------------3-|---4---4-5-4-3-------3-2-|-
-|---4---4-3-----3---3-2---|-----3-------------------|-
-|-3---------5-2---4-------|-------------------------|-
   . . . . . . . . . . . .   . . . . . . . . . . . .

-|-------------------------|-------------------------|-
-|-------------------------|-------------------------|-
-|-------------------------|-------------------------|-
-|-------------------------|-------------------------|-
-|-3-3-3-4-3-3-3-3-3-4---4-|-3-3-3-4-3-3-3-3-3-4---4-|-
-|-1-1-1-2-1-1-1-1-1-2-0-2-|-1-1-1-2-1-1-1-1-1-2-0-2-|-
 | . . .   . . . . .   .   | . . .   . . . . .   .   |
-|-------------------------|-------------------------|-
-|-------------------------|-------------------------|-
-|-------------------------|-------------------------|-
-|-------------------------|-------------------------|-
-|-3-3-3-4-3-3-3-3-3-4---4-|-3-3-3-4-3-3-3-3-3-4---4-|-
-|-1-1-1-2-1-1-1-1-1-2-0-2-|-1-1-1-2-1-1-1-1-1-2-0-2-|-
   . . .   . . . . .   .     . . . . . . . . .   .

-|-------------------------|-------------------------|
-|-------------------------|-------------------------|
-|-------------------------|-5-------------4-3-2-----|
-|-----5-----------------3-|---4---4-5-4-3-------3-2-|
-|---4---4-3-----3---3-2---|-----3-------------------|
-|-3---------5-2---4-------|-------------------------|
 | . . . . . . . . . . . . | . . . . . . . . . . . . |
-|-------------------------|-------------------------|
-|-------------------------|-------------------------|
-|-------------------------|-8-------------7-6-5-----|
-|-----8-----------------6-|---7---7-8-7-6-------6-5-|
-|---7---7-6-----6---6-5---|-----6-------------------|
-|-6---------8-5---7-------|-------------------------|
   . . . . . . . . . . . .   . . . . . . . . . . . .

[PART 3 (x2)]

[Part 6 (x4)]
|---------------------------------|----------------------------------|-
|---------------------------------|----------------------------------|-
|---------------------------------|----------------------------------|-
|---4-----3---------4-----3-------|---4-----3------------------------|-
|-4-2-4-5-1-5-4-3-4-2-4-5-1-5-4-3-|-4-2-4-5-1-5-4-3---------33334444-|-
|-2---2-3---3-2-1-2---2-3---3-2-1-|-2---2-3---3-2-1-0-000-0----------|-
  .   . .   . . . .   . .   . . .   .   . .   . . . . ... .

-|---------------------------------|----------------------------------|
-|---------------------------------|----------------------------------|
-|---------------------------------|----------------------------------|
-|---4-----3---------4-----3-------|---4-----3------------------------|
-|-4-2-4-5-1-5-4-3-4-2-4-5-1-5-4-3-|-4-2-4-5-1-5-4-3---------4433-----|
-|-2---2-3---3-2-1-2---2-3---3-2-1-|-2---2-3---3-2-1-00334466----0011-|
   .   . .   . . . .   . .   . . .   .   . .   . . .

[Part 7 (X2)]
|-------------------------------------------------------------------|-
|-------------------------------------------------------------------|-
|-------------------------------------------------------------------|-
|-------------------------------6--------5--------6--------5--------|-
|-------------------------------6--5--4--5--4--3--6--5--4--5--4--3--|-
|-000-333-222-555-222-000-[x2]-----5--4-----4--3-----5--4-----4--3--|-
| ... ... ... ... ... ...       .  .  .  .  .  .  .  .  .  .  .  .  |
|-------------------------------------------------------------------|-
|-------------------------------------------------------------------|-
|-------------------------------------------------------------------|-
|-------------------------------6--------5--------6--------5--------|-
|-------------------------------6--5--4--5--4--3--6--5--4--5--4--3--|-
|-000-333-222-555-222-000-[x2]-----5--4-----4--3-----5--4-----4--3--|-
  ... ... ... ... ... ...       .  .  .  .  .  .  .  .  .  .  .  .

-|-------------------------------------------------------------------|
-|-------------------------------------------------------------------|
-|-------------------------------------------------------------------|
-|-------------------------------4--------3--------4--------3--------|
-|----------------------------------3--2-----2--1-----3--2-----2--1--|
-|-000-333-222-555-222-000-[x2]--------------------------------------|
 | ... ... ... ... ... ...       .  .  .  .  .  .  .  .  .  .  .  .  |
-|-------------------------------------------------------------------|
-|-------------------------------------------------------------------|
-|-------------------------------------------------------------------|
-|-------------------------------------------------------------------|
-|-------------------------------6--------5--------6--------5--------|
-|-000-333-222-555-222-000-[x2]-----5--4-----4--3-----5--4-----4--3--|
  ... ... ... ... ... ...       .  .  .  .  .  .  .  .  .  .  .  .

[Part 8a]
|-------------------------|-------------------------|-
|-------------------------|-------------------------|-
|-------------------------|-------------------------|-
|-------------------------|-------------------3--2--|-
|----4--------5-----4-----|----3--------3--4--------|-
|-2-----5--3-----2-----2--|-1-----4--1--------------|-
                       .

-|-------------------------|-------------------------|
-|-------------------------|-------------------------|
-|-------------------------|-------------------------|
-|-------------------------|-------------------------|
-|----4--------5-----4-----|----3-----3--5--6--3--5--|
-|-2-----5--3-----2-----2--|-1-----4--1--3--4--1--3--|
                        .             .  .  .  .  .

[Part 8b]
|-------------------------|-------------------------|-
|-------------------------|-------------------------|-
|-------------------------|-------------------5--4--|-
|----6--------7-----6-----|----5--------5--6--3--2--|-
|-4--4--7--5--5--4--4--4--|-3--3--6--3--3--4--------|-
|-2-----5--3-----2-----2--|-1-----4--1--------------|-
  .  .  .  .  .  .  .  .    .  .  .  .  .  .  .  .

-|-------------------------|-------------------------|
-|-------------------------|-------------------------|
-|-------------------------|-------------------------|
-|----6--------7-----6-----|----5--------------------|
-|-4--4--7--5--5--4--4--4--|-3--3--6--3--5--6--3--5--|
-|-2-----5--3-----2-----2--|-1-----4--1--3--4--1--3--|
   .  .  .  .  .  .  .  .    .  .  .  .  .  .  .  .

[Part 9 (x2)]
|------------------------------------------------------------------|-
|------------------------------------------------------------------|-
|------------------------------------------------------------------|-
|---------------------------------------------------------33332222-|-
|-----4444--------5555----4444--------3333--------33334444---------|-
|-2222----55553333----2222-----2--1111----44441111-----------------|-
                               .

-|-------------------------------------------------------------|
-|-------------------------------------------------------------|
-|-------------------------------------------------------------|
-|-------------------------------------------------------------|
-|-----4444--------5555----4444--------3333-----3--5--6--3--5--|
-|-2222----55553333----2222-----2--1111----4444-1--3--4--1--3--|
                                .               .  .  .  .  .

[Ending]
|--------|
|--------|
|--------|
|--------|
|--4-----|
|--2-----|
   .

END OF SONG
comments
We did not receive enough feedback on this tab! Please rate:
print report bad tab
1 2 3 4 5
I want to post or [tab]
guest
You may want to rate the tab now too:
select rating
Please do not post tabs as comments. Select "correction" instead!