Oops, an error
Loading. Please wait.

Funeral Inception Tab

ver2
ver2

Whole song

More versions @911Tabs.com
219 views 1 this week
no commentswrite comment
1 2 3 4 5
please rate
Autoscroll
+/-
esc
set tempo
stop
Contributor
WARNING: You are trying to view
                                    content from Ultimate-Guitar.com
                                    in an unauthorized application,
                                    which is prohibited.

                                    Please use an official Ultimate
                                    Guitar Tabs application for iPhone,
                                    iPad or Android to access legitimate
                                    chords, guitar, bass, and drum tabs
                                    from Ultimate-Guitar.com database.

                                    Type "ultimate guitar tabs" in Apple
                                    App Store's or Android Market's
                                    search to find the application.
--- S U F F O C A T I O N ---
                            "Funeral Inception"
                     From album: "Despise The Sun" EP


                            TABULATURE LEGEND:
                   " - tremolo             h - hammer on
                   ~ - vibrato             \ - slide down
                   p - pull off            / - slide down
                  tr - tremolo picking     ^ - pinch harmonics
                   = - sustained note      b - bend string
                p.m. - palm muting         t - tapping

Tuning (low to high): C#,F#,B,e,g#,c#

[Part 1 (x2)] /both guitars/
||-------------------------|----------------------|
||-------------------------|----------------------|
||-------------------------|----------------------|
||-------------------------|----------------------|
||-444-333-5-6-444-333-4-5-|-444-333-5-6-5-6-4-5--|
||-222-111-3-4-222-111-2-3-|-222-111-3-4-3-4-2-3--|
   ... ... . . ... ... . .   ... ... . . . . . .

-------------------------|----------------------||
-------------------------|----------------------||
-------------------------|----------------------||
-------------------------|-------------4-----3--||
-444-333-5-6-444-333-4-5-|-444-333-5-6-2-5-4-1--||
-222-111-3-4-222-111-2-3-|-222-111-3-4---3-2----||
 ... ... . . ... ... . .   ... ... . .   . .

[Outro 1]
|---------------------------------------------|
|---------------------------------------------|
|---------------------------------------------|
|----4-----3-------4-----3----4-----3---------|
|-3--2-5-4-1-4--3--2-5-4-1-3--2-5-4-1-4-5-4-5-|
|-1----3-2---2--1----3-2---1----3-2---2-3-2-3-|
     . . .         . . .      . . .   . . . .

[PART 1 (x2)]

[Outro 2]
|---------------------------------------------|-----------|
|---------------------------------------------|-----------|
|---------------------------------------------|-----------|
|----4-----3-------4-----3----4-----3---------|--/Break---|
|-3--2-5-4-1-4--3--2-5-4-1-3--2-5-4-1-4-5-4-5-|-----------|
|-1----3-2---2--1----3-2---1----3-2---2-3-2-3-|-----------|
     . . .

[Part 2a]
||------------------------------------------------------------------|
||------------------------------------------------------------------|
||------------------------------------------------------------------|
||---------3------------------------------3--------4--------3-------|
||-4-5-4-3-1------------------------------1--------2--------1-------|
||-2-3-2-1---1111111111111111111111111111---111111---111111---1111--|
|  . . . .   ............................   ......   ......   ....
||------------------------------------------------------------------|
||------------------------------------------------------------------|
||------------------------------------------------------------------|
||---------3--------------------------------------------------------|
||-4-5-4-3-1--------------------------------------------------------|
||-2-3-2-1----------------------------------------------------------|
   . . . .

-------------------------------------------------------------------------||
-------------------------------------------------------------------------||
-------------------------------------------------------------------------||
---------3------------------------------3--------4--------6-5------------||
-4-5-4-3-1------------------------------1--------2--------4-3-7-6-5-6-4--||
-2-3-2-1---1111111111111111111111111111---111111---111111-----5-4-3-4-2--||
 . . . .   ............................   ......   ...... . . . . . .     |
-------------------------------------------------------------------------||
-------------------------------------------------------------------------||
-------------------------------------------------------------------------||
---------3------------------------------------------------6-5------------||
-4-5-4-3-1------------------------------------------------4-3-7-6-5-7-4--||
-2-3-2-1------------------------------------------------------5-4-3-4-2--||
 . . . .                                                  . . . . . .

[Part 2a (x2)]
||------------------------------------------------------------------|
||------------------------------------------------------------------|
||------------------------------------------------------------------|
||-3------------------------------3--------4--------3---------------|
||-1------------------------------1--------2--------1-----------6-5-|
||---1111111111111111111111111111---111111---111111----1111-3-3-4-3-|
|    ............................   ......   ......    .... . . . .
||------------------------------------------------------------------|
||------------------------------------------------------------------|
||------------------------------------------------------------------|
||-3------------------------------3--------4--------3---------------|
||-1------------------------------1--------2--------1-----------6-5-|
||---1111111111111111111111111111---111111---111111----1111-3-3-4-3-|
     ............................   ......   ......    .... . . . .

-[ending 1]-------------------------------------------------------||
------------------------------------------------------------------||
------------------------------------------------------------------||
-3------------------------------3--------4--------6-5-----5-4-----||
-1------------------------------1--------2--------4-3-7-6-3-2-6-5-||
---1111111111111111111111111111---111111---111111-----5-4-----4-3-||
   ............................   ......   ...... . . . . . . . .  |
------------------------------------------------------------------||
------------------------------------------------------------------||
------------------------------------------------------------------||
-3------------------------------3--------4--------6-5-----5-4-----||
-1------------------------------1--------2--------4-3-7-6-3-2-6-5-||
---1111111111111111111111111111---111111---111111-----5-4-----4-3-||
   ............................   ......   ...... . . . . . . . .

-[ending 2]-------------------------------------------------------||
------------------------------------------------------------------||
------------------------------------------------------------------||
-3------------------------------3--------4--------6-5-------------||
-1------------------------------1--------2--------4-3-7-6-4-5-4-5-||
---1111111111111111111111111111---111111---111111-----5-4-2-3-2-3-||
   ............................   ......   ...... . . . . . . . .  |
------------------------------------------------------------------||
------------------------------------------------------------------||
------------------------------------------------------------------||
-3------------------------------3--------4--------6-5-------------||
-1------------------------------1--------2--------4-3-7-6-4-5-4-5-||
---1111111111111111111111111111---111111---111111-----5-4-2-3-2-3-||
   ............................   ......   ...... . . . . . . . .

[Part 3a] /both guitars/
||----------------------------------|----------------------------------|
||----------------------------------|----------------------------------|
||----------------------------------|----------------------------------|
||----------------------------------|---------44444444-----------------|
||---------7777---------------------|-33333333--------2222222222222222-|
||-44444444----66663333333333333333-|----------------------------------|

----------------------------------|-----------------------------------||
----------------------------------|-----------------------------------||
----------------------------------|-----------------------------------||
----------------------------------|---------44444444-6-5--------------||
---------7777---------------------|-33333333---------4-3-7-6-5--4--3--||
-44444444----66663333333333333333-|----------------------5-4-3--2--1--||
                                                         . . .  .  .

[Part 2b (x2)]
||------------------------------------------------------------------|
||------------------------------------------------------------------|
||------------------------------------------------------------------|
||-3------------------------------3--------4--------3---------------|
||-1------------------------------1--------2--------1-----------6-5-|
||---1111111111111111111111111111---111111---111111----1111-3-3-4-3-|
|    ............................   ......   ......    .... . . . .
||------------------------------------------------------------------|
||------------------------------------------------------------------|
||------------------------------------------------------------------|
||-3------------------------------3--------4--------3---------------|
||-1------------------------------1--------2--------1-----------6-5-|
||---1111111111111111111111111111---111111---111111----1111-3-3-4-3-|
     ............................   ......   ......    .... . . . .


-[ending 1]------------------------------------------------------||
-----------------------------------------------------------------||
-----------------------------------------------------------------||
-3------------------------------3--------4--------6-5------------||
-1------------------------------1--------2--------4-3-7-6-5-6-4--||
---1111110000000000000000000000---111111---111111-----5-4-3-4-2--||
   ............................   ......   ......     . . . .     |
-----------------------------------------------------------------||
-----------------------------------------------------------------||
-----------------------------------------------------------------||
-3------------------------------3--------4--------6-5------------||
-1------------------------------1--------2--------4-3-7-6-5-6-4--||
---1111110000000000000000000000---111111---111111-----5-4-3-4-2--||
   ............................   ......   ......     . . . .

-[ending 2]-------------------------------------------------------||
------------------------------------------------------------------||
------------------------------------------------------------------||
-3------------------------------3--------4--------6-5-------------||
-1------------------------------1--------2--------4-3-7-6-4-5-4-5-||
---1111110000000000000000000000---111111---111111-----5-4-2-3-2-3-||
   ............................   ......   ......     . . . . . .  |
------------------------------------------------------------------||
------------------------------------------------------------------||
------------------------------------------------------------------||
-3------------------------------3--------4--------6-5-------------||
-1------------------------------1--------2--------4-3-7-6-5-6-4-5-||
---1111110000000000000000000000---111111---111111-----5-4-2-3-2-3-||
   ............................   ......   ......     . . . . . .

[Part 3b]
||----------------------------------|----------------------------------|
||----------------------------------|----------------------------------|
||----------------------------------|----------------------------------|
||----------------------------------|---------44444444-----------------|
||---------7777---------------------|-33333333--------2222222222222222-|
||-44444444----66663333333333333333-|----------------------------------|
|                                   |
||----------------------------------|----------------------------------|
||----------------------------------|----------------------------------|
||----------------------------------|----------------------------------|
||----------------------------------|---------44444444-----------------|
||---------7777---------------------|-33333333--------2222222222222222-|
||-44444444----66663333333333333333-|----------------------------------|


----------------------------------|-----------------------------------||
----------------------------------|-----------------------------------||
----------------------------------|-----------------------------------||
----------------------------------|---------44444444-6-5--------------||
---------7777---------------------|-33333333---------4-3-7-6-5--4--3--||
-44444444----66663333333333333333-|----------------------5-4-3--2--1--||
                                                         . . .  .  .   |
----------------------------------|-----------------------------------||
----------------------------------|-----------------------------------||
----------------------------------|-----------------------------------||
---------7777---------------------|------------------6-5--------------||
-44444444----66663333333333333333-|-33333333---------4-3-7-6-5--4--3--||
----------------------------------|---------22222222-----5-4-3--2--1--||
                                                         . . .  .  .
[Outro 3]
||-------------------------|---------------------|
||-------------------------|---------------------|
||-------------------------|---------------------|
||-------------------------|---------------------|
||-444-333-5-6-444-333-4-5-|-444-333-5-6-5-6-4-5-|
||-222-111-3-4-222-111-2-3-|-222-111-3-4-3-4-2-3-|
|  ... ... . . ... ... . . | ... ... . . . . . .
||-------------------------|---------------------|
||-------------------------|---------------------|
||-------------------------|---------------------|
||-------------------------|---------------------|
||-------------444-333-----|-444-333-5-6-5-6-4-5-|
||-------------222-111-----|-222-111-3-4-3-4-2-3-|
               ... ...       ... ... . . . . . .

-------------------------|----------------------||
-------------------------|----------------------||
-------------------------|----------------------||
-------------------------|-------------4-----3--||
-444-333-5-6-444-333-4-5-|-444-333-5-6-2-5-4-1--||
-222-111-3-4-222-111-2-3-|-222-111-3-4---3-2----||
 ... ... . . ... ... . .   ... ... . .   . .     |
-------------------------|----------------------||
-------------------------|----------------------||
-------------------------|----------------------||
-------------------------|-------------4-----3--||
-444-333-5-6-444-333-4-5-|-444-333-5-6-2-5-4-1--||
-222-111-3-4-222-111-2-3-|-222-111-3-4---3-2----||
 ... ... . . ... ... . .   ... ... . .   . .

[PART 1]

[Outro 4]
|-------------------------------------------|
|-------------------------------------------|
|-------------------------------------------|
|----4-----3-------4-----3----4-----3-------|
|-3--2-5-4-1-4--3--2-5-4-1-3--2-5-4-1-4--3--|
|-1----3-2---2--1----3-2---1----3-2---2--1--|
     . . .         . . .      . . .

[Bass interlude 1]
|-------------|-------------|-------------|-------------|
|-------------|-------------|-------------|-------------|
|-------------|-------------|-------------|-------------|
|-2--1--0--1--|-2--1--2--1--|-0--1--2--1--|-0--1--2--1--|

[Outro 5] /both guitars/
-------------||-------------|-------------|-----------||
-------------||-------------|-------------|-----------||
-------------||-------------|-------------|-----------||
-------------||-------------|-------------|-----------||
-6--7--5--6--||-4--3--2--3--|-4--3--6--7--|-5--6------||
-4--5--3--4--||-2--1--0--1--|-2--1--4--5--|-3--4------||
 .  .  .  .     .  .  .  .    .  .  .  .    .  .

[Part 4a (x2)] /both guitars/
||-------------------------|-------------------------------------|
||-------------------------|-------------------------------------|
||-------------------------|-------------------------------------|
||-------------------------|-------------------------------------|
||-4--3--2--3--4--3--4--3--|-2--3--4--3--2--3--4--3--6--7--5--6--|
||-2--1--0--1--2--1--2--1--|-0--1--2--1--0--1--2--1--4--5--3--4--|
   .  .  .  .  .  .  .  .    .  .  .  .  .  .  .  .  .  .  .  .

-------------------------|-------------------------------------||
-------------------------|-------------------------------------||
-------------------------|-------------------------------------||
-------------------------|-------------------------------5--6--||
-4--3--2--3--4--3--4--3--|-2--3--4--3--2--3--4--3--6--7--3--4--||
-2--1--0--1--2--1--2--1--|-0--1--2--1--0--1--2--1--4--5--3--4--||
 .  .  .  .  .  .  .  .    .  .  .  .  .  .  .  .  .  .  .  .

[Outro 6]
||----------------------------------|-----------------------------[x2]-||
||----------------------------------|----------------------------------||
||----------------------------------|----------------------------------||
||-------------------------5--6-----|----------------------------------||
||-4--3--2--3--4--3--6--7--3--4-----|-4--3--2--3--4--3--6--7--5--6-----||
||-2--1--0--1--2--1--4--5--3--4-----|-2--1--0--1--2--1--4--5--3--4-----||
   .  .  .  .  .  .  .  .  .  .       .  .  .  .  .  .  .  .  .  .

[...continue]
||-------------------------|---------------------|
||-------------------------|---------------------|
||-------------------------|---------------------|
||-------------------------|---------------------|
||-4--3--2--3--4--3--6--7--|-5--6--3--4--2--3----|
||-2--1--0--1--2--1--4--5--|-3--4--1--2--0--1----|
|  .  .  .  .  .  .  .  .  | .  .  .  .  .  .    |
||-------------------------|---------------------|
||-------------------------|---------------------|
||-------------------------|---------------------|
||-------------------------|---------------------|
||-4--3--2--3--4--3--6--7--|-5--6----------------|
||-2--1--0--1--2--1--4--5--|-3--4----------------|
   .  .  .  .  .  .  .  .    .  .

[Part 5]
||----------------------------------------------------------------|
||----------------------------------------------------------------|
||----------------------------------------------------------------|
||----------------------------------------------------------------|
||-4--------------------------------4------------4-5-4--------3-4-|
||-2--------------------------------2------------2-3-2--------1-2-|
|  .                                .            . . .        . .
||----------------------------------------------------------------|
||----------------------------------------------------------------|
||----------------------------------------------------------------|
||----------------------------------------------------------------|
||-4----------2-4-5-4-------3-2-----4------------4-5-4--------3-4-|
||-2-00000000-0-2-3-2-0-2-3-----3-2-2-0000000000-2-3-2-000000-1-2-|
     ........ . . . . . . . . . . .   .......... . . . ...... . .

----------------------------------------------------------------------------||
----------------------------------------------------------------------------||
----------------------------------------------------------------------------||
------------------------------------------------------------6-----7-----8-7-||
-3-----3-7-4-----------4-5-4---4-5---------4------------5-6-4-5-7-5-7-8-6-5-||
-1-----1-5-2-----------2-3-2---2-3---------2------------3-4---4-5---5-6-----||
 .     . . .           . . .   . .         .            . . . . . . . . . .  |
----------------------------------------------------------------------------||
----------------------------------------------------------------------------||
----------------------------------------------------------------------------||
------------------------------------------------------------6-----7-----8-7-||
-3----3-7-4----------2-4-5-4-------3-2-----4------------5-6-4-6-7-5-7-8-6-5-||
-1-00-1-5-2-00000000-0-2-3-2-0-2-3-----3-2-2-0000000000-3-4---4-5---5-6-----||
   .. . . . ........ . . . . . . . . . . .   .......... . . . . . . . . . .

[PART 5 /both guitars/ (x2)]

[Outro 7]
||-/both gutiars/------------------|---------------------------------|
||---------------------------------|---------------------------------|
||---------------------------------|---------------------------------|
||---------------------------------|---------------------------------|
||-4-3-5-6-4-3-4-5-4-3-5-6-5-6-4-5-|---------------------------------|
||-2-1-3-4-2-1-2-3-2-1-3-4-3-4-2-3-|---------------------------------|
|  . . . . . . . . . . . . . . . . |
||-/bass/--------------------------|---------------------------------|
||---------------------------------|---------------------------------|
||---------------------------------|---------------------------------|
||---------------------------------|-2-1-3-4-2-1-2-3-2-1-3-4-3-4-2-3-|


------------------------------||----------------------------------|
------------------------------||o---------------------------------|
------------------------------||----------------------------------|
------------------------------||----------------------------------|
-4--5-6-5--5-6-4--5-6-5-6-4-5-||o---------------------------------|
-2--3-4-3--3-4-2--3-4-3-4-2-3-||--2-2-1-1-3-3-4-4-2-2-1-1-2-2-3-3-|
 .  . . .  . . .  . . . . . .

[Part 6 (x2)] /both guitars/                                             ..Out
||--------------------------------------------------|-------------------||----|
||--------------------------------------------------|-------------------||----|
||--------------------------------------------------|-------------------||----|
||--------------------------------------------------|----------4------3-||----|
||--------------------------------------------------|----------2------1-||-3--|
||-221133442211223322113344334422332211334422112233-|-22113344---3322---||-1--|

[PART 6 (x2)]

[Ending] /both guitars/
|---------------------------------------------||
|---------------------------------------------||
|---------------------------------------------||
|----4-----3-------4-----3----4-----3---------||
|-3--2-5-4-1-4--3--2-5-4-1-3--2-5-4-1-4-5-4-5-||
|-1----3-2---2--1----3-2---1----3-2---2-3-2-3-||
     . . .           . . .    . . .   . . . .

END OF SONG
comments
We did not receive enough feedback on this tab! Please rate:
print report bad tab
1 2 3 4 5
I want to post or [tab]
guest
You may want to rate the tab now too:
select rating
Please do not post tabs as comments. Select "correction" instead!