Oops, an error
Loading. Please wait.

Human Waste Tab

ver2
ver2

Whole song

Interactive

More versions @911Tabs.com
31 views 1 this week
no commentswrite comment
1 2 3 4 5
please rate
Autoscroll
+/-
esc
set tempo
stop
Contributor
WARNING: You are trying to view
                                    content from Ultimate-Guitar.com
                                    in an unauthorized application,
                                    which is prohibited.

                                    Please use an official Ultimate
                                    Guitar Tabs application for iPhone,
                                    iPad or Android to access legitimate
                                    chords, guitar, bass, and drum tabs
                                    from Ultimate-Guitar.com database.

                                    Type "ultimate guitar tabs" in Apple
                                    App Store's or Android Market's
                                    search to find the application.
Suffocation - 'Human Waste'
Human Waste (1991)
Roadrunner Records

            
06/04/05
________________________________________________________________________________
Tab Rhythm is hardly perfect so listen to CD. Any comments or corrections can be
e-mailed to above address. 

________________________________________________________________________________
Tuning D G C F A D
                                                           
||--------------------------|----------------------------|
||--------------------------|----------------------------|
||--------------------------|----------------------------|
||--------------------------|----------------------------|
||-----4--3-----3--2--------|--2--2--2-2-2--2--2--2-2-2--|
||--5--------4--------3--2--|--0--0--0-0-0--0--0--0-0-0--|


                                                        
--------------------------|----------------------------|
--------------------------|----------------------------|
--------------------------|----------------------------|
-----------------------5--|----------------------------|
--5-----4-----5--4-----3--|--2--2--2-2-2--2--2--2-2-2--|
--3--0--2--0--3--2--0-----|--0--0--0-0-0--0--0--0-0-0--|


                                                       
-------------------------|----------------------------|
-------------------------|----------------------------|
-------------------------|----------------------------|
-------------------------|----------------------------|
--------------------3----|--2--2--2-2-2--2--2--2-2-2--|
--5--6--3--5--2--3--1----|--0--0--0-0-0--0--0--0-0-0--|


                                                        
--------------------------|----------------------------|
--------------------------|----------------------------|
--------------------------|----------------------------|
-----------------------5--|----------------------------|
--5-----4-----5--4-----3--|--2--2--2-2-2--2--2--2-2-2--|
--3--0--2--0--3--2--0-----|--0--0--0-0-0--0--0--0-0-0--|


                                                       
-------------------------|----------------------------|
-------------------------|----------------------------|
-------------------------|----------------------------|
--------------5--4--3----|----------------------------|
--2--5--4--3-------------|--2--2--2-2-2--2--2--2-2-2--|
-------------------------|--0--0--0-0-0--0--0--0-0-0--|


                                                        
--------------------------|----------------------------|
--------------------------|----------------------------|
--------------------------|----------------------------|
-----------------------5--|----------------------------|
--5-----4-----5--4-----3--|--2--2--2-2-2--2--2--2-2-2--|
--3--0--2--0--3--2--0-----|--0--0--0-0-0--0--0--0-0-0--|


                                                       
-------------------------|----------------------------|
-------------------------|----------------------------|
-------------------------|----------------------------|
-------------------------|----------------------------|
--------------------3----|--2--2--2-2-2--2--2--2-2-2--|
--5--6--3--5--2--3--1----|--0--0--0-0-0--0--0--0-0-0--|


                                                        
--------------------------|----------------------------|
--------------------------|----------------------------|
--------------------------|----------------------------|
-----------------------5--|----------------------------|
--5-----4-----5--4-----3--|--2--2--2-2-2--2--2--2-2-2--|
--3--0--2--0--3--2--0-----|--0--0--0-0-0--0--0--0-0-0--|


                                                             
-------------------------|----------------------------------|
-------------------------|----------------------------------|
-------------------------|----------------------------------|
--------------5--4--3----|----------------------------------|
--2--5--4--3-------------|----------5-5-5-5-----------------|
-------------------------|--2-2-2-2---------2-2-2-2-3-3-3-3-|


                                                                      
----------------------------------|----------------------------------|
----------------------------------|----------------------------------|
----------------------------------|----------------------------------|
----------------------------------|----------------------------------|
----------------------------------|----------------------------------|
--1-1-1-1-4-4-4-4-3-3-3-3-1-1-1-1-|--2-2-2-2-2-2-2-2-3-3-3-3-5-5-5-5-|


                                                                      
----------------------------------|----------------------------------|
----------------------------------|----------------------------------|
----------------------------------|----------------------------------|
----------------------------------|----------------------------------|
----------------------------------|----------5-5-5-5-----------------|
--1-1-1-1-3-3-3-3-4-4-4-4-3-3-3-3-|--2-2-2-2---------2-2-2-2-3-3-3-3-|


                                                                      
----------------------------------|----------------------------------|
----------------------------------|----------------------------------|
----------------------------------|----------------------------------|
----------------------------------|----------------------------------|
----------------------------------|----------------------------------|
--1-1-1-1-4-4-4-4-3-3-3-3-1-1-1-1-|--2-2-2-2-2-2-2-2-3-3-3-3-5-5-5-5-|


                                                                      
----------------------------------|----------------------------------|
----------------------------------|----------------------------------|
----------------------------------|----------------------------------|
----------------------------------|----------------------------------|
----------------------------------|----------5-5-5-5-----------------|
--1-1-1-1-3-3-3-3-4-4-4-4-3-3-3-3-|--2-2-2-2---------2-2-2-2-3-3-3-3-|


                                                                      
----------------------------------|----------------------------------|
----------------------------------|----------------------------------|
----------------------------------|----------------------------------|
----------------------------------|----------------------------------|
----------------------------------|----------------------------------|
--1-1-1-1-4-4-4-4-3-3-3-3-1-1-1-1-|--2-2-2-2-2-2-2-2-3-3-3-3-5-5-5-5-|


                                                          
----------------------------------|----------------------|
----------------------------------|----------------------|
----------------------------------|----------------------|
----------------------------------|-------7--------------|
----------------------------------|--4----5----4----5----|
--1-1-1-1-3-3-3-3-4-4-4-4-3-3-3-3-|--2---------2----3----|


                                                        
----------------------|--------------------------------|
----------------------|--------------------------------|
----------------------|--------------------------------|
----------------------|--------------------------------|
--3----6----5----3----|--------------7--------------6--|
--1----4----3----1----|--5-5-5-5-5-5----4-4-4-4-4-4----|


                                                                               
--------------------------------|----------------------|----------------------|
--------------------------------|----------------------|----------------------|
--------------------------------|----------------------|----------------------|
--------------------------------|-------7--------------|----------------------|
--------------5--------------4--|--4----5----4----5----|--3----6----5----3----|
--3-3-3-3-3-3----2-2-2-2-2-2----|--2---------2----3----|--1----4----3----1----|


                                                                                
--------------------------|-----------------------------|----------------------|
--------------------------|--------------------1-2-1-0--|----------------------|
--------------------------|--------2--1--2--3-----------|----------------------|
--------------------2--1--|--2--3-----------------------|-------7--------------|
--------2--1--2--3--------|-----------------------------|--4----5----4----5----|
--2--3--------------------|-----------------------------|--2---------2----3----|


                                                        
----------------------|--------------------------------|
----------------------|--------------------------------|
----------------------|--------------------------------|
----------------------|--------------------------------|
--3----6----5----3----|--------------7--------------6--|
--1----4----3----1----|--5-5-5-5-5-5----4-4-4-4-4-4----|


                                                                               
--------------------------------|----------------------|----------------------|
--------------------------------|----------------------|----------------------|
--------------------------------|----------------------|----------------------|
--------------------------------|-------7--------------|----------------------|
--------------5--------------4--|--4----5----4----5----|--3----6----5----4----|
--3-3-3-3-3-3----2-2-2-2-2-2----|--2---------2----3----|--1----4----3----2----|


                                                   
-------------------|------------------------------|
-------------------|------------------------------|
-------------------|------------------------------|
-------------------|------------------------------|
--2----------------|------------------------------|
--0----------------|--0-0-0--0-0-0--0-0-0--0-0-0--|


                                                              
------------------------------|------------------------------|
------------------------------|------------------------------|
------------------------------|------------------------------|
------------------------------|------------------------------|
------------------------------|------------------------------|
--0-0-0--0-0-0--0-0-0--0-0-0--|--0-0-0--0-0-0--0-0-0--0-0-0--|


                                                                           
---------------------|---------------------|------------------------------|
---------------------|---------------------|------------------------------|
---------------------|---------------------|------------------------------|
---------------------|---------------------|------------------------------|
--2-3-2-----2--------|--1-2-1-----1--------|------------------------------|
---------3-----3--2--|---------2-----2--1--|--0-0-0--0-0-0--0-0-0--0-0-0--|


                                                              
------------------------------|------------------------------|
------------------------------|------------------------------|
------------------------------|------------------------------|
------------------------------|------------------------------|
------------------------------|------------------------------|
--0-0-0--0-0-0--0-0-0--0-0-0--|--0-0-0--0-0-0--0-0-0--0-0-0--|


                                                                           
---------------------|---------------------|------------------------------|
---------------------|---------------------|------------------------------|
---------------------|---------------------|------------------------------|
---------------------|---------------------|------------------------------|
--2-3-2-----2--------|--1-2-1-----1--------|------------------------------|
---------3-----3--2--|---------2-----2--1--|--0-0-0--0-0-0--0-0-0--0-0-0--|


                                                              
------------------------------|------------------------------|
------------------------------|------------------------------|
------------------------------|------------------------------|
------------------------------|------------------------------|
------------------------------|------------------------------|
--0-0-0--0-0-0--0-0-0--0-0-0--|--0-0-0--0-0-0--0-0-0--0-0-0--|


                                                                           
---------------------|---------------------|------------------------------|
---------------------|---------------------|------------------------------|
---------------------|---------------------|------------------------------|
---------------------|---------------------|------------------------------|
--2-3-2-----2--------|--1-2-1-----1--------|------------------------------|
---------3-----3--2--|---------2-----2--1--|--0-0-0--0-0-0--0-0-0--0-0-0--|


                                                              
------------------------------|------------------------------|
------------------------------|------------------------------|
------------------------------|------------------------------|
------------------------------|------------------------------|
------------------------------|------------------------------|
--0-0-0--0-0-0--0-0-0--0-0-0--|--0-0-0--0-0-0--0-0-0--0-0-0--|


                                                                       
---------------------|---------------------|--------------------------|
---------------------|---------------------|--------------------------|
---------------------|---------------------|--------------------------|
---------------------|---------------------|--------------9--8--7--6--|
--2-3-2-----2--------|--1-2-1-----1--------|--------------------------|
---------3-----3--2--|---------2-----2--1--|--0--0--0--0--------------|


                                                      
--------------------------|--------------------------|
--------------------------|--------------------------|
--------------------------|--------------------------|
--------------------6-----|--------------9--8--7--6--|
-----------------5-----5--|--------------------------|
--0--0--0--0--4-----------|--0--0--0--0--------------|


                                                      
--------------------------|--------------------------|
--------------------------|--------------------------|
--------------------------|--------------------------|
--8--7--6--5--------6-----|--------------9--8--7--6--|
-----------------5-----5--|--------------------------|
--------------4-----------|--0--0--0--0--------------|


                                                      
--------------------------|--------------------------|
--------------------------|--------------------------|
--------------------------|--------------------------|
--------------------6-----|--------------9--8--7--6--|
-----------------5-----5--|--------------------------|
--0--0--0--0--4-----------|--0--0--0--0--------------|


                                                          
--------------------------|------------------------------|
--------------------------|------------------------------|
--------------------------|------------------------------|
--8--7--6--5--------6-----|------------------------------|
-----------------5-----5--|------------------------------|
--------------4-----------|--0-0-0--0-0-0--0-0-0--0-0-0--|


                                                              
------------------------------|------------------------------|
------------------------------|------------------------------|
------------------------------|------------------------------|
------------------------------|------------------------------|
------------------------------|------------------------------|
--0-0-0--0-0-0--0-0-0--0-0-0--|--0-0-0--0-0-0--0-0-0--0-0-0--|


                                                                           
---------------------|---------------------|------------------------------|
---------------------|---------------------|------------------------------|
---------------------|---------------------|------------------------------|
---------------------|---------------------|------------------------------|
--2-3-2-----2--------|--1-2-1-----1--------|------------------------------|
---------3-----3--2--|---------2-----2--1--|--0-0-0--0-0-0--0-0-0--0-0-0--|


                                                              
------------------------------|------------------------------|
------------------------------|------------------------------|
------------------------------|------------------------------|
------------------------------|------------------------------|
------------------------------|------------------------------|
--0-0-0--0-0-0--0-0-0--0-0-0--|--0-0-0--0-0-0--0-0-0--0-0-0--|


                                                                     
---------------------|---------------------|------------------------|
---------------------|---------------------|------------------------|
---------------------|---------------------|------------------------|
---------------------|---------------------|--2----------3----------|
--2-3-2-----2--------|--1-2-1-----1--------|--2----------3----------|
---------3-----3--2--|---------2-----2--1--|--0--0-0-0-0-1--0-0-0-0-|


                                                                   
------------------------|--------------------|--------------------|
------------------------|--------------------|--------------------|
------------------------|--------------------|-----------------3--|
--6----------5----------|--------------------|--3--2--------3-----|
--6----------5----------|-----2--1-----3--2--|--------3--2--------|
--4--0-0-0-0-3--0-0-0-0-|--3--------4--------|--------------------|


                                                                       
------------------------|------------------------|--------------------|
------------------------|------------------------|--------------------|
------------------------|------------------------|--------------------|
--2----------3----------|--6----------5----------|--------------------|
--2----------3----------|--6----------5----------|--------2--1--2--3--|
--0--0-0-0-0-1--0-0-0-0-|--4--0-0-0-0-3--0-0-0-0-|--2--3--------------|


                                                                       
--------------------|------------------------|------------------------|
--------------------|------------------------|------------------------|
--------------------|------------------------|------------------------|
--2--3--2--1--------|--2----------3----------|--6----------5----------|
--------------3--2--|--2----------3----------|--6----------5----------|
--------------------|--0--0-0-0-0-1--0-0-0-0-|--4--0-0-0-0-3--0-0-0-0-|


                                                                   
--------------------|--------------------|------------------------|
--------------------|--------------------|------------------------|
--------------------|-----------------3--|------------------------|
--------------------|--3--2--------3-----|--2----------3----------|
-----2--1-----3--2--|--------3--2--------|--2----------3----------|
--3--------4--------|--------------------|--0--0-0-0-0-1--0-0-0-0-|


                                                                   
------------------------|--------------------|--------------------|
------------------------|--------------------|--------------------|
------------------------|--------------------|--------------------|
--6----------5----------|--------------------|--2--3--2--1--------|
--6----------5----------|--------2--1--2--3--|--------------3--2--|
--4--0-0-0-0-3--0-0-0-0-|--2--3--------------|--------------------|


                                                                       
------------------------|------------------------|--------------------|
------------------------|------------------------|--------------------|
------------------------|------------------------|--------------------|
--2----------3----------|--6----------5----------|--------------------|
--2----------3----------|--6----------5----------|-----2--1-----3--2--|
--0--0-0-0-0-1--0-0-0-0-|--4--0-0-0-0-3--0-0-0-0-|--3--------4--------|


                                                                       
--------------------|------------------------|------------------------|
--------------------|------------------------|------------------------|
-----------------3--|------------------------|------------------------|
--3--2--------3-----|--2----------3----------|--6----------5----------|
--------3--2--------|--2----------3----------|--6----------5----------|
--------------------|--0--0-0-0-0-1--0-0-0-0-|--4--0-0-0-0-3--0-0-0-0-|


                                                                             
--------------------|--------------------|----------------------------------|
--------------------|--------------------|----------------------------------|
--------------------|--------------------|----------------------------------|
--------------------|--2--3--2--1--------|----------------------------------|
--------2--1--2--3--|--------------3--2--|----------------------------------|
--2--3--------------|--------------------|--0-0-0-0-0-0-0-0-0-0-0-0-0-0-0-0-|


                                                                
----------------------------|----------------------------------|
----------------------------|----------------------------------|
----------------------------|----------------------------------|
----------------------------|----------------------------------|
----------------------3-----|----------------------------------|
--0-0-0--0-0-0--2--3-----1--|--0-0-0-0-0-0-0-0-0-0-0-0-0-0-0-0-|


                                                           
----------------------------|-----------------------------|
----------------------------|-----------------------------|
----------------------------|-----------------------------|
----------------------------|-----------------------------|
----------------------3-----|--4-4-4-4-4-4-4-4-4--5--3----|
--0-0-0--0-0-0--2--3-----1--|--2-2-2-2-2-2-2-2-2--3--1----|


                                                                 
-----------------------------|----------------------------------|
-----------------------------|----------------------------------|
-----------------------------|----------------------------------|
-----------------------------|----------------------------------|
--4-4-4-4-4-4-4-4-4--5--3----|----------------------------------|
--2-2-2-2-2-2-2-2-2--3--1----|--0-0-0-0-0-0-0-0-0-0-0-0-0-0-0-0-|


                                                                
----------------------------|----------------------------------|
----------------------------|----------------------------------|
----------------------------|----------------------------------|
----------------------------|----------------------------------|
----------------------3-----|----------------------------------|
--0-0-0--0-0-0--2--3-----1--|--0-0-0-0-0-0-0-0-0-0-0-0-0-0-0-0-|


                                                           
----------------------------|-----------------------------|
----------------------------|-----------------------------|
----------------------------|-----------------------------|
----------------------------|-----------------------------|
----------------------3-----|--4-4-4-4-4-4-4-4-4--5--3----|
--0-0-0--0-0-0--2--3-----1--|--2-2-2-2-2-2-2-2-2--3--1----|


                                                                 
-----------------------------|----------------------------------|
-----------------------------|----------------------------------|
-----------------------------|----------------------------------|
-----------------------------|----------------------------------|
--4-4-4-4-4-4-4-4-4--5--3----|----------------------------------|
--2-2-2-2-2-2-2-2-2--3--1----|--0-0-0-0-0-0-0-0-0-0-0-0-0-0-0-0-|


                                                                
----------------------------|----------------------------------|
----------------------------|----------------------------------|
----------------------------|----------------------------------|
----------------------------|----------------------------------|
----------------------3-----|----------------------------------|
--0-0-0--0-0-0--2--3-----1--|--0-0-0-0-0-0-0-0-0-0-0-0-0-0-0-0-|


                                                           
----------------------------|-----------------------------|
----------------------------|-----------------------------|
----------------------------|-----------------------------|
----------------------------|-----------------------------|
----------------------3-----|--4-4-4-4-4-4-4-4-4--5--3----|
--0-0-0--0-0-0--2--3-----1--|--2-2-2-2-2-2-2-2-2--3--1----|


                                                            
-----------------------------|-----------------------------|
-----------------------------|-----------------------------|
-----------------------------|-----------------------------|
-----------------------------|-----------------------------|
--4-4-4-4-4-4-4-4-4--5--3----|--5-5-5-5-5-5-5-5-4--3--4----|
--2-2-2-2-2-2-2-2-2--3--1----|--3-3-3-3-3-3-3-3-2--1--2----|


                                                            
-----------------------------|-----------------------------|
-----------------------------|-----------------------------|
-----------------------------|-----------------------------|
-----------------------------|-----------------------------|
--5-5-5-5-5-5-5-5-4--3--4----|--4-4-4-4-4-4-4-4-4--5--3----|
--3-3-3-3-3-3-3-3-2--1--2----|--2-2-2-2-2-2-2-2-2--3--1----|


                                                            
-----------------------------|-----------------------------|
-----------------------------|-----------------------------|
-----------------------------|-----------------------------|
-----------------------------|-----------------------------|
--4-4-4-4-4-4-4-4-4--5--3----|--5-5-5-5-5-5-5-5-4--3--4----|
--2-2-2-2-2-2-2-2-2--3--1----|--3-3-3-3-3-3-3-3-2--1--2----|


                                                                            
-----------------------------|----------------------|----------------------|
-----------------------------|----------------------|----------------------|
-----------------------------|----------------------|----------------------|
-----------------------------|----------------------|----------------------|
--5-5-5-5-5-5-5-5-4--3--4----|--3----3----3----3----|--3----3----3----3----|
--3-3-3-3-3-3-3-3-2--1--2----|--1----1----1----1----|--1----1----1----1----|


                                                          
------------------------------|--------------------------|
------------------------------|--------------------------|
------------------------------|-----------------4--5--4--|
------------------------------|-----4--5--4--3-----------|
------------------4-----3-----|--2-----------------------|
--1-1-1-1-1-1-1-1----1-----1--|--------------------------|


                                                          
------------------------------|--------------------------|
------------------------------|--------------------------|
------------------------------|-----------------4--5--4--|
------------------------------|-----4--5--4--3-----------|
------------------4-----3-----|--2-----------------------|
--1-1-1-1-1-1-1-1----1-----1--|--------------------------|


                                                          
------------------------------|--------------------------|
------------------------------|--------------------------|
------------------------------|--------------------------|
------------------5-----4-----|-----------4--3-----------|
------------------3-----2-----|--4--5--4--2--1--4--3--2--|
--0-0-0-0-0-0-0-0----0-----0--|--2--3--2--------2--1--0--|


                                                          
------------------------------|--------------------------|
------------------------------|--------------------------|
------------------------------|--------------------------|
------------------5-----4-----|-----------4--3-----------|
------------------3-----2-----|--4--5--4--2--1--4--3--2--|
--0-0-0-0-0-0-0-0----0-----0--|--2--3--2--------2--1--0--|


                                                          
------------------------------|--------------------------|
------------------------------|-----------------3--4--3--|
------------------------------|-----2--3--2--1--4--5--4--|
------------------------------|--0--4--5--4--3-----------|
------------------4-----3-----|--2-----------------------|
--1-1-1-1-1-1-1-1----1-----1--|--------------------------|


                                                          
------------------------------|--------------------------|
------------------------------|-----------------3--4--3--|
------------------------------|-----2--3--2--1--4--5--4--|
------------------------------|--0--4--5--4--3-----------|
------------------4-----3-----|--2-----------------------|
--1-1-1-1-1-1-1-1----1-----1--|--------------------------|


                                                          
------------------------------|--------------------------|
------------------------------|--------------------------|
------------------------------|--------------------------|
------------------5-----4-----|-----------4--3-----------|
------------------3-----2-----|--4--5--4--2--1--4--3--2--|
--0-0-0-0-0-0-0-0----0-----0--|--2--3--2--------2--1--0--|


                                                          
------------------------------|--------------------------|
------------------------------|--------------------------|
------------------------------|--------------------------|
------------------5-----4-----|-----------4--3-----------|
------------------3-----2-----|--4--5--4--2--1--4--3--2--|
--0-0-0-0-0-0-0-0----0-----0--|--2--3--2--------2--1--0--|


                                                                      
----------------------------------|----------------------------------|
----------------------------------|----------------------------------|
----------------------------------|----------------------------------|
----------------------------------|----------------------------------|
----------5-5-5-5-----------------|----------------------------------|
--2-2-2-2---------2-2-2-2-3-3-3-3-|--1-1-1-1-4-4-4-4-3-3-3-3-1-1-1-1-|


                                                                      
----------------------------------|----------------------------------|
----------------------------------|----------------------------------|
----------------------------------|----------------------------------|
----------------------------------|----------------------------------|
----------------------------------|----------------------------------|
--2-2-2-2-2-2-2-2-3-3-3-3-5-5-5-5-|--1-1-1-1-3-3-3-3-4-4-4-4-3-3-3-3-|


                                                                      
----------------------------------|----------------------------------|
----------------------------------|----------------------------------|
----------------------------------|----------------------------------|
----------------------------------|----------------------------------|
----------5-5-5-5-----------------|----------------------------------|
--2-2-2-2---------2-2-2-2-3-3-3-3-|--1-1-1-1-4-4-4-4-3-3-3-3-1-1-1-1-|


                                                                      
----------------------------------|----------------------------------|
----------------------------------|----------------------------------|
----------------------------------|----------------------------------|
----------------------------------|----------------------------------|
----------------------------------|----------------------------------|
--2-2-2-2-2-2-2-2-3-3-3-3-5-5-5-5-|--1-1-1-1-3-3-3-3-4-4-4-4-3-3-3-3-|


                                                                      
----------------------------------|----------------------------------|
----------------------------------|----------------------------------|
----------------------------------|----------------------------------|
----------------------------------|----------------------------------|
----------5-5-5-5-----------------|----------------------------------|
--2-2-2-2---------2-2-2-2-3-3-3-3-|--1-1-1-1-4-4-4-4-3-3-3-3-1-1-1-1-|


                                                                      
----------------------------------|----------------------------------|
----------------------------------|----------------------------------|
----------------------------------|----------------------------------|
----------------------------------|----------------------------------|
----------------------------------|----------------------------------|
--2-2-2-2-2-2-2-2-3-3-3-3-5-5-5-5-|--1-1-1-1-3-3-3-3-4-4-4-4-3-3-3-3-|


                                                        
----------------------------|--------------------------|
----------------------------|--------------------------|
----------------------------|--------------------------|
----------------------------|-----------------------5--|
--2--2--2-2-2--2--2--2-2-2--|--5-----4-----5--4-----3--|
--0--0--0-0-0--0--0--0-0-0--|--3--0--2--0--3--2--0-----|


                                                       
----------------------------|-------------------------|
----------------------------|-------------------------|
----------------------------|-------------------------|
----------------------------|-------------------------|
--2--2--2-2-2--2--2--2-2-2--|--------------------3----|
--0--0--0-0-0--0--0--0-0-0--|--5--6--3--5--2--3--1----|


                                                        
----------------------------|--------------------------|
----------------------------|--------------------------|
----------------------------|--------------------------|
----------------------------|-----------------------5--|
--2--2--2-2-2--2--2--2-2-2--|--5-----4-----5--4-----3--|
--0--0--0-0-0--0--0--0-0-0--|--3--0--2--0--3--2--0-----|


                                                                    
----------------------------|-------------------------|-----------||
----------------------------|-------------------------|-----------||
----------------------------|-------------------------|-----------||
----------------------------|--------------5--4--3----|-----------||
--2--2--2-2-2--2--2--2-2-2--|--2--5--4--3-------------|--2--------||
--0--0--0-0-0--0--0--0-0-0--|-------------------------|--0--------||

End.
comments
We did not receive enough feedback on this tab! Please rate:
print report bad tab
1 2 3 4 5
I want to post or [tab]
guest
You may want to rate the tab now too:
select rating
Please do not post tabs as comments. Select "correction" instead!