Oops, an error
Loading. Please wait.

Jesus Wept Tab

ver1
ver1

Whole song

Interactive

More versions @911Tabs.com
3,678 views 6 this week
1 commentread comment
1 2 3 4 5
worth learning
x 2
Autoscroll
+/-
esc
set tempo
stop
Contributor
WARNING: You are trying to view
                                    content from Ultimate-Guitar.com
                                    in an unauthorized application,
                                    which is prohibited.

                                    Please use an official Ultimate
                                    Guitar Tabs application for iPhone,
                                    iPad or Android to access legitimate
                                    chords, guitar, bass, and drum tabs
                                    from Ultimate-Guitar.com database.

                                    Type "ultimate guitar tabs" in Apple
                                    App Store's or Android Market's
                                    search to find the application.
Tuning: C

 |                           Guitar 1                           |
e|--------------------|--------------------|----------------------|
B|--------------------|--------------------|----------------------|
G|---------------4/5--|--------------------|---------------4/5----|
D|---------3-4---2/3--|---------6-5---87--|---------3-4---2/3-----|
A|--2------1-2-2------|--2------4-3-2-65--|--2------1-2-2---------|
E|--0-0000-----0------|--0-0000-----0------|--0-0000-----0--------|
 |    ....                 ....                 ....            |
 |                           Guitar 2                           |
e|--------------------|--------------------|--------------------|
B|--------------------|--------------------|--------------------|
G|--------------------|--------------------|--------------------|
D|--------------------|--------------------|--------------------|
A|--------------------|--------------------|--------------------|
E|--------------------|--------------------|--------------------|

e|--------------------|--------------------|----------------------|
B|--------------------|--------------------|----------------------|
G|--------------------|---------------4/5--|----------------------|
D|---------6-5--------|---------3-4---2/3--|---------6-5---87-----|
A|--2------3-3-2->6<--|--2------1-2-2------|--2------4-3-2-65-----|
E|--0-0000-----0------|--0-0000-----0------|--0-0000-----0--------|
 |    ....                 ....                 ....            |
 |                           Guitar 2                           |
e|--------------------|--------------------|--------------------|
B|--------------------|--------------------|--------------------|
G|--------------------|---------------4-5--|--------------------|
D|--------------------|---------3-4---2-3--|---------6-5---8-7--|
A|--------------------|---------1-2--------|---------4-3---6-5--|
E|--------------------|--------------------|--------------------|

                   Guitar 1               |
e|--------------------|-------------------|
B|--------------------|-------------------|
G|---------------4/5--|--3----------------|
D|---------3-4---2/3--|----2---3----------|
A|--2------1-2-2------|------2---2--->4<--|
E|--0-0000-----0------|------------1------|
 |    ....                                |
 |                 Guitar 2               |
e|--------------------|-------------------|
B|--------------------|-------------------|
G|---------------4-5--|-------------------|
D|---------3-4---2-3--|-------------------|
A|---------1-2--------|-------------------|
E|--------------------|-------------------|

e|--------------------|--------------------|----------------------|
B|--------------------|--------------------|----------------------|
G|---------------4/5--|--------------------|---------------4/5----|
D|---------3-4---2/3--|---------6-5---87--|---------3-4---2/3-----|
A|--2------1-2-2------|--2------3-3-2-65--|--2------1-2-2---------|
E|--0-0000-----0------|--0-0000-----0------|--0-0000-----0--------|
      ....                 ....                 ....

e|--------------------|--------------------|----------------------|
B|--------------------|--------------------|----------------------|
G|--------------------|---------------4/5--|----------------------|
D|---------6-5--------|---------3-4---2/3--|---------6-5---87-----|
A|--2------4-3-2->6<--|--2------1-2-2------|--2------4-3-2-65-----|
E|--0-0000-----0------|--0-0000-----0------|--0-0000-----0--------|
      ....                 ....                 ....

e|--------------------|-------------------|
B|--------------------|-------------------|
G|---------------4/5--|--7^---------------|
D|---------3-4---2/3--|-----6---7---------|
A|--2------1-2-2------|-------6---6---5^--|
E|--0-0000-----0------|-------------7-----|
      ....


e|--------------------------------------|----------------------------------|
B|--------------------------------------|----------------------------------|
G|-------------4------------4------4-5--|---------4------------4------4-5--|
D|--222222-5-4---222222-5-4---3333------|--222222-5-4---222222-5-4---3333--|
A|--------------------------------------|----------------------------------|
E|--------------------------------------|----------------------------------|
    ......       ......       ....         ......       ......       ....

e|--------------------------------------|----------------------------------|
B|--------------------------------------|----------------------------------|
G|-------------2------------2------2-3--|---------2------------2------2-3--|
D|--000000-3-2---000000-3-2---1111------|--000000-3-2---000000-3-2---1111--|
A|--------------------------------------|----------------------------------|
E|--------------------------------------|----------------------------------|
    ......       ......       ....         ......       ......       ....


e|--------------------------------------|---------------------------------|
B|--------------------------------------|---------------------------------|
G|--------------------------------------|---------------------------------|
D|---------------------------------4-3--|---------------------------------|
A|---------------------------------2-1--|---------------------------------|
E|--000000000000000000000000-3-2-1------|--00000000000000000000--3-2-0-2--|
    ........................               ....................

e|-----------------------------------------|--------------------|
B|-----------------------------------------|--------------------|
G|-----------------------------------------|--------------------|
D|-----------------------------------3--2--|--------------------|
A|-----------------------------------1--0--|--------------------|
E|--000000000000000000000000-3-2-0-2-------|--3-2-0-2--0-1-2-1--|
    ........................


e|--------------------------------------|---------------------------------|
B|--------------------------------------|---------------------------------|
G|--------------------------------------|---------------------------------|
D|---------------------------------4-3--|---------------------------------|
A|---------------------------------2-1--|---------------------------------|
E|--000000000000000000000000-3-2-1------|--00000000000000000000--3-2-0-2--|
    ........................               ....................

e|-----------------------------------------|--------------------|
B|-----------------------------------------|--------------------|
G|-----------------------------------------|--------------------|
D|-----------------------------------3--2--|--------------------|
A|-----------------------------------1--0--|--1-----------------|
E|--000000000000000000000000-3-2-0-2-------|----3-2-1--0-1-2-1--|
    ........................

e|------------------|--------------------|------------------|--------------|
B|------------------|--------------------|------------------|--------------|
G|---------------4--|--------------------|---------------4--|--------------|
D|--2222-5-4-2-3----|--------------------|--2222-5-4-2-3----|1111-3-4-3-1-2|
A|------------------|--3333-5-6-5-3-5h6--|------------------|--------------|
E|------------------|--------------------|------------------|--------------|
    ....               ....                 ....               ....

e|------------------|--------------------|------------------|--------------|
B|------------------|--------------------|------------------|--------------|
G|---------------4--|--------------------|---------------4--|--------------|
D|--2222-5-4-2-3----|--1111-3-4-3-0-1h2--|--2222-5-4-2-3----|1111-3-4-3-1-2|
A|------------------|--------------------|------------------|--------------|
E|------------------|--------------------|------------------|--------------|
    ....               ....                 ....               ....


 |                     Guitar 1                      |
e|-----------|---------------|-----------|-----------|
B|-----------|---------------|-----------|-----------|
G|--9--9--9--|--10--10--10---|--9--9--9--|--8--8--8--|
D|--9--9--9--|--10--10--10---|--9--9--9--|--8--8--8--|
A|--7--7--7--|---8---8---8---|--7--7--7--|--6--6--6--|
E|-----------|---------------|-----------|-----------|
 |                     Guitar 2                      |
e|-----------|---------------|-----------|-----------|
B|------8-8--|--------9------|------8-8--|------7-7--|
G|------9-9--|------10-10----|------9-9--|------8-8--|
D|----9-9-9--|----10-----10--|----9-9-9--|----8-8-8--|
A|--7--------|--8------------|--7--------|--6--------|
E|-----------|---------------|-----------|-----------|

 |                     Guitar 1                      |
e|-----------|---------------|-----------|-----------|
B|-----------|---------------|-----------|-----------|
G|--9--9--9--|--10--10--10---|--9--9--9--|-----------|
D|--9--9--9--|--10--10--10---|--9--9--9--|--8--8--8--|
A|--7--7--7--|---8---8---8---|--7--7--7--|--8--8--8--|
E|-----------|---------------|-----------|--6--6--6--|
 |                     Guitar 2                      |
e|-----------|---------------|-----------|-----------|
B|------8-8--|--------9------|------8-8--|-----------|
G|------9-9--|------10-10----|------9-9--|-----------|
D|----9-9-9--|----10-----10--|----9-9-9--|-----------|
A|--7--------|--8------------|--7--------|-----------|
E|-----------|---------------|-----------|-----------|


 |                     Guitar 1                      |
e|-----------|---------------|-----------|-----------|
B|-----------|---------------|-----------|-----------|
G|--9--9--9--|--10--10--10---|--9--9--9--|--8--8--8--|
D|--9--9--9--|--10--10--10---|--9--9--9--|--8--8--8--|
A|--7--7--7--|---8---8---8---|--7--7--7--|--6--6--6--|
E|-----------|---------------|-----------|-----------|
 |                     Guitar 2                      |
e|-----------|---------------|-----------|-----------|
B|------8-8--|--------9------|------8-8--|------7-7--|
G|------9-9--|------10-10----|------9-9--|------8-8--|
D|----9-9-9--|----10-----10--|----9-9-9--|----8-8-8--|
A|--7--------|--8------------|--7--------|--6--------|
E|-----------|---------------|-----------|-----------|

 |                     Guitar 1                      |
e|-----------|---------------|-----------|-----------|
B|-----------|---------------|-----------|-----------|
G|--9--9--9--|--10--10--10---|--9--9--9--|-----------|
D|--9--9--9--|--10--10--10---|--9--9--9--|--9--9--9--|
A|--7--7--7--|---8---8---8---|--7--7--7--|--9--9--9--|
E|-----------|---------------|-----------|--7--7--7--|
 |                     Guitar 2                      |
e|-----------|---------------|-----------|-----------|
B|------8-8--|--------9------|------8-8--|-----------|
G|------9-9--|------10-10----|------9-9--|-----------|
D|----9-9-9--|----10-----10--|----9-9-9--|-----------|
A|--7--------|--8------------|--7--------|-----------|
E|-----------|---------------|-----------|-----------|

e|-----------------------------------|
B|-----------------------------------|
G|--9---9---10---10---9---9---8------|
D|--9---9---10---10---9---9---8------|
A|--7---7----8----8---7---7---6------|
E|------------------------------7-6--|

 |                 Guitar 1                   |
e|-----------|-----------|--------------------|
B|-----------|-----------|--------------------|
G|--9---9----|--10---10--|--9-------8---------|
D|--9---9----|--10---10--|--9-------8---------|
A|--7---7----|---8----8--|--7-------6---------|
E|-----------|-----------|----8-8-8----7-7-7--|
 |                 Guitar 2                   |
e|-----------|-----------|--------------------|
B|------8-8--|-----9--9--|--------------------|
G|------9-9--|----10-10--|--------------------|
D|----9-9-9--|----10-10--|--------------------|
A|--7--------|--8--------|--------------------|
E|-----------|-----------|--------------------|


e|-----------------------------------|
B|-----------------------------------|
G|--9---9---10---10---9---9---8------|
D|--9---9---10---10---9---9---8------|
A|--7---7----8----8---7---7---6------|
E|------------------------------7-6--|

 |                   Guitar 1                    |
e|-----------|-----------|-----------------------|
B|-----------|-----------|-----------------------|
G|--9---9----|--10---10--|--9---------8----------|
D|--9---9----|--10---10--|--9---------8----------|
A|--7---7----|---8----8--|--7---------6----------|
E|-----------|-----------|----8-8-8-8---7-7-7-7--|
 |                   Guitar 2                    |
e|-----------|-----------|-----------------------|
B|------8-8--|-----9--9--|-----------------------|
G|------9-9--|----10-10--|-----------------------|
D|----9-9-9--|----10-10--|-----------------------|
A|--7--------|--8--------|-----------------------|
E|-----------|-----------|-----------------------|


e|---------------|---------------|---------------|---------------|
B|---------------|---------------|---------------|---------------|
G|---------------|---------------|---------------|---------------|
D|--8---8---7----|--8---8---9----|--8---8---7----|--8---8---9----|
A|--6---6---5----|--6---6---7----|--6---6---5----|--6---6---7----|
E|----7---7---6--|----7---7---8--|----7---7---6--|----7---7---8--|
    . . . . . .     . . . . . .     . . . . . .     . . . . . .

e|---------------------|---------------------|
B|---------------------|---------------------|
G|---------------------|---------------------|
D|---------------------|---------------------|
A|------8---7---7-7-6--|------8---7---7-7-6--|
E|--0-5---5---x-5-5-4--|--0-5---5---x-5-5-4--|
    . .   .               . .   .


e|---------------|---------------|---------------|---------------|
B|---------------|---------------|---------------|---------------|
G|---------------|---------------|---------------|---------------|
D|--8---8---7----|--8---8---9----|--8---8---7----|--8---8---9----|
A|--6---6---5----|--6---6---7----|--6---6---5----|--6---6---7----|
E|----7---7---6--|----7---7---8--|----7---7---6--|----7---7---8--|
    . . . . . .     . . . . . .     . . . . . .     . . . . . .

e|---------------------|----------------------------|
B|---------------------|----------------------------|
G|---------------------|----------------------------|
D|---------------------|----------------------------|
A|------8---7---7-7-6--|------8---7---7-7-6--4-4-3--|
E|--0-5---5---x-5-5-4--|--0-5---5---x-5-5-4--2-2-1--|
    . .   .               . .   .


e|---------------------------------|--------------------------------------|
B|---------------------------------|--------------------------------------|
G|---------------------------------|--------------------------------------|
D|---------------------------------|-----------------------------4-3------|
A|----5---6---7---6---5------------|---------4--------4--------3-----4-3--|
E|--4---4---4---4---4---4-7-4-6-4--|--111111---333333---222222------------|


e|---------------------------------|--------------------------------------|
B|---------------------------------|--------------------------------------|
G|---------------------------------|--------------------------------------|
D|---------------------------------|--------------------------------------|
A|----5---6---7---6---5------------|---------4--------4----------4-3------|
E|--4---4---4---4---4---4-7-4-6-4--|--111111---333333---222222-5-----4-3--|


e|-----------------|-------------------------|
B|-----------------|-------------------------|
G|-----------------|-------------------------|
D|------------4p3--|-------------------------|
A|----3---4--------|----3---4---4---5---3----|
E|--2---2---2------|--2---2---2---2---2---2--|

e|---------------------------------------|
B|---------------------------------------|
G|---------------------------------------|
D|---------------------------------------|
A|---------3--------2--------5--------4--|
E|--111111---000000---333333---222222----|
    ...... . ...... . ...... . ...... .


e|-----------------|-------------------------|
B|-----------------|-------------------------|
G|-----------------|-------------------------|
D|------------4p3--|-------------------------|
A|----3---4--------|----3---4---4---5---3----|
E|--2---2---2------|--2---2---2---2---2---2--|

e|-----------------------------------------|
B|-----------------------------------------|
G|-----------------------------------------|
D|--3-4-----------------3-4----------------|
A|------4-3---5-4-7-6-------4-3---4-3------|
E|------------------------------------4-3--|

e|-----------------|-------------------------|
B|-----------------|-------------------------|
G|-----------------|-------------------------|
D|------------4p3--|-------------------------|
A|----3---4--------|----3---4---4---5---3----|
E|--2---2---2------|--2---2---2---2---2---2--|

e|---------------------------------------|
B|---------------------------------------|
G|---------------------------------------|
D|---------------------------------------|
A|---------3--------2--------5--------4--|
E|--111111---000000---333333---222222----|
    ...... . ...... . ...... . ...... .


e|-----------------|-------------------------|
B|-----------------|-------------------------|
G|-----------------|-------------------------|
D|------------4p3--|-------------------------|
A|----3---4--------|----3---4---4---5---3----|
E|--2---2---2------|--2---2---2---2---2---2--|

e|-----------------------------------------|
B|-----------------------------------------|
G|-----------------------------------------|
D|-----------------------------------------|
A|--3-4-------5-4-7-6-------------4-3------|
E|------4-3-------------4-5-1-2-------4-3--|


e|-----|--------|--------|
B|-----|--------|--------|
G|-----|--------|--------|
D|--3--|--4--3--|--2--3--|
A|--3--|--4--3--|--2--3--|
E|--1--|--2--1--|--0--1--|

e|-----------------------------------|-------------------|-----------------|
B|-----------------------------------|-------------------|-----------------|
G|-----------------------------------|-------------------|-----------------|
D|------3-----4-----3-----4-----2-1--|----------1-0------|-----------------|
A|------1-----2-----1-----2----------|--2-4---------2-1--|--2-4-------3-2--|
E|--2-2---2-2---2-2---2-2---2-2------|------4-3----------|------4-3-2-----4|
    . . . . . . . . . . . . . . . .     . . . . . . . .     . . . . . . . .


e|-----|--------|--------|
B|-----|--------|--------|
G|-----|--------|--------|
D|--3--|--4--3--|--2--3--|
A|--3--|--4--3--|--2--3--|
E|--1--|--2--1--|--0--1--|

e|---------------------------------|-------------------------------|
B|---------------------------------|-------------------------------|
G|---------------------------------|-------------------------------|
D|---------------------------------|-------------------------------|
A|----5---6---7---6---5------------|--444444-777777-666666-999999--|
E|--4---4---4---4---4---4-7-4-6-4--|--222222-555555-444444-777777--|

e|---------------------------------|-------------------------------|
B|---------------------------------|-------------------------------|
G|---------------------------------|-------------------------------|
D|---------------------------------|-------------------------------|
A|----5---6---7---6---5------------|--444444-777777-666666-222222--|
E|--4---4---4---4---4---4-7-4-6-4--|--222222-555555-444444-000000--|


e|-----------------|-------------------------|-----------------------------|
B|-----------------|-------------------------|-----------------------------|
G|-----------------|-------------------------|-----------------------------|
D|------------4p3--|-------------------------|-----------------------------|
A|----3---4--------|----3---4---4---5---3----|--444444-777777-666666-999999|
E|--2---2---2------|--2---2---2---2---2---2--|--222222-555555-444444-777777|

e|-----------------|-------------------------|-----------------------------|
B|-----------------|-------------------------|-----------------------------|
G|-----------------|-------------------------|-----------------------------|
D|------------4p3--|-------------------------|-----------------------------|
A|----3---4--------|----3---4---4---5---3----|--444444-777777-666666-222222|
E|--2---2---2------|--2---2---2---2---2---2--|--222222-555555-444444-000000|

e|-----------------|-------------------------|-----------------------------|
B|-----------------|-------------------------|-----------------------------|
G|-----------------|-------------------------|-----------------------------|
D|------------4p3--|-------------------------|-----------------------------|
A|----3---4--------|----3---4---4---5---3----|--444444-777777-666666-999999|
E|--2---2---2------|--2---2---2---2---2---2--|--222222-555555-444444-777777|


e|-----------------|-------------------------|
B|-----------------|-------------------------|
G|-----------------|-------------------------|
D|------------4p3--|-------------------------|
A|----3---4--------|----3---4---4---5---3----|
E|--2---2---2------|--2---2---2---2---2---2--|

e|-----------------------------------------|
B|-----------------------------------------|
G|-----------------------------------------|
D|-----------------------------------------|
A|--3-4-------5-4-7-6-------------4-3------|
E|------4-3-------------4-5-1-2-------4-3--|


e|-----|--------|--------|
B|-----|--------|--------|
G|-----|--------|--------|
D|--3--|--4--3--|--2--3--|
A|--3--|--4--3--|--2--3--|
E|--1--|--2--1--|--0--1--|

*Legend*
~  : vibrato
^  : bend
.  : palm mute
r  : release
t  : trill
p  : pull-off
h  : hammer-on
x  : ghost note
/  : slide up
  : slide down
>< : pinch harmonics
comments
We did not receive enough feedback on this tab! Please rate:
print report bad tab
1 2 3 4 5
1 comment total.
0 reply
DeathzMetal666 wrote on October 31 2008, 11:35 am

i've changed my mind lol
i think its really accurate, last time i didnt check this tab so deep
as i do now, so 5 stars :)

I want to post or [tab]
guest
You may want to rate the tab now too:
select rating
Please do not post tabs as comments. Select "correction" instead!