Oops, an error
Loading. Please wait.

Thrones Of Blood Tab

ver2
ver2

Whole song

More versions @911Tabs.com
124 views 1 this week
no commentswrite comment
1 2 3 4 5
please rate
Autoscroll
+/-
esc
set tempo
stop
Contributor
WARNING: You are trying to view
                                    content from Ultimate-Guitar.com
                                    in an unauthorized application,
                                    which is prohibited.

                                    Please use an official Ultimate
                                    Guitar Tabs application for iPhone,
                                    iPad or Android to access legitimate
                                    chords, guitar, bass, and drum tabs
                                    from Ultimate-Guitar.com database.

                                    Type "ultimate guitar tabs" in Apple
                                    App Store's or Android Market's
                                    search to find the application.
THRONES OF BLOOD 
                           As recorded by Suffocation 
                    (From the 1995 Album PIERCED FROM WITHIN) 
                       Copyright 1995 Roadrunner Records 

Arranged by Suffocation 
Transcribed by Steve Rubaszek, helped by a tab done by Mike Gilbert 
Version 1.0 - I forget.... mid October 2005 


Gtr I (C# F# B E G# C#) - 'Terrence Hobbs' 
Gtr II (C# F# B E G# C#) - 'Doug Cerrito' 


 0:00 
  Q=135 
 5/4 
  Gtrs I, II 
|-------------------|-------------------|-------------------|-----------------| 
|-------------------|-------------------|-------------------|-----------------| 
|-------------------|-------------------|-------------------|-----------------| 
|-4------4---4------|-4------4---5------|-4------4---4------|-4------4---5----| 
|---5-3----5---5-3--|---5-3----5---5-3--|---5-3----5---5-3--|---5-3----5------| 
|-----1----------1--|-----1----------1--|-----1----------1--|-----1-----------| 


 8/4 
  Gtr I 
                        PM--| 
|-----------------------------|-------------------------------| 
|-----------------------------|-------------------------------| 
|-----------------------------|-------------------------------| 
|-2h4-2h4-3--2h4-2h4-3--5-1-5-|-2h=4-2h4-3--2h4-2h4-5-4-1-4-1-| 
|-2h4-2h4-3--2h4-2h4-3--5-1-5-|-2h=4-2h4-3--2h4-2h4-5-4-1-4-1-| 
|-----------------------3---3-|---------------------3-2---2---| 
| 
| Gtr II 
|                       PM--| 
|-----------------------------|-------------------------------| 
|-----------------------------|-------------------------------| 
|-----------------------------|-------------------------------| 
|-4---------------------5-1-5-|---------------------5-4-1-4-1-| 
|-4---------------------5-1-5-|-4\------------------5-4-1-4-1-| 
|-2---------------------3---3-|-2\------------------3-2---2---| 


  Gtr I 
                        PM--|              PM         PM----| 
|-----------------------------|-------------------------------| 
|-----------------------------|-------------------------------| 
|-----------------------------|-------------------------------| 
|-2h4-2h4-3--2h4-2h4-3--5-1-5-|-2h=4-2h4-5-----5---3----------| 
|-2h4-2h4-3--2h4-2h4-3--5-1-5-|-2h=4-2h4-3-5---3-5-3--4-3-2-3-| 
|-----------------------3---3-|------------3-----3-1--2-1-0-1-| 
| 
| Gtr II 
|                       PM--|              PM         PM----| 
|-----------------------------|-------------------------------| 
|-----------------------------|-------------------------------| 
|-----------------------------|-------------------------------| 
|-4---------------------5-1-5-|----------5-----5---3----------| 
|-4---------------------5-1-5-|-4\-------3-5---3-5-3--4-3-2-3-| 
|-2---------------------3---3-|-2\---------3-----3-1--2-1-0-1-| 


   0:23 
    Gtrs I, II 
              PM          PM  PM  PM            PM          PM  PM  PM 
||----------------------------------|-----------------------------------|| 
||o---------------------------------|----------------------------------o|| 
||----------------------------------|-----------------------------------|| 
||--2h4-2h4-3---2h4-2h4-3---2---3---|-2h4-2h4-3---2h4-2h4-3---2---3-----|| 
||o-2h4-2h4-3-4-2h4-2h4-3-4-2-4-3-4-|-2h4-2h4-3-4-2h4-2h4-3-4-2-4-3-4--o|| 
||------------4-----------4---4---4-|-----------4-----------4---4---4---|| 


                      PM------------------| 
||------------------------------------------| 
||o-----------------------------------------| 
||------------------------------------------| 
||--4------4---4----------------------------| 
||o---5-3----5---5-3------------------------| 
||------1----------1--0-0-0-0-0-0-0-0-0-0-0-| 


                    PM------------------| 
|------------------------------------------|| 
|-----------------------------------------o|| 
|------------------------------------------|| 
|-4------4---5-----------------------------|| 
|---5-3----5---5-3------------------------o|| 
|-----1----------1--0-0-0-0-0-0-3-3-2-2-1--|| 


 0:52 
  PM-------------------------------------------- 
|----------------------------------------------| 
|----------------------------------------------| 
|----------------------------------------------| 
|----------------------------------------------| 
|-4-4-3--4-4-3--4-4-3--4-4-3-------------------| 
|-2-2-1--2-2-1--2-2-1--2-2-1-0-4-4-3-3-2-2-1-1-| 


 ------------------------------------| 
|----------------------------------------| 
|----------------------------------------| 
|----------------------------------------| 
|--------------------------------4---5---| 
|-4-4-3--4-4-3--4-4-3--4-4-3---3-2-5-3---| 
|-2-2-1--2-2-1--2-2-1--2-2-1-0-1---3-----| 


  PM-------------------------------------------- 
|----------------------------------------------| 
|----------------------------------------------| 
|----------------------------------------------| 
|----------------------------------------------| 
|-4-4-3--4-4-3--4-4-3--4-4-3-------------------| 
|-2-2-1--2-2-1--2-2-1--2-2-1-0-4-4-3-3-2-2-1-1-| 


 -----------------------------------| 
|-------------------------------------| 
|-------------------------------------| 
|-------------------------------------| 
|-------------------------4-----7-8---| 
|-4-4-3--4-4-3--4-4-3-2-3-2-5-6-5-6-7-| 
|-2-2-1--2-2-1--2-2-1-0-1---3-4-----5-| 


  PM----------------------------------------------- 
|-------------------------------------------------| 
|-------------------------------------------------| 
|-------------------------------------------------| 
|-------------------------------------------------| 
|-4-3-2-2-4-3-2-2-4-3-2-2-4-3-2-2-----------------| 
|-2-1-0-0-2-1-0-0-2-1-0-0-2-1-0-0-4-4-3-3-2-2-1-1-| 


 ---------------------------------------| 
|-------------------------------------------| 
|-------------------------------------------| 
|-------------------------------------------| 
|-----------------------------------4---5---| 
|-4-3-2-2-4-3-2-2-4-3-2-2-4-3-2-2-3-2-5-3---| 
|-2-1-0-0-2-1-0-0-2-1-0-0-2-1-0-0-1---3-----| 


  PM----------------------------------------------- 
|-------------------------------------------------| 
|-------------------------------------------------| 
|-------------------------------------------------| 
|-------------------------------------------------| 
|-4-3-2-2-4-3-2-2-4-3-2-2-4-3-2-2-----------------| 
|-2-1-0-0-2-1-0-0-2-1-0-0-2-1-0-0-4-4-3-3-2-2-1-1-| 


 -------------------------------------| 
|---------------------------------------| 
|---------------------------------------| 
|---------------------------------------| 
|---------------------------4-----7-8---| 
|-4-3-2-2-4-3-2-2-4-3-2-2-3-2-5-6-5-6-7-| 
|-2-1-0-0-2-1-0-0-2-1-0-0-1---3-4-----5-| 


   1:19 
    Q=125 
||--------------------------|-------------------------|| 
||o-------------------------|------------------------o|| 
||--------------------------|-------------------------|| 
||--9--8-----8--7-----------|-7--6-----6--5-----------|| 
||o-7--6--4--6--5--6--7--8--|-5--4--3--4--3--3--2----o|| 
||--------2--------4--5--6--|-------1--------1--0-----|| 


  Q=140 
  PM------------------------------------------------------------| 
|-----------------------------------------------------------------| 
|-----------------------------------------------------------------| 
|-----------------------------------------------------------------| 
|-----------------------------------------------------------------| 
|-7-7-7-7-6-6-6-6---------6-6-6-6-5-5-5-5-------------------------| 
|-----------------4-4-4-4-----------------4-4-4-4-5-5-5-5-6-6-6-6-| 


  PM------------------------------------------------------------| 
|-----------------------------------------------------------------| 
|-----------------------------------------------------------------| 
|-----------------------------------------------------------------| 
|-----------------------------------------------------------------| 
|-5-5-5-5-4-4-4-4---------4-4-4-4-3-3-3-3-------------------------| 
|-----------------1-1-1-1-----------------1-1-1-1-0-0-0-0-0-0-0-0-| 


                                              Q=135      Q=170 
 5/4                                       7/4 
  PM--------------------------------------------| 
|-----------------------------------------|---------------------| 
|-----------------------------------------|---------------------| 
|-----------------------------------------|---------------------| 
|-----------------------------------------|-------7-6----6-5----| 
|-7-7-7-7-6-6-6-6---------6-6-6-6-5-5-5-5-|-6-7-8-5-4----4-3-3--| 
|-----------------4-4-4-4-----------------|-4-5-6------------1--| 


 1:46 
  Q=220 
 8/4 
    Gtr I 
    PM----|   PM----|   PM----|   PM----| 
|-----------------------------------------| 
|-----------------------------------------| 
|-----------------------------------------| 
|-----------------------------------------| 
|-2---------2---------3---------2---------| 
|-0-0-0-0-1---0-0-0-1---0-0-0-1---0-0-0-1-| 
| 
| Gtr II 
|-----------------------------------------| 
|-----------------------------------------| 
|-----------------------------------------| 
|-----------------------------------------| 
|-2---------------------------------------| 
|-0---------------------------------------| 


    PM----|   PM----|   PM----|   PM----| 
|-------------------------------------------| 
|-------------------------------------------| 
|-------------------------------------------| 
|-1-----------------------------------------| 
|-----------2---------3---------2-----------| 
|---0-0-0-1---0-0-0-1---0-0-0-1---0-0-0-1---| 
| 
|-------------------------------------------| 
|-------------------------------------------| 
|-------------------------------------------| 
|-------------------------------------------| 
|-------------------------------------------| 
|-------------------------------------------| 


    PM----|   PM----|   PM----|   PM----| 
|-----------------------------------------| 
|-----------------------------------------| 
|-----------------------------------------| 
|-----------------------------------------| 
|-5---------2---------3---------2---------| 
|---0-0-0-1---0-0-0-1---0-0-0-1---0-0-0-1-| 
| 
|-----------------------------------------| 
|-----------------------------------------| 
|-----------------------------------------| 
|-----------------------------------------| 
|-----------------------------------------| 
|-----------------------------------------| 


    PM--| 
|--------------------------------------| 
|--------------------------------------| 
|--------------------------------------| 
|-1--------------------2-3-2-3---------| 
|-----------2----------2-3-2-3-2-4-6-5-| 
|---0-0-0-1----0-0-0-0---------0-2-4-3-| 
| 
|--------------------------------------| 
|--------------------------------------| 
|--------------------------------------| 
|----------------------2-3-2-3---------| 
|-----------6\---------2-3-2-3-2-4-6-5-| 
|------------------------------0-2-4-3-| 


  Gtrs I, II 
    PM----|   PM----|   PM----|   PM----| 
|-----------------------------------------| 
|-----------------------------------------| 
|-----------------------------------------| 
|-----------------------------------------| 
|-2---------2---------3---------2---------| 
|-0-0-0-0-1---0-0-0-1---0-0-0-1---0-0-0-1-| 


    PM----|   PM----|   PM----|   PM----| 
|-----------------------------------------| 
|-----------------------------------------| 
|-----------------------------------------| 
|-1---------------------------------------| 
|-----------2---------3---------2---------| 
|---0-0-0-1---0-0-0-1---0-0-0-1---0-0-0-1-| 


    PM----|   PM----|   PM----|   PM----| 
|-----------------------------------------| 
|-----------------------------------------| 
|-----------------------------------------| 
|-----------------------------------------| 
|-5---------2---------3---------2---------| 
|---0-0-0-1---0-0-0-1---0-0-0-1---0-0-0-1-| 


    PM----|   PM----| 
|-------------------------------------| 
|-------------------------------------| 
|-------------------------------------| 
|-1-------------------2-3-2-3---------| 
|-----------2---------2-3-2-3-2-4-6-5-| 
|---0-0-0-4---0-0-0-0---------0-2-4-3-| 


 2:04 
  PM------------------------------------|   PM  PM  PM  PM  PM  PM  PM 
|-------------------------------------|---------------------------------| 
|-------------------------------------|---------------------------------| 
|-------------------------------------|---------------------------------| 
|-------------------------------------|---------------------------------| 
|-0-0-0-0-4-3-0-3-0-0-0-0-0-4-3-0-3-0-|---2---2---3---3---2---2---3---3-| 
|-------------------------------------|-1---1---2---2---1---1---2---2---| 


  PM------------------------------------|   PM  PM  PM  PM  PM 
|-------------------------------------|------------------------------| 
|-------------------------------------|------------------------------| 
|-------------------------------------|------------------------------| 
|-------------------------------------|-------------------------4----| 
|-0-0-0-0-4-3-0-3---4-4-4-4-8-7-4-7---|---2---2---3---3---2---2-4----| 
|-----------------4-----------------8-|-1---1---2---2---1---1---2----| 


 2:13 
  Gtr I 
  PM  PM  PM  PM  PM  PM  PM  PM    PM  PM  PM  PM  PM  PM  PM  PM 
|---------------------------------|---------------------------------| 
|---------------------------------|---------------------------------| 
|---------------------------------|---------------------------------| 
|---------------------------------|---------------------------------| 
|---5---5---7---7---5---5---6---6-|---5---5---6---6---5---5---8---8-| 
|-4---4---6---6---4---4---5---5---|-4---4---5---5---4---4---7---7---| 
| 
| Gtr II 
| PM--------------------------------------------------------------| 
|---------------------------------|---------------------------------| 
|---------------------------------|---------------------------------| 
|---------------------------------|---------------------------------| 
|---------------------------------|---------------------------------| 
|---2---2---4---4---2---2---3---3-|---2---2---3---3---2---2---5---5-| 
|-1---1---3---3---1---1---2---2---|-1---1---2---2---1---1---4---4---| 


  PM  PM  PM  PM  PM  PM  PM  PM    PM  PM  PM  PM  PM  PM  PM  PM 
|---------------------------------|---------------------------------| 
|---------------------------------|---------------------------------| 
|---------------------------------|---------------------------------| 
|---------------------------------|---------------------------------| 
|---5---5---6---6---5---5---6---6-|---5---5---6---6---5---5---8---8-| 
|-4---4---5---5---4---4---5---5---|-4---4---5---5---4---4---7---7---| 
| 
| PM--------------------------------------------------------------| 
|---------------------------------|---------------------------------| 
|---------------------------------|---------------------------------| 
|---------------------------------|---------------------------------| 
|---------------------------------|---------------------------------| 
|---2---2---3---3---2---2---3---3-|---2---2---3---3---2---2---5---5-| 
|-1---1---2---2---1---1---2---2---|-1---1---2---2---1---1---4---4---| 


  Gtrs I, II 
  PM------------------------------------|   PM  PM  PM  PM  PM  PM  PM 
|-------------------------------------|---------------------------------| 
|-------------------------------------|---------------------------------| 
|-------------------------------------|---------------------------------| 
|-------------------------------------|---------------------------------| 
|-0-0-0-0-4-3-0-3-0-0-0-0-0-4-3-0-3-0-|---2---2---3---3---2---2---3---3-| 
|-------------------------------------|-1---1---2---2---1---1---2---2---| 


                                       6/4 
  PM------------------------------------|   PM  PM  PM  PM  PM 
|-------------------------------------|-------------------------| 
|-------------------------------------|-------------------------| 
|-------------------------------------|-------------------------| 
|-------------------------------------|-------------------------| 
|-0-0-0-0-4-3-0-3---4-4-4-4-8-7-4-7---|---2---2---3---3---2---2-| 
|-----------------4-----------------8-|-1---1---2---2---1---1---| 


 2:31 
  Q=90 
  PM--------------|                     PM--|                   PM--------| 
|-------------------------------------|-------------------------------------| 
|-------------------------------------|-------------------------------------| 
|-------------------------------------|-------------------------------------| 
|-4-3-3-4-3-3-4-3-3-------------------|-4-3-3-------------------------------| 
|-4-3-3-4-3-3-4-3-3-------------------|-4-3-3-------------------4-3-3-3-2-2-| 
|-2-1-1-2-1-1-2-1-1-1h2h3-2h3h4-3h4h5-|-2-1-1-1h2h3-2h3h4-3h4h5-6-5-5-5-4-4-| 


  PM--------------| 
|-------------------------------------| 
|-------------------------------------| 
|-------------------------------------| 
|-4-3-3-4-3-3-4-3-3-------------------| 
|-4-3-3-4-3-3-4-3-3-------------------| 
|-2-1-1-2-1-1-2-1-1-1h2h3-2h3h4-3h4h5-| 


  PM--| 
|-----------------------------------------| 
|-----------------------------------------| 
|---------------------------6-7p6---6-7p6-| 
|-4-3-3-----------------------------------| 
|-4-3-3-------------------4---------------| 
|-2-1-1-1h2h3-2h3h4-3h4h5---------5-------| 


  PM--------------|                     PM--|                   PM--------| 
|-------------------------------------|-------------------------------------| 
|-------------------------------------|-------------------------------------| 
|-------------------------------------|-------------------------------------| 
|-4-3-3-4-3-3-4-3-3-------------------|-4-3-3-------------------------------| 
|-4-3-3-4-3-3-4-3-3-------------------|-4-3-3-------------------4-3-3-3-2-2-| 
|-2-1-1-2-1-1-2-1-1-1h2h3-2h3h4-3h4h5-|-2-1-1-1h2h3-2h3h4-3h4h5-6-5-5-5-4-4-| 


 3:02 
                                       3/4 
  PM--------------|                     PM--| 
|-------------------------------------|-------------------------| 
|-------------------------------------|-------------------------| 
|-------------------------------------|-------------------------| 
|-4-3-3-4-3-3-4-3-3-------------------|-4-3-3-------------------| 
|-4-3-3-4-3-3-4-3-3-------------------|-4-3-3-------------------| 
|-2-1-1-2-1-1-2-1-1-1h2h3-2h3h4-3h4h5-|-2-1-1-1h2h3-2h3h4-3h4h5-| 


 6/4 
  Gtr I 
|---------------------------------------------| 
|---------------------------------------------| 
|---10-11p10---10-11p10---10-11p10---10-11p10-| 
|---------------------------------------------| 
|-8---------------------8---------------------| 
|------------9---------------------9----------| 
| 
| Gtr II 
|---------------------------------------------| 
|---------------------------------------------| 
|----6--7p=6----6--7p=6----6--7p=6----6--7p=5-| 
|---------------------------------------------| 
|-4---------------------4---------------------| 
|------------5---------------------5----------| 


|----------------------------------| 
|----------------------------------| 
|---7-8p7---7-8p7---7-8p7---7-8p7--| 
|----------------------------------| 
|-5---------------5----------------| 
|---------6---------------6--------| 
| 
|----------------------------------| 
|----------------------------------| 
|---3-4p3---3-4p3---3-4p3---3-4p3--| 
|----------------------------------| 
|-1---------------1----------------| 
|---------2---------------2--------| 


|---------------------------------------------| 
|---------------------------------------------| 
|---10-11p10---10-11p10---10-11p10---10-11p10-| 
|---------------------------------------------| 
|-8---------------------8---------------------| 
|------------9---------------------9----------| 
| 
|---------------------------------------------| 
|---------------------------------------------| 
|----6--7p=6----6--7p=6----6--7p=6----6--7p=5-| 
|---------------------------------------------| 
|-4---------------------4---------------------| 
|------------5---------------------5----------| 


|-------------------------------------| 
|-------------------------------------| 
|---9-10p9---9-10p9---9-10p9---9-10p9-| 
|-------------------------------------| 
|-7-----------------7-----------------| 
|----------8-----------------8--------| 
| 
|-------------------------------------| 
|-------------------------------------| 
|---5--6p5---5--6p5---5--6p5---5--6p5-| 
|-------------------------------------| 
|-3-----------------3-----------------| 
|----------4-----------------4--------| 


   3:18 
    Q=140 
   8/4 
    Gtrs I, II 
                          PM--| 
||------------------------------|-----------------------------| 
||o-----------------------------|-----------------------------| 
||------------------------------|-----------------------------| 
||--2h4-2h4-3--2h4-2h4-3--5-1-5-|-2h4-2h4-3--2h4-2h4-3--1-----| 
||o-2h4-2h4-3--2h4-2h4-3--5-1-5-|-2h4-2h4-3--2h4-2h4-3--1-5-4-| 
||------------------------3---3-|-------------------------3-2-| 


                        PM--|              PM|        PM----| 
|-----------------------------|--------------------------------|| 
|-----------------------------|-------------------------------o|| 
|-----------------------------|--------------------------------|| 
|-2h4-2h4----2h4-2h4----5-1-5-|-2h4-2h4--------3---------------|| 
|-2h4-2h4-3--2h4-2h4-3--5-1-5-|-2h4-2h4-3------3-5-4--5-4-3-4-o|| 
|---------1----------1--3---3-|---------1--0-0---3-2--3-2-1-2--|| 


              PM          PM  PM  PM            PM          PM  PM  PM 
||----------------------------------|-----------------------------------|| 
||o---------------------------------|----------------------------------o|| 
||----------------------------------|-----------------------------------|| 
||--2h4-2h4-3---2h4-2h4-3---2---3---|-2h4-2h4-3---2h4-2h4-3---2---3-----|| 
||o-2h4-2h4-3-4-2h4-2h4-3-4-2-4-3-4-|-2h4-2h4-3-4-2h4-2h4-3-4-2-4-3-4--o|| 
||------------4-----------4---4---4-|-----------4-----------4---4---4---|| 


 4:01 
  PM-|     PM-|     PM      PM-|     PM----| 
|-------------------------|----------------------------| 
|-------------------------|----------------------------| 
|-------------------------|---------------------7--6S5-| 
|-------1--------1-----2--|-------1-------------7--6S5-| 
|-4--5--1--4--5--1--4--2--|-4--5--1--2-3-4-3-2---------| 
|-2--3-----2--3-----2-----|-2--3-----0-1-2-1-0---------| 


  PM-|     PM-|     PM 
|-------------------------|----------------------------| 
|-------------------------|----------------------------| 
|-------------------------|----------------------------| 
|-------1--------1-----2--|-5-4-------4-3-5--------2-1-| 
|-4--5--1--4--5--1--4--2--|-----4--3------3-----3------| 
|-2--3-----2--3-----2-----|------------------1---------| 


  PM-|     PM-|     PM      PM-|     PM----| 
|-------------------------|----------------------------| 
|-------------------------|----------------------------| 
|-------------------------|---------------------7--6S5-| 
|-------1--------1-----2--|-------1-------------7--6S5-| 
|-4--5--1--4--5--1--4--2--|-4--5--1--2-3-4-3-2---------| 
|-2--3-----2--3-----2-----|-2--3-----0-1-2-1-0---------| 


  Gtr I 
  PM-|     PM-|     PM 
|-------------------------|----------------------------| 
|-------------------------|----------------------------| 
|-------------------------|----------------------------| 
|-------1--------1-----2--|-5-4-------4-3-5--------2-1-| 
|-4--5--1--4--5--1--4--2--|-----4--3------3-----3------| 
|-2--3-----2--3-----2-----|------------------1---------| 
| 
| Gtr II 
| PM-|     PM-|     PM 
|-------------------------|----------------------------| 
|-------------------------|----------------------------| 
|-------------------------|----------------------------| 
|-------1--------1-----2--|-8-7-------7-6----------5-4-| 
|-4--5--1--4--5--1--4--2--|--------7------------5------| 
|-2--3-----2--3-----2-----|-----6---------4--4---------| 


 4:29 
  Q=220 
 8/4 
    PM   PM   PM  PM  PM  PM  PM  PM 
|-----------------------------------| 
|-----------------------------------| 
|-----------------------------------| 
|-----------------------------------| 
|-7---10---10---6---9---9---5---8---| 
|---0----0----0---0---0---0---0---0-| 
| 
|-----------------------------------| 
|-----------------------------------| 
|-----------------------------------| 
|-----------------------------------| 
|-----------------------------------| 
|-----------------------------------| 


    PM--------|    PM   PM  PM  PM    PM  PM 
|-------------------------------------------| 
|-------------------------------------------| 
|-------------------------------------------| 
|-------------------------------------------| 
|-7-------------10---10---6---9----9----5---| 
|---0-0-0-0-0-0----0----0---0---0-----0---0-| 
| 
|-------------------------------------------| 
|-------------------------------------------| 
|-------------------------------------------| 
|-------------------------------------------| 
|-------------------------------------------| 
|---------------------------------/5\-------| 


 8/4 
    PM   PM   PM  PM  PM  PM  PM  PM    PM--------|    PM   PM--------------| 
|-----------------------------------|-----------------------------------------| 
|-----------------------------------|-----------------------------------------| 
|-----------------------------------|-----------------------------------------| 
|-----------------------------------|-------------------------------------8-7-| 
|-7---10---10---6---9---9---5---8---|-7-------------10---10---8-9-8-9-7-8-6-5-| 
|---0----0----0---0---0---0---0---0-|---0-0-0-0-0-0----0----0-6-7-6-7-5-6-----| 
| 
|                                                             PM------------| 
|-----------------------------------|-----------------------------------------| 
|-----------------------------------|-----------------------------------------| 
|-----------------------------------|-----------------------------------------| 
|-2---------------------------------|-------------------------------------8-7-| 
|-2---------------------------------|-------------------------8-9-8-9-7-8-6-5-| 
|-0---------------------------------|-------------------------6-7-6-7-5-6-----| 


  Gtrs I, II 
    PM   PM   PM  PM  PM  PM  PM  PM    PM--------|    PM   PM  PM  PM  PM  PM 
|-----------------------------------|------------------------------------------| 
|-----------------------------------|------------------------------------------| 
|-----------------------------------|------------------------------------------| 
|-----------------------------------|------------------------------------------| 
|-7---10---10---6---9---9---5---8---|-7-------------10---10---6---9---9---5----| 
|---0----0----0---0---0---0---0---0-|---0-0-0-0-0-0----0----0---0---0---0---0--| 


  Gtr I 
     PM   PM   PM   PM   PM   PM   PM   PM 
|-----------------------------------------| 
|-----------------------------------------| 
|-----------------------------------------| 
|-----------------------------------------| 
|-12---15---15---11---14---14---10---13---| 
|----0----0----0----0----0----0----0----0-| 
| 
| Gtr II 
|    PM   PM   PM   PM   PM   PM   PM   PM 
|-----------------------------------------| 
|-----------------------------------------| 
|-----------------------------------------| 
|-----------------------------------------| 
|--7---10---10----6----9----9----5----8---| 
|----0----0----0----0----0----0----0----0-| 


     PM--------|    PM   PM--------------| 
|-------------------------------------------| 
|-------------------------------------------| 
|-------------------------------------------| 
|--------------------------------------8-7--| 
|-12-------------15---15---8-9-8-9-7-8-6-5--| 
|----0-0-0-0-0-0----0----0-6-7-6-7-5-6------| 
| 
|    PM--------|    PM   PM--------------| 
|-------------------------------------------| 
|-------------------------------------------| 
|-------------------------------------------| 
|--------------------------------------8-7--| 
|--7-------------10---10---8-9-8-9-7-8-6-5--| 
|----0-0-0-0-0-0----0----0-6-7-6-7-5-6------| 


 4:47 
  Gtrs I, II 
    PM  PM--------|   PM  PM----------| 
|---------------------------------------| 
|---------------------------------------| 
|---------------------------------------| 
|---------------------------------------| 
|-8---7-------------7---6-------5-4-----| 
|---6---0-0-0-0-0-0---5---4-5-6-----5-4-| 


    PM  PM--------|   PM  PM  PM  PM--------| 
|-----------------------------------------------| 
|-----------------------------------------------| 
|-----------------------------------------------| 
|-----------------------------------------------| 
|-5---4-------------4---3---3---2---------------| 
|---3---0-0-0-0-0-0---2---0---0---0-0-0-0-0-0---| 


  Gtr I 
    PM  PM--------|   PM  PM--------------------------------| 
|---------------------------------------|----------------------------------| 
|---------------------------------------|----------------------------------| 
|---------------------------------------|---------------------8-7---7------| 
|---------------------------------------|-----8-7---7-------7-----8---8-7--| 
|-8---7-------------7---6-------5-4-----|---7-----8---8-7-6----------------| 
|---6---0-0-0-0-0-0---5---4-5-6-----5-4-|-6--------------------------------| 
| 
| Gtr II 
|   PM  PM--------|   PM  PM--------------------------------| 
|---------------------------------------|----------------------------------| 
|---------------------------------------|----------------------------------| 
|---------------------------------------|---------------------5-4---4------| 
|---------------------------------------|-----5-4---4-------4-----5---5-4--| 
|-8---7-------------7---6-------5-4-----|---4-----5---5-4-3----------------| 
|---6---0-0-0-0-0-0---5---4-5-6-----5-4-|-3--------------------------------| 


  Gtrs I, II 
    PM  PM--------|   PM  PM----------| 
|---------------------------------------| 
|---------------------------------------| 
|---------------------------------------| 
|---------------------------------------| 
|-8---7-------------7---6-------5-4-----| 
|---6---0-0-0-0-0-0---5---4-5-6-----5-4-| 


    PM  PM--------|   PM  PM  PM  PM--------| 
|-----------------------------------------------| 
|-----------------------------------------------| 
|-----------------------------------------------| 
|-----------------------------------------------| 
|-5---4-------------4---3---3---2---------------| 
|---3---0-0-0-0-0-0---2---0---0---0-0-0-0-0-0---| 


 5/4                         9/4 
    PM  PM--------|   PM  PM-------------------------| 
|---------------------------|----------------------------| 
|---------------------------|----------------------------| 
|---------------------------|----------------------------| 
|---------------------------|----------7--6----6--5------| 
|-8---7-------------7---6---|-6--7--8--5--4----4--3--3---| 
|---6---0-0-0-0-0-0---5---4-|-4--5--6----------------1---| 


 5:05 
  Q=140 
 5/4 
|-------------------|-------------------|-------------------|-----------------*| 
|-------------------|-------------------|-------------------|-----------------*| 
|-------------------|-------------------|-------------------|-----------------*| 
|-4------4---4------|-4------4---5------|-4------4---4------|-4------4---5----*| 
|---5-3----5---5-3--|---5-3----5---5-3--|---5-3----5---5-3--|---5-3----5------*| 
|-----1----------1--|-----1----------1--|-----1----------1--|-----1-----------*| 

End.
comments
We did not receive enough feedback on this tab! Please rate:
print report bad tab
1 2 3 4 5
I want to post or [tab]
guest
You may want to rate the tab now too:
select rating
Please do not post tabs as comments. Select "correction" instead!