Oops, an error
Loading. Please wait.

To Weep Once More Tab

ver1
ver1

Whole song

Interactive

More versions @911Tabs.com
147 views 1 this week
no commentswrite comment
1 2 3 4 5
please rate
Autoscroll
+/-
esc
set tempo
stop
Contributor
WARNING: You are trying to view
                                    content from Ultimate-Guitar.com
                                    in an unauthorized application,
                                    which is prohibited.

                                    Please use an official Ultimate
                                    Guitar Tabs application for iPhone,
                                    iPad or Android to access legitimate
                                    chords, guitar, bass, and drum tabs
                                    from Ultimate-Guitar.com database.

                                    Type "ultimate guitar tabs" in Apple
                                    App Store's or Android Market's
                                    search to find the application.
#----------------------------------PLEASE NOTE---------------------------------#
#This file is the author's own work and represents their interpretation of the #
#song. You may only use this file for private study, scholarship, or research. #
#------------------------------------------------------------------------------#

                                TO WEEP ONCE MORE
                           As recorded by Suffocation
                       (From the 2004 Album SOULS TO DENY)


Gtr I (Db Gb B E Ab Db) - 'Terrance Hobbs'
Gtr II (Db Gb B E Ab Db) - 'Guy Marchais'
Gtr III (Db Gb B E Ab Db) - 'Lead 1'
Gtr IV (Db Gb B E Ab Db) - 'Lead 2'

   Intro
    Q=200
   6/4
    Gtrs I, II
    PM--------|                   PM--------------------|
||------------------------------|-------------------------|
||o-----8---8-----------9-------|-----8---8-------7---7---|
||------9---9--------10---10----|-----9---9-------8---8---|
||----9-9---9-----10---------10-|---9-9---9-----8-8---8---|
||o-7-----7---7-8---------------|-7-----7---7-6-----6---6-|
||------------------------------|-------------------------|


                                1.                       2.
  PM--------|                   PM--------|              PM--------|
|-----------------------------|-----------------------||-----------------------|
|-----8---8-----------9-------|-----8---8------------o||-----8---8-------------|
|-----9---9--------10---10----|-----9---9-------------||-----9---9-------------|
|---9-9---9-----10---------10-|---9-9---9-------------||---9-9---9-------------|
|-7-----7---7-8---------------|-7-----7---7-8--8--8--o||-7-----7---7-9--9--9---|
|-----------------------------|-------------6--6--6---||-------------7--7--7---|


   Chorus
    PM|    PM   PM   PM   PM   PM----|    PM   PM   PM   PM   PM
||-------------------------------|-------------------------------|
||o------------------------------|-------------------------------|
||-------------------------------|-------------------------------|
||------11---11---12---11---11---|-----10---10---11---10---10----|
||o---9----9----9----9----9----9-|---8----8----8----8----8----8--|
||--9------9----9----9----9----9-|-8------8----8----8----8----8--|


  PM|    PM   PM   PM   PM   PM-----|      PM    PM---|      PM    PM---
                                                                      4x
|------------------------------|--------------------------------------||
|------------------------------|-------------------------------------o||
|------------------------------|--------------------------------------||
|-----11---11---12---11---11---|-------15----14----------14----13-----||
|---9----9----9----9----9----9-|----12----12----12----11----11----11-o||
|-9------9----9----9----9----9-|-12-------12----12-11-------11----11--||


 ----|      PM    PM---|      PM    PM
|--------------------------------------|
|--------------------------------------|
|--------------------------------------|
|-------13----12----------17----16-----|
|----10----10----10----14----14----14--|
|-10-------10----10-14-------14----14--|

 Verse A
  Q=220
 3/4
  PM--|   PM  PM------|   PM  PM------|   PM  PM-
|---------------|---------------|---------------|
|---------------|---------------|---------------|
|-----------1---|-----------2---|-----------1---|
|-------4-------|-------4-------|-------4-------|
|---------------|---------------|---------------|
|-2-2-2---2---2-|-2-2-2---2---2-|-2-2-2---2---2-|


 -----|   PM  PM--------------|
|---------------|----------------|
|---------------|----------------|
|-----------2---|----------------|
|-------4-------|----------------|
|---------------|-------7-8-6-7--|
|-2-2-2---2---2-|-2-2-2-5-6-4-5--|


  Gtr I
  PM--|   PM  PM------|   PM  PM------|   PM  PM-
|---------------|---------------|---------------|
|---------------|---------------|---------------|
|---------------|---------------|---------------|
|-------2---4---|-------2---5---|-------2---4---|
|---------------|---------------|---------------|
|-1-1-1---1---1-|-1-1-1---1---1-|-1-1-1---1---1-|
|
| Gtr II
| PM--|   PM  PM------|   PM  PM------|   PM  PM-
|---------------|---------------|---------------|
|---------------|---------------|---------------|
|---------------|---------------|---------------|
|-------2---4---|-------2---5---|-------2---4---|
|---------------|---------------|---------------|
|-1-1-1---1---1-|-1-1-1---1---1-|-1-1-1---1---1-|


 -----------------------------|
|---------------|----------------|
|---------------|----------------|
|---------------|----------------|
|-------7-8-7---|----7-8-7----7--|
|-------------9-|-10-------10----|
|-0-0-0---------|----------------|
|
|-----------------------------|
|---------------|----------------|
|---------------|----------------|
|---------------|----------------|
|-------4-5-4---|----4-5-4----4--|
|-------------6-|--7--------7----|
|-0-0-0---------|----------------|


  PM--|   PM  PM------|   PM  PM------|   PM  PM-
|---------------|---------------|---------------|
|---------------|-----------2---|---------------|
|-----------1---|---------------|-----------1---|
|-------4-------|-------4-------|-------4-------|
|---------------|---------------|---------------|
|-2-2-2---2---2-|-2-2-2---2---2-|-2-2-2---2---2-|
|
| PM--|   PM  PM------|   PM  PM------|   PM  PM-
|---------------|---------------|---------------|
|---------------|-----------2---|---------------|
|-----------1---|---------------|-----------1---|
|-------4-------|-------4-------|-------4-------|
|---------------|---------------|---------------|
|-2-2-2---2---2-|-2-2-2---2---2-|-2-2-2---2---2-|


 -----|   PM      PM------|
|---------------|------------------|
|---------------|------------------|
|-----------1h2-|-----------2h3p2--|
|-------4-------|-------4----------|
|---------------|------------------|
|-2-2-2---2-----|-2-2-2---2--------|
|
|-----|   PM      PM------|
|---------------|------------------|
|---------------|------------------|
|-----------4h5-|-----------5h7p5--|
|-------4-------|-------4----------|
|---------------|------------------|
|-2-2-2---2-----|-2-2-2---2--------|


  PM--|   PM  PM------|   PM  PM------|   PM  PM-
|---------------|---------------|---------------|
|---------------|---------------|---------------|
|---------------|---------------|---------------|
|-------2---4---|-------2---5---|-------2---4---|
|---------------|---------------|---------------|
|-1-1-1---1---1-|-1-1-1---1---1-|-1-1-1---1---1-|
|
| PM--|   PM  PM------|   PM  PM------|   PM  PM-
|---------------|---------------|---------------|
|---------------|---------------|---------------|
|---------------|---------------|---------------|
|-------2---4---|-------2---5---|-------2---4---|
|---------------|---------------|---------------|
|-1-1-1---1---1-|-1-1-1---1---1-|-1-1-1---1---1-|


 -----------------------------|
|---------------|----------------|
|---------------|----------------|
|---------------|----------------|
|-------7-8-7---|----7-8-7----7--|
|-------------9-|-10-------10----|
|-0-0-0---------|----------------|
|
|-----------------------------|
|---------------|----------------|
|---------------|----------------|
|---------------|----------------|
|-------4-5-4---|----4-5-4----4--|
|-------------6-|--7--------7----|
|-0-0-0---------|----------------|


 4/4                    3/4
         PM--|   PM  PM------|   PM  PM-
|----------------------|---------------|
|----------------------|-----------2---|
|------------------1---|---------------|
|--------------4-------|-------4-------|
|----------------------|---------------|
|-2-2--2-2-2-2---2---2-|-2-2-2---2---2-|
|
|----------------------|---------------|
|----------------------|---------------|
|----------------------|---------------|
|-4----------------4---|-----------4---|
|-4----------------4---|-----------4---|
|-2----------------2---|-----------2---|


 -----|   PM  PM------|   PM      PM------|
|---------------|---------------|-----------------|
|---------------|---------------|-----------------|
|-----------1---|-----------1h2-|-----------2h3p2-|
|-------4-------|-------4-------|-------4---------|
|---------------|---------------|-----------------|
|-2-2-2---2---2-|-2-2-2---2-----|-2-2-2---2-------|
|
|                                       PM------|
|---------------|---------------|-----------------|
|---------------|---------------|-----------------|
|---------------|---------------|-----------------|
|-----------4---|-----------4---|-----------------|
|-----------4---|-----------4---|-------7-8-6---7-|
|-----------2---|-----------2---|-------5-6-4---5-|


  PM--|   PM  PM------|   PM  PM------|   PM  PM-
|---------------|---------------|---------------|
|---------------|---------------|---------------|
|---------------|---------------|---------------|
|-------2---4---|-------2---5---|-------2---4---|
|---------------|---------------|---------------|
|-1-1-1---1---1-|-1-1-1---1---1-|-1-1-1---1---1-|
|
| PM--|   PM  PM------|   PM  PM------|   PM  PM-
|---------------|---------------|---------------|
|---------------|---------------|---------------|
|---------------|---------------|---------------|
|-------2---4---|-------2---5---|-------2---4---|
|---------------|---------------|---------------|
|-1-1-1---1---1-|-1-1-1---1---1-|-1-1-1---1---1-|


 -----------------------------|
|---------------|----------------|
|---------------|----------------|
|---------------|----------------|
|-------7-8-7---|----7-8-7----7--|
|-------------9-|-10-------10----|
|-0-0-0---------|----------------|
|
|-----------------------------|
|---------------|----------------|
|---------------|----------------|
|---------------|----------------|
|-------4-5-4---|----4-5-4----4--|
|-------------6-|--7--------7----|
|-0-0-0---------|----------------|


  PM--|   PM  PM------|   PM  PM------|   PM  PM-
|---------------|---------------|---------------|
|---------------|-----------2---|---------------|
|-----------1---|---------------|-----------1---|
|-------4-------|-------4-------|-------4-------|
|---------------|---------------|---------------|
|-2-2-2---2---2-|-2-2-2---2---2-|-2-2-2---2---2-|
|
| PM--|   PM  PM------|   PM  PM------|   PM  PM-
|---------------|---------------|---------------|
|---------------|-----------2---|---------------|
|-----------1---|---------------|-----------1---|
|-------4-------|-------4-------|-------4-------|
|---------------|---------------|---------------|
|-2-2-2---2---2-|-2-2-2---2---2-|-2-2-2---2---2-|


 -----|   PM      PM------|
|---------------|------------------|
|---------------|------------------|
|-----------1h2-|-----------2h3p2--|
|-------4-------|-------4----------|
|---------------|------------------|
|-2-2-2---2-----|-2-2-2---2--------|
|
|-----|   PM      PM------|
|---------------|------------------|
|---------------|------------------|
|-----------4h5-|-----------5h7p5--|
|-------4-------|-------4----------|
|---------------|------------------|
|-2-2-2---2-----|-2-2-2---2--------|


  PM--|   PM  PM------|   PM  PM------|   PM  PM-
|---------------|---------------|---------------|
|---------------|---------------|---------------|
|---------------|---------------|---------------|
|-------2---4---|-------2---5---|-------2---4---|
|---------------|---------------|---------------|
|-1-1-1---1---1-|-1-1-1---1---1-|-1-1-1---1---1-|
|
| PM--|   PM  PM------|   PM  PM------|   PM  PM-
|---------------|---------------|---------------|
|---------------|---------------|---------------|
|---------------|---------------|---------------|
|-------2---4---|-------2---5---|-------2---4---|
|---------------|---------------|---------------|
|-1-1-1---1---1-|-1-1-1---1---1-|-1-1-1---1---1-|


 -----------------------------|
|---------------|----------------|
|---------------|----------------|
|---------------|----------------|
|-------7-8-7---|----7-8-7----7--|
|-------------9-|-10-------10----|
|-0-0-0---------|----------------|
|
|-----------------------------|
|---------------|----------------|
|---------------|----------------|
|---------------|----------------|
|-------4-5-4---|----4-5-4----4--|
|-------------6-|--7--------7----|
|-0-0-0---------|----------------|


 Verse B
  Q=190
 4/4           6/4
  Gtrs I, II
  PM--------|      PM----------------|      PM----|    PM----|
|-------------|------------------------|------------------------|
|-------------|------------------------|------------------------|
|-------------|----2-3-2-----2-3-2---2-|----1-2-1------1-2-1----|
|-5-4-4-4-3-3-|-3--------4-5-------5---|-2--------3-2--------3--|
|-5-4-4-4-3-3-|-3----------------------|-2----------2-----------|
|-3-2-2-2-1-1-|-1----------------------|-0----------0-----------|


 4/4           6/4
  Gtrs I, II
  PM--------|      PM----------------|      PM----|
|-------------|------------------------|------------------------|
|-------------|------------------------|------------------------|
|-------------|----2-3-2-----2-3-2---2-|----1-2-1---------------|
|-5-4-4-4-3-3-|-3--------4-5-------5---|-2--------3-2--1S2-2S3--|
|-5-4-4-4-3-3-|-3----------------------|-2----------2--1S2-2S3--|
|-3-2-2-2-1-1-|-1----------------------|-0----------0--0-0-0-0--|


 4/4           6/4
  Gtr I
  PM--------|      PM----------------|      PM----|    PM----|
|-------------|------------------------|------------------------|
|-------------|------------------------|------------------------|
|-------------|----2-3-2-----2-3-2---2-|----1-2-1------1-2-1----|
|-5-4-4-4-3-3-|-3--------4-5-------5---|-2--------3-2--------3--|
|-5-4-4-4-3-3-|-3----------------------|-2----------2-----------|
|-3-2-2-2-1-1-|-1----------------------|-0----------0-----------|
|
| Gtr II
| PM--------|      PM----------------|      PM----|    PM----|
|-------------|------------------------|------------------------|
|-------------|------------------------|------------------------|
|-------------|------------------------|------------------------|
|-5-4-4-4-3-3-|-3--4-5-4-----4-5-4---4-|-2--3-4-3---2--3-4-3----|
|-5-4-4-4-3-3-|-3--------6-7-------7---|-2--------5-2--------5--|
|-3-2-2-2-1-1-|-1----------------------|-0----------0-----------|


 4/4           6/4                                            4/4
  Gtr I
  PM--------|      PM----------------|      PM----|            PM--------|
|-------------|------------------------|---------------------|-------------|
|-------------|------------------------|---------------------|-------------|
|-------------|----2-3-2-----2-3-2---2-|----1-2-1------------|-------------|
|-5-4-4-4-3-3-|-3--------4-5-------5---|-2--------3-2--4-5-6-|-5-4-4-4-3-3-|
|-5-4-4-4-3-3-|-3----------------------|-2----------2--2-3-4-|-5-4-4-4-3-3-|
|-3-2-2-2-1-1-|-1----------------------|-0----------0--------|-3-2-2-2-1-1-|
|
| Gtr II
| PM--------|      PM----------------|      PM----|            PM--------|
|-------------|------------------------|---------------------|-------------|
|-------------|------------------------|---------------------|-------------|
|-------------|------------------------|---------------------|-------------|
|-5-4-4-4-3-3-|-3--4-5-4-----4-5-4---4-|-2--3-4-3---2--4-5-6-|-5-4-4-4-3-3-|
|-5-4-4-4-3-3-|-3--------6-7-------7---|-2--------5-2--2-3-4-|-5-4-4-4-3-3-|
|-3-2-2-2-1-1-|-1----------------------|-0----------0--------|-3-2-2-2-1-1-|


 Guitar Solo
  Q=220
 7/4
  Gtrs I, II
        PM--------------------|          PM-----------------|           PM
|-------------------------------------------------------------------------|
|-------------------------------------------------------------------------|
|-------------------------------------------------------------------------|
|-------------------------------------------------------------------------|
|--7--------------------------------7-----------------------------8-------|
|-------5--5--5-5--5--5--9----8----------5--5--5-5--5--5--9--8----------5-|
|
| Gtr III
|-19h20p==19p16---------19h20p==19-19h20p==19p16---------19h20h23p==19----|
|-----------------17h20----------------------------17h20---------------21-|
|-------------------------------------------------------------------------|
|-------------------------------------------------------------------------|
|-------------------------------------------------------------------------|
|-------------------------------------------------------------------------|


        PM--------------------|          PM-----------------------|
|-------------------------------------------------------------------------|
|-------------------------------------------------------------------------|
|-------------------------------------------------------------------------|
|-------------------------------------------------------------------------|
|--7--------------------------------7-----------------------------------8-|
|-------5--5--5-5--5--5--9----8----------5--5--5-5--5--5--9--8----0-------|
|
|-19h20p==19p16---------19h20p==19-19h20p==19p16---------19h20h23p==19----|
|-----------------17h20----------------------------17h20---------------21-|
|-------------------------------------------------------------------------|
|-------------------------------------------------------------------------|
|-------------------------------------------------------------------------|
|-------------------------------------------------------------------------|


         PM---------------------| 
|-------------------------------------
|-------------------------------------
|-------------------------------------
|-------------------------------------
|--7----------------------------------
|--------5--5--5--5--5--5--9-----8----
|
|-19-19-19-19-15-15-15-15-------------
|-------------------------17-17-17-17-
|-------------------------------------
|-------------------------------------
|-------------------------------------
|-------------------------------------


        PM---------------------|            PM
-------------------------------------------------|
-------------------------------------------------|
-------------------------------------------------|
-------------------------------------------------|
--7-----------------------------------8----------|
--------5--5--5--5--5--5--9-----8-----------5----|

-------------------------------------------------|
-------------------------------------19-19-19-19-|
-16S17-17-17-17-17-16-16-------16-16-------------|
-------------------------19-19-------------------|
-------------------------------------------------|
-------------------------------------------------|


 8/4
         PM---------------------|            PM----------------------------|
|------------------------------------------------------------------------------|
|------------------------------------------------------------------------------|
|------------------------------------------------------------------------------|
|---------------------------------------------------------------------2--4-6---|
|--7-----------------------------------6------------------------------2--4-6---|
|--------5--5--5--5--5--5--9-----8-----------4--4--4--4--4--4-8---7---0--2-4---|
|
|                                                                     \2
|                                                             PM--|
|------------------------------------------------------------------------------|
|-20-20-20-20------------------------------------------------------------------|
|-------------------------------------------------------------------[10]-------|
|------------------------------------------------------------------------------|
|-------------14-14-14-14------------------------------------------------------|
|-------------------------15-15-15-15-11-11-11-11-11-11-11-11-0-0-0------------|


 7/4
  Gtrs I, II
            PM------------|          PM--------------------------|       PM
|--------------------------------------------------------------------------|
|--------------------------------------------------------------------------|
|--------------------------------------------------------------------------|
|--------------------------------------------------------------------------|
|----6------------------------6--------------------------------------7-----|
|-----------4-4-4-4-4-4-8-7----------4-4---4------4-4-4---8------7-------4-|
|
| Gtr III
|    /
|--------------------------------------------------------------------------|
|--------------------------------------------------------------------------|
|-([10])-------------------------------------------------------------------|
|--------------------------------------------------------------------------|
|--------------------------------------------------------------------------|
|--------------------------------------------------------------------------|
|
| Gtr IV
|--------------------------------------------------------------------------|
|--------------------------------------------------------------------------|
|---[9]pb13r================([9])b11r====([9])b11r======([9])b11r==([9])---|
|--------------------------------------------------------------------------|
|--------------------------------------------------------------------------|
|--------------------------------------------------------------------------|


      PM-------------------|                  PM----------------------|
|--------------------------------------------------------------------------|
|--------------------------------------------------------------------------|
|--------------------------------------------------------------------------|
|--------------------------------------------------------------------------|
|--6------------------------------6-------------------------------------7--|
|-----4-4--4-4--4--4--8-----7-----------------4-----4-----4-4-4-4-8-7-0----|
|
|--------------------------------------------------------------------------|
|--------------------------------------------------------------------------|
|--------------------------------------------------------------------------|
|--------------------------------------------------------------------------|
|--------------------------------------------------------------------------|
|--------------------------------------------------------------------------|
|
|                                                         ~~
|--------------------------------------------------------------------------|
|-18-18p==17---17-15-17-15-------------------------------------------------|
|--------------------------17-16-17-17-16-16-17-17-------------------------|
|--------------------------------------------------19-19-18----------------|
|--------------------------------------------------------------------------|
|--------------------------------------------------------------------------|


  Gtrs I, II
               PM---------------------------------------------|           
|-------------------------------------------------------------------------
|-------------------------------------------------------------------------
|-------------------------------------------------------------------------
|-------------------------------------------------------------------------
|--6----------------------------------------------------------------------
|--------------4-----4-----4-----4-----4-----4-----8-----------7----------
|
| Gtr IV
|-------------------------------------------------------------------------
|-------------------------------------------------------------------------
|-------------------------------------------------------11-11-11-13-13-13-
|----------------------------11-11-11-12-12-12-14-14-14-------------------
|-10-10-10-12-12-12-14-14-14----------------------------------------------
|-------------------------------------------------------------------------


  Gtrs I, II
              PM------------------------------
----------------------------------------------
----------------------------------------------
----------------------------------------------
----------------------------------------------
--6-------------------------------------------
--------------4-----4-----4-----4-----4-----4-

 Gtr IV
----------------------------------------------
----------------------------------------------
----------------------------------------------
----------------------------11-11-11-12-12-12-
-10-10-10-12-12-12-14-14-14-------------------
----------------------------------------------


  Gtrs I, II
   PM-----------|                       PM
--------------------------------------------|
--------------------------------------------|
--------------------------------------------|
--------------------------------------------|
-----------------------------7--------------|
-----8-----------7----------------------4---|

 Gtr IV
-------------------------------------20---x-|
--------------------------------------------|
--------------------------------------------|
-14-14-14-14-14-14-16-16-16-17-17-17--------|
--------------------------------------------|
--------------------------------------------|


 8/4
         PM------------------------| 
|----------------------------------------
|----------------------------------------
|----------------------------------------
|----------------------------------------
|--6-------------------------------------
|--------4--4--4--4--4--4-----8-----7----
|
|                                     
|-20-20-20-19-17-16-17h19p17-16----------
|-------------------------------19-17-16-
|----------------------------------------
|----------------------------------------
|----------------------------------------
|----------------------------------------


       PM----------------------------------|
-----------------------------------------------|
-----------------------------------------------|
-----------------------------------------------|
---------------------------------------2-4-6---|
--6------------------------------------2-4-6---|
-------4----4--4--4--4--4--8-----7-----0-2-4---|

                                       ~~
-----------------------------------------------|
-19-17---16---17p16p14----17p16----------------|
-----------------------17-------16-14-16-------|
-----------------------------------------------|
-----------------------------------------------|
-----------------------------------------------|


 7/4
    PM------------|       PM--------------------|            PM
|-----------------------------------------------------------------|
|-----------------------------------------------------------------|
|-----------------------------------------------------------------|
|-----------------------------------------------------------------|
|-7------------------7---------------------------------8----------|
|---5-5-5-5-5-5-9-8-------5--5--5--5--5-5--9-----8-----------5----|
|
| ~
|-------------------20-x-20-20-20-20S19---19-17-19-17-16----------|
|--------------------------------------------------------19-17-17-|
|-----------------------------------------------------------------|
|-7---------------------------------------------------------------|
|-----------------------------------------------------------------|
|-----------------------------------------------------------------|


         PM---------------------|  
|-------------------------------------
|-------------------------------------
|-------------------------------------
|-------------------------------------
|--7----------------------------------
|--------5--5--5--5--5--5--9-----8----
|
|                            
|-------------------------------------
|-19-17-16----------------------------
|----------18-17-18-17-15-17-15-14-15-
|-------------------------------------
|-------------------------------------
|-------------------------------------


       PM----------------------------|
--------------------------------------------------|
--------------------------------------------------|
--------------------------------------------------|
--------------------------------------------------|
--7----------------------------------------8------|
-------5-5--5-5----5----5--9----8----0------------|

                      ~~
--------------------------19-19---17---20-20-19---|
--------------------------------------------------|
-17-18-----18p==17h==18---------------------------|
--------------------------------------------------|
--------------------------------------------------|
--------------------------------------------------|


         PM---------------------|  
|-------------------------------------
|-------------------------------------
|-------------------------------------
|-------------------------------------
|--7----------------------------------
|--------5--5--5--5--5--5--9-----8----
|
|-19-19-16----------------------------
|----------19-17-15-------------------
|-------------------17-16-14----------
|----------------------------17-15-14-
|-------------------------------------
|-------------------------------------


        PM---------------------|            PM
------------------------------------------------|
------------------------------------------------|
------------------------------------------------|
------------------------------------------------|
--7-----------------------------------8---------|
--------5--5--5--5--5--5--9-----8-----------5---|

------------------------------------------------|
-------------------------------------19-16------|
-------------------------------------------17---|
-------------------14-15-17-------------------x-|
-17-16-14-14-16-17----------17-16-14------------|
------------------------------------------------|


 8/4
         PM------------|   PM-------------------------|
|---------------------------------------------------------|
|---------------------------------------------------------|
|---------------------------------------------------------|
|------------------------------------------2-4--------6---|
|--7---------------------6-----------------2-4--------6---|
|--------5-5-5-5-5-5-9-8---4-4-4-4-4-4-8-7-0-2--------4---|
|
|  TP                                           TP
|-24b29========================================24pb29r====|
|---------------------------------------------------------|
|---------------------------------------------------------|
|---------------------------------------------------------|
|---------------------------------------------------------|
|---------------------------------------------------------|


 7/4
      PM--------------------| 
|---------------------------------
|---------------------------------
|---------------------------------
|---------------------------------
|--6------------------------------
|-----4-4--4--4--4--4--8-----7----
|
|-24\-----------------------------
|---------16-13-------------------
|---------------14----------------
|------------------------------17-
|------------------17-14----17----
|------------------------15-------


       PM-------------------------------|            PM
-----------------------------------------------------------|
-----------------------------------------------------------|
-----------------------------------------------------------|
-----------------------------------------------------------|
--6---------------------------------------------7----------|
--------4--4--4----4-----4----4-----8-----7-----------4----|

----------17-----------------------------------------------|
----14-17----17-17h==18p17p15p==14----------------17-16h17-|
-17-----------------------------------------16h17----------|
-----------------------------------14-15-17----------------|
-----------------------------------------------------------|
-----------------------------------------------------------|


         PM---------------------|
|----------------------------------
|----------------------------------
|----------------------------------
|----------------------------------
|--6-------------------------------
|--------4--4--4--4--4--4--8-----7-
|
|-19-20-17-19-17S16----------------
|-------------------------18-18-18-
|-------------------15-17----------
|----------------------------------
|----------------------------------
|----------------------------------


           PM------------------------------|
---------------------------------------------------------|
---------------------------------------------------------|
---------------------------------------------------------|
---------------------------------------------------------|
-----6--------------------------------------------7------|
-----------4--4--4--4--4--4--8-----7--------0------------|

---------------------------------------------------------|
-17p15-17-15-14------------------------------------------|
----------------17-16-14-14-13-11-14-14-13---------------|
-------------------------------------------15-14-17-14---|
---------------------------------------------------------|
---------------------------------------------------------|


         PM-------------------------| 
|-----------------------------------------
|-----------------------------------------
|-----------------------------------------
|-----------------------------------------
|--6--------------------------------------
|--------4----4-----4-4--4--4--8-----7----
|
|                   ~~                
|-----------------------------------------
|-17-14-14h15p==14------------15h18-17-15-
|------------------17---14h16-------------
|-----------------------------------------
|-----------------------------------------
|-----------------------------------------

     PM--------------------|            PM
------------------------------------------------|
------------------------------------------------|
------------------------------------------------|
------------------------------------------------|
--6-------------------------------7-------------|
-----4--4--4--4--4--4-8-----7-----------4-------|

       
----------14S15-14---------------------15-14----|
-17-15h17----------17---15h17-15h17-15-------17-|
------------------------------------------------|
------------------------------------------------|
------------------------------------------------|
------------------------------------------------|


 8/4
         PM--------------------|
|------------------------------------
|------------------------------------
|------------------------------------
|------------------------------------
|--6---------------------------------
|--------4--4--4--4-4--4--8-----7----
|
|----------15-14---------------15-14-
|-15h17-15-------17---15h17-15-------
|------------------------------------
|------------------------------------
|------------------------------------
|------------------------------------



     PM-------------------------------------------|
----------------------------------------------------------|
----------------------------------------------------------|
----------------------------------------------------------|
----------------------------------4-------6-------7-------|
--6-------------------------------4-------6-------7-------|
-----4--4--4--4--4--4-8-----7-----2-------4-------5-------|

-------------15-14---------------15-17-20---20-20---19-17-|
-17-15h17-15-------17---15h17h18--------------------------|
----------------------------------------------------------|
----------------------------------------------------------|
----------------------------------------------------------|
----------------------------------------------------------|

                                 Q=160
 2/4                            4/4
   PM----------------------------|
|------------------------------|----------|
|------------------------------|----------|
|------------------------------|----------|
|--5-------6----------7--------|-2--------|
|--5-------6----------7--------|-2--------|
|--3-------4----------5--------|-0--------|
|
|                                \1.5
|------------------------------|-0--------|
|-18-15-15---17-17-14---14-15\-|-0--------|
|------------------------------|----------|
|------------------------------|----------|
|------------------------------|----------|
|------------------------------|----------|


 Bridge
    PM-------------------
|----------------------------------|
|----------------------------------|
|----------------------------------|
|---3--5-6-2-4----------6----------|
|---3--5-6-2-4----------6----------|
|---1--3-4-0-2----------4----------|
|
|   \2            \1.5/      \1.5/ 
|----------------------------------|
|----------------------------------|
|-[16]---------([16])-----([16])---|
|----------------------------------|
|----------------------------------|
|----------------------------------|


    PM------------------------------------------------------------------
|------------------------------------------------------------------------|
|------------------------------------------------------------------------|
|------------------------------------------------------------------------|
|----3--------------5----------6-------------2--------------4----------6-|
|----3--------------5----------6-------------2--------------4----------6-|
|----1--------------3----------4-------------0--------------2----------4-|
|
|  \1.5/    \1.5/      \1.5/      \1.5/    \1.5/    \1.5/      \1.5/
|------------------------------------------------------------------------|
|------------------------------------------------------------------------|
|-([16])---([16])-----([16])-----([16])---([16])---([16])-----([16])-----|
|------------------------------------------------------------------------|
|------------------------------------------------------------------------|
|------------------------------------------------------------------------|

 -----------------
|--------------------|
|--------------------|
|--------------------|
|---3----5-6-2-4-6---|
|---3----5-6-2-4-6---|
|---1----3-4-0-2-4---|
|
|   \2.5             
|-[19]---------------|
|--------------------|
|--------------------|
|--------------------|
|--------------------|
|--------------------|


 ------------------------------------------------------------|
|----------------------------------------------------------------------|
|----------------------------------------------------------------------|
|----------------------------------------------------------------------|
|----3---5----------6--------------2-------------4----------6----------|
|----3---5----------6--------------2-------------4----------6----------|
|----1---3----------4--------------0-------------2----------4----------|
|
|            \1.5/      \1.25/    \1/    \0.75/      \0.5/      \0.5/
|-([19])---([19])-----([19])----([19])-([19])------([19])-----([19])---|
|----------------------------------------------------------------------|
|----------------------------------------------------------------------|
|----------------------------------------------------------------------|
|----------------------------------------------------------------------|
|----------------------------------------------------------------------|


  PM--------------------------------------------------|
|-------------|-------------|-------------|--------------|
|-------------|-------------|-------------|--------------|
|-------------|-------------|-------------|--------------|
|-3-5-6-2-4-6-|-3-5-6-2-4-6-|-3-5-6-2-4-6-|-3-5-6-2-4-6--|
|-3-5-6-2-4-6-|-3-5-6-2-4-6-|-3-5-6-2-4-6-|-3-5-6-2-4-6--|
|-1-3-4-0-2-4-|-1-3-4-0-2-4-|-1-3-4-0-2-4-|-1-3-4-0-2-4--|


  Gtr I
  PM-------------------------------------------------
|-------------------------|-------------------------|
|-------------------------|-------------------------|
|-------------------------|-------------------------|
|-3---5---6---2---4---6---|-3---5---6---2---4---6---|
|-3---5---6---2---4---6---|-3---5---6---2---4---6---|
|-1---3---4---0---2---4---|-1---3---4---0---2---4---|
|
| Gtr II
| PM-------------------------------------------------
|-------------------------|-------------------------|
|-------------------------|-------------------------|
|-------------------------|-------------------------|
|-9---9---8---8---8---8---|-8---8---7---7---8---8---|
|---7---7---6---6---6---6-|---6---6---5---5---6---6-|
|-------------------------|-------------------------|


 -----------------------------------------------|
|-------------------------|----------------------------|
|-------------------------|----------------------------|
|-------------------------|----------------------------|
|-3---5---6---2---4---6---|-3---5---6---2---4---6------|
|-3---5---6---2---4---6---|-3---5---6---2---4---6------|
|-1---3---4---0---2---4---|-1---3---4---0---2---4------|
|
|-------------------------------------------------|
|-------------------------|----------------------------|
|-------------------------|----------------------------|
|-------------------------|----------------------------|
|-9---9---9---8---8---8---|-8---8---7---7---8---8------|
|---7---7---7---6---6---6-|---6---6---5---5---6---6----|
|-------------------------|----------------------------|


    PM-------------------------------------------------
||--------------------------|-------------------------|
||o-------------------------|-------------------------|
||--------------------------|-------------------------|
||--------------------------|-------------------------|
||o-7---7---6---6---6---6---|-6---6---5---5---6---6---|
||----5---5---4---4---4---4-|---4---4---3---3---4---4-|
|
|   PM-------------------------------------------------
||--------------------------|-------------------------|
||o-------------------------|-------------------------|
||--------------------------|-------------------------|
||--9---9---8---8---8---8---|-8---8---7---7---8---8---|
||o---7---7---6---6---6---6-|---6---6---5---5---6---6-|
||--------------------------|-------------------------|


 -------------------------------------------------|
|-------------------------|-----------------------------||
|-------------------------|----------------------------o||
|-------------------------|-----------------------------||
|-------------------------|-----------------------------||
|-7---7---7---6---6---6---|-6---6---5---5---6---6------o||
|---5---5---5---4---4---4-|---4---4---3---3---4---4-----||
|
|-------------------------------------------------|
|-------------------------|-----------------------------||
|-------------------------|----------------------------o||
|-------------------------|-----------------------------||
|-9---9---9---8---8---8---|-8---8---7---7---8---8-------||
|---7---7---7---6---6---6-|---6---6---5---5---6---6----o||
|-------------------------|-----------------------------||


    Gtrs I, II
    PM--------------------------------------------------|
||--------------|-------------|-------------|--------------||
||o-------------|-------------|-------------|-------------o||
||--------------|-------------|-------------|--------------||
||--3-5-6-2-4-6-|-3-5-6-2-4-6-|-3-5-6-2-4-6-|-3-5-6-2-4-6--||
||o-3-5-6-2-4-6-|-3-5-6-2-4-6-|-3-5-6-2-4-6-|-3-5-6-2-4-6-o||
||--1-3-4-0-2-4-|-1-3-4-0-2-4-|-1-3-4-0-2-4-|-1-3-4-0-2-4--||


 Pre-Chorus
  Q=220
 3/4
  Gtr I
  PM---|   PM  PM-------|   PM  PM-------|   PM  PM-------|   PM
|----------------|----------------|----------------|----------------|--------|
|----------------|------------2---|----------------|----------------|--------|
|------------1---|----------------|------------1---|------------2\--|--------|
|--------4-------|--------4-------|--------4-------|--------4-------|-4------|
|----------------|----------------|----------------|----------------|-4------|
|-2-2--2---2---2-|-2-2--2---2---2-|-2-2--2---2---2-|-2-2--2---2-----|-2------|
|
| Gtr II
|----------------|----------------|----------------|----------------|--------|
|----------------|----------------|----------------|----------------|--------|
|----------------|----------------|----------------|----------------|--------|
|-4--------------|-4--------------|-4--------------|-4--------------|-4------|
|-4--------------|-4--------------|-4--------------|-4--------------|-4------|
|-2--------------|-2--------------|-2--------------|-2--------------|-2------|


   Chorus
    Q=200
   6/4
    Gtrs I, II
    PM|    PM   PM   PM   PM   PM----|    PM   PM   PM   PM   PM
||-------------------------------|------------------------------|
||o------------------------------|------------------------------|
||-------------------------------|------------------------------|
||------11---11---12---11---11---|-----10---10---11---10---10---|
||o---9----9----9----9----9----9-|---8----8----8----8----8----8-|
||--9------9----9----9----9----9-|-8------8----8----8----8----8-|


  PM|    PM   PM   PM   PM   PM-----|      PM    PM---|      PM    PM---
                                                                      4x
|------------------------------|--------------------------------------||
|------------------------------|-------------------------------------o||
|------------------------------|--------------------------------------||
|-----11---11---12---11---11---|-------15----14----------14----13-----||
|---9----9----9----9----9----9-|----12----12----12----11----11----11-o||
|-9------9----9----9----9----9-|-12-------12----12-11-------11----11--||


 ----|      PM    PM---|      PM    PM
|--------------------------------------|
|--------------------------------------|
|--------------------------------------|
|-------13----12----------17----16-----|
|----10----10----10----14----14----14--|
|-10-------10----10-14-------14----14--|


 Verse A
  Q=220
 3/4
  PM--|   PM  PM------|   PM  PM------|   PM  PM-
|---------------|---------------|---------------|
|---------------|---------------|---------------|
|-----------1---|-----------2---|-----------1---|
|-------4-------|-------4-------|-------4-------|
|---------------|---------------|---------------|
|-2-2-2---2---2-|-2-2-2---2---2-|-2-2-2---2---2-|


 -----|   PM  PM--------------|
|---------------|----------------|
|---------------|----------------|
|-----------2---|----------------|
|-------4-------|----------------|
|---------------|-------7-8-6-7--|
|-2-2-2---2---2-|-2-2-2-5-6-4-5--|


  Gtr I
  PM--|   PM  PM------|   PM  PM------|   PM  PM-
|---------------|---------------|---------------|
|---------------|---------------|---------------|
|---------------|---------------|---------------|
|-------2---4---|-------2---5---|-------2---4---|
|---------------|---------------|---------------|
|-1-1-1---1---1-|-1-1-1---1---1-|-1-1-1---1---1-|
|
| Gtr II
| PM--|   PM  PM------|   PM  PM------|   PM  PM-
|---------------|---------------|---------------|
|---------------|---------------|---------------|
|---------------|---------------|---------------|
|-------2---4---|-------2---5---|-------2---4---|
|---------------|---------------|---------------|
|-1-1-1---1---1-|-1-1-1---1---1-|-1-1-1---1---1-|


 -----------------------------|
|---------------|----------------|
|---------------|----------------|
|---------------|----------------|
|-------7-8-7---|----7-8-7----7--|
|-------------9-|-10-------10----|
|-0-0-0---------|----------------|
|
|-----------------------------|
|---------------|----------------|
|---------------|----------------|
|---------------|----------------|
|-------4-5-4---|----4-5-4----4--|
|-------------6-|--7--------7----|
|-0-0-0---------|----------------|


  PM--|   PM  PM------|   PM  PM------|   PM  PM-
|---------------|---------------|---------------|
|---------------|-----------2---|---------------|
|-----------1---|---------------|-----------1---|
|-------4-------|-------4-------|-------4-------|
|---------------|---------------|---------------|
|-2-2-2---2---2-|-2-2-2---2---2-|-2-2-2---2---2-|
|
| PM--|   PM  PM------|   PM  PM------|   PM  PM-
|---------------|---------------|---------------|
|---------------|-----------2---|---------------|
|-----------1---|---------------|-----------1---|
|-------4-------|-------4-------|-------4-------|
|---------------|---------------|---------------|
|-2-2-2---2---2-|-2-2-2---2---2-|-2-2-2---2---2-|


 -----|   PM      PM------|
|---------------|------------------|
|---------------|------------------|
|-----------1h2-|-----------2h3p2--|
|-------4-------|-------4----------|
|---------------|------------------|
|-2-2-2---2-----|-2-2-2---2--------|
|
|-----|   PM      PM------|
|---------------|------------------|
|---------------|------------------|
|-----------4h5-|-----------5h7p5--|
|-------4-------|-------4----------|
|---------------|------------------|
|-2-2-2---2-----|-2-2-2---2--------|


  PM--|   PM  PM------|   PM  PM------|   PM  PM-
|---------------|---------------|---------------|
|---------------|---------------|---------------|
|---------------|---------------|---------------|
|-------2---4---|-------2---5---|-------2---4---|
|---------------|---------------|---------------|
|-1-1-1---1---1-|-1-1-1---1---1-|-1-1-1---1---1-|
|
| PM--|   PM  PM------|   PM  PM------|   PM  PM-
|---------------|---------------|---------------|
|---------------|---------------|---------------|
|---------------|---------------|---------------|
|-------2---4---|-------2---5---|-------2---4---|
|---------------|---------------|---------------|
|-1-1-1---1---1-|-1-1-1---1---1-|-1-1-1---1---1-|


 -----------------------------|
|---------------|----------------|
|---------------|----------------|
|---------------|----------------|
|-------7-8-7---|----7-8-7----7--|
|-------------9-|-10-------10----|
|-0-0-0---------|----------------|
|
|-----------------------------|
|---------------|----------------|
|---------------|----------------|
|---------------|----------------|
|-------4-5-4---|----4-5-4----4--|
|-------------6-|--7--------7----|
|-0-0-0---------|----------------|


 Verse B
  Q=190
 4/4           6/4
  Gtrs I, II
  PM--------|      PM----------------|      PM----|    PM----|
|-------------|------------------------|------------------------|
|-------------|------------------------|------------------------|
|-------------|----2-3-2-----2-3-2---2-|----1-2-1------1-2-1----|
|-5-4-4-4-3-3-|-3--------4-5-------5---|-2--------3-2--------3--|
|-5-4-4-4-3-3-|-3----------------------|-2----------2-----------|
|-3-2-2-2-1-1-|-1----------------------|-0----------0-----------|


 4/4           6/4
  Gtrs I, II
  PM--------|      PM----------------|      PM----|
|-------------|------------------------|------------------------|
|-------------|------------------------|------------------------|
|-------------|----2-3-2-----2-3-2---2-|----1-2-1---------------|
|-5-4-4-4-3-3-|-3--------4-5-------5---|-2--------3-2--1S2-2S3--|
|-5-4-4-4-3-3-|-3----------------------|-2----------2--1S2-2S3--|
|-3-2-2-2-1-1-|-1----------------------|-0----------0--0-0-0-0--|


 4/4           6/4
  Gtr I
  PM--------|      PM----------------|      PM----|    PM----|
|-------------|------------------------|------------------------|
|-------------|------------------------|------------------------|
|-------------|----2-3-2-----2-3-2---2-|----1-2-1------1-2-1----|
|-5-4-4-4-3-3-|-3--------4-5-------5---|-2--------3-2--------3--|
|-5-4-4-4-3-3-|-3----------------------|-2----------2-----------|
|-3-2-2-2-1-1-|-1----------------------|-0----------0-----------|
|
| Gtr II
| PM--------|      PM----------------|      PM----|    PM----|
|-------------|------------------------|------------------------|
|-------------|------------------------|------------------------|
|-------------|------------------------|------------------------|
|-5-4-4-4-3-3-|-3--4-5-4-----4-5-4---4-|-2--3-4-3---2--3-4-3----|
|-5-4-4-4-3-3-|-3--------6-7-------7---|-2--------5-2--------5--|
|-3-2-2-2-1-1-|-1----------------------|-0----------0-----------|


 4/4           6/4
  Gtr I
  PM--------|      PM----------------|
|-------------|------------------------|
|-------------|------------------------|
|-------------|----2-3-2-----2-3-2---2-|
|-5-4-4-4-3-3-|-3--------4-5-------5---|
|-5-4-4-4-3-3-|-3----------------------|
|-3-2-2-2-1-1-|-1----------------------|
|
| Gtr II
| PM--------|      PM----------------|
|-------------|------------------------|
|-------------|------------------------|
|-------------|------------------------|
|-5-4-4-4-3-3-|-3--4-5-4-----4-5-4---4-|
|-5-4-4-4-3-3-|-3--------6-7-------7---|
|-3-2-2-2-1-1-|-1----------------------|


                       4/4
     PM----|            PM--------|
|---------------------|-------------|--------*|
|---------------------|-------------|--------*|
|----1-2-1------------|-------------|--------*|
|-2--------3-2--4-5-6-|-5-4-4-4-3-3-|-2------*|
|-2----------2--2-3-4-|-5-4-4-4-3-3-|-2------*|
|-0----------0--------|-3-2-2-2-1-1-|-0------*|
|
|    PM----|            PM--------|
|---------------------|-------------|--------*|
|---------------------|-------------|--------*|
|---------------------|-------------|--------*|
|-2--3-4-3---2--4-5-6-|-5-4-4-4-3-3-|-2------*|
|-2--------5-2--2-3-4-|-5-4-4-4-3-3-|-2------*|
|-0----------0--------|-3-2-2-2-1-1-|-0------*|


Tablature Legend
----------------
 h   - hammer-on
 p   - pull-off
 b   - bend
 pb  - pre-bend
 r   - bend release (if no number after the r, then release immediately)
 /\  - slide into or out of (from/to "nowhere")
 s   - legato slide
 S   - shift slide
<n>  - natural harmonic
[n]  - artificial harmonic
n(n) - tapped harmonic
 ~   - vibrato
 tr  - trill
 T   - tap
 TP  - trem. picking
 PM  - palm muting
\n/  - tremolo bar dip; n = amount to dip
 \n  - tremolo bar down
 n/  - tremolo bar up
/n\  - tremolo bar inverted dip
 =   - hold bend; also acts as connecting device for hammers/pulls
 <>  - volume swell (louder/softer)
 x   - on rhythm slash represents muted slash
 o   - on rhythm slash represents single note slash

Misc Legend
-----------
 |  - bar
||  - double bar
||o - repeat start
o|| - repeat end
*|  - double bar (ending)
 :  - bar (freetime)
 $  - Segno
 &  - Coda
Tempo markers - <E/E./Q/Q./H/H.> = BPM(8/16=s8/s16), 
where s8 = swing 8ths, s16 = swing 16ths
comments
We did not receive enough feedback on this tab! Please rate:
print report bad tab
1 2 3 4 5
I want to post or [tab]
guest
You may want to rate the tab now too:
select rating
Please do not post tabs as comments. Select "correction" instead!