Oops, an error
Loading. Please wait.

Destruction Of A Statue Tab

ver2
ver2

Whole song

Interactive

More versions @911Tabs.com
7,134 views 18 this week
2 commentsread comments
1 2 3 4 5
excellent!
x 5
Autoscroll
+/-
esc
set tempo
stop
Contributor
Difficulty
Tuning
advanced
A E A D F# B
Hey! There's an official Ultimate Guitar app which is ideal
for learning songs when you're away from computer. Get the app
WARNING: You are trying to view
                                    content from Ultimate-Guitar.com
                                    in an unauthorized application,
                                    which is prohibited.

                                    Please use an official Ultimate
                                    Guitar Tabs application for iPhone,
                                    iPad or Android to access legitimate
                                    chords, guitar, bass, and drum tabs
                                    from Ultimate-Guitar.com database.

                                    Type "ultimate guitar tabs" in Apple
                                    App Store's or Android Market's
                                    search to find the application.
----------------------------------------------------------------------------
                       "Destruction of a Statue"
                            Suicide Silence
                             The Cleansing
----------------------------------------------------------------------------

I Take No Credit For This..
Just Tabbed For Those Who Dont Have Guitar Pro..
You Can Hate Me Or Thank Me At:
damianyazzie@yahoo.com
Enjoy!!!



Intro:
  Gtr. 1
|---------------------------------------------------------------------|
|---------------------------------------------------------------------|
|---------------------------------------------------------------------|
|---------4-4---------4-4---------4---------4-4---------4-4---------4-|
|---------------------------------------------------------------------|
|-3-3-3-3-----3-3-3-3-----3-3-3-3---3-3-3-3-----3-3-3-3-----3-3-3-3---|
| . . . .     . . . .     . . . .   . . . .     . . . .     . . . .   |
|                                                                     |
| Gtr. 2                                                              |
|---------------------------------------------------------------------|
|---------------------------------------------------------------------|
|---------------------------------------------------------------------|
|---------4-4---------4-4---------4---------4-4---------4-4---------4-|
|---------------------------------------------------------------------|
|-3-3-3-3-----3-3-3-3-----3-3-3-3---3-3-3-3-----3-3-3-3-----3-3-3-3---|
  . . . .     . . . .     . . . .   . . . .     . . . .     . . . .

  
  Gtr. 1
|-------------------------------------------------------------------------|
|-------------------------------------------------------------------------|
|-------------------------------------------------------------------------|
|---------4-4---------4-4---------4---------4-4---------4-4---------4-4-4-|
|-------------------------------------------------------------------------|
|-3-3-3-3-----3-3-3-3-----3-3-3-3---3-3-3-3-----3-3-3-3-----3-3-3-3-------|
| . . . .     . . . .     . . . .   . . . .     . . . .     . . . .       |
|                                                                         |
| Gtr. 2                                                                  |
|-------------------------------------------------------------------------|
|-------------------------------------------------------------------------|
|-------------------------------------------------------------------------|
|---------4-4---------4-4---------4---------4-4---------4-4---------4-4-4-|
|-------------------------------------------------------------------------|
|-3-3-3-3-----3-3-3-3-----3-3-3-3---3-3-3-3-----3-3-3-3-----3-3-3-3-------|
  . . . .     . . . .     . . . .   . . . .     . . . .     . . . .


  Gtr. 1
|-------------------------------------------------|
|-------------------------------------------------|
|-------------------------------------------------|
|-----------------------4-4---------4-4---------4-|
|-2-1-0-1-2-1-0-----------------------------------|
|-2-1-0-1-2-1-0-3-3-3-3-----3-3-3-3-----3-3-3-3---|
| . . . . . . . . . . .     . . . .     . . . .   |
|                                                 |
| Gtr. 2                                          |
|-------------------------------------------------|
|-------------------------------------------------|
|-------------------------------------------------|
|-----------------------4-4---------4-4---------4-|
|-2-1-0-1-2-1-0-----------------------------------|
|-2-1-0-1-2-1-0-3-3-3-3-----3-3-3-3-----3-3-3-3---|
  . . . . . . . . . . .     . . . .     . . . .   


  Gtr. 1
|-------------------------------------------------------------------------|
|-------------------------------------------------------------------------|
|-------------------------------------------------------------------------|
|---------4-4---------4-4---------4---------4-4---------4-4---------4-4-4-|
|-------------------------------------------------------------------------|
|-3-3-3-3-----3-3-3-3-----3-3-3-3---3-3-3-3-----3-3-3-3-----3-3-3-3-------|
| . . . .     . . . .     . . . .   . . . .     . . . .     . . . .       |
|                                                                         |
| Gtr. 2                                                                  |
|-------------------------------------------------------------------------|
|-------------------------------------------------------------------------|
|-------------------------------------------------------------------------|
|---------4-4---------4-4---------4---------4-4---------4-4---------4-4-4-|
|-------------------------------------------------------------------------|
|-3-3-3-3-----3-3-3-3-----3-3-3-3---3-3-3-3-----3-3-3-3-----3-3-3-3-------|
  . . . .     . . . .     . . . .   . . . .     . . . .     . . . .


  Gtr. 1
|-----------------|-|-------------------------------------------------|
|-----------------|-|-------------------------------------------------|
|-----------------|-|-------------------------------------------------|
|-----------------|-|-------0-0-0-------------------------------4-4-4-|
|-2-1-0-1-2-1-0-1-|-|-------------1-1-1-------------------1-1-1-------|
|-2-1-0-1-2-1-0-1-|-|-0-0-0-------------4-4-4-0-0-0-4-4-4-------------|
| . . . . . . . .                                                     |
|                                                                     |
| Gtr. 2                                                              |
|-----------------|-|-------------------------------------------------|
|-----------------|-|-------------------------------------------------|
|-----------------|-|-------------------------------------------------|
|-----------------|-|-------0-0-0-------------------------------4-4-4-|
|-2-1-0-1-2-1-0-1-|-|-------------1-1-1-------------------1-1-1-------|
|-2-1-0-1-2-1-0-1-|-|-0-0-0-------------4-4-4-0-0-0-4-4-4-------------|
  . . . . . . . . 


  Gtr. 1
|-------------------------------------------------|-|-----------------|
|-------------------------------------------------|-|-----------------|
|-------------------------------------------------|-|-----------------|
|-------0-0-0-------------------------------4-4-4-|-|-0-1-0-1-2-1-0-1-|
|-------------1-1-1-------------------1-1-1-------|-|-0-1-0-1-2-1-0-1-|
|-0-0-0-------------4-4-4-0-0-0-4-4-4-------------|-|-0-1-0-1-2-1-0-1-|
|                                                                     |
|                                                                     |
| Gtr. 2                                                              |
|-------------------------------------------------|-|-----------------|
|-------------------------------------------------|-|-----------------|
|-------------------------------------------------|-|-----------------|
|-------0-0-0-------------------------------4-4-4-|-|-0-1-0-1-2-1-0-1-|
|-------------1-1-1-------------------1-1-1-------|-|-0-1-0-1-2-1-0-1-|
|-0-0-0-------------4-4-4-0-0-0-4-4-4-------------|-|-0-1-0-1-2-1-0-1-|



 Gtr. 1
|------------------------------------------------------------------------|
|------------------------------------------------------------------------|
|------------------------------------------------------------------------|
|-0-1-0-1-2-1-0-1-0-1-0-1-2-1-0-1--------0-1-0-1-2-1-0-1-0-1-0-1-2-1-0-1-|
|-0-1-0-1-2-1-0-1-0-1-0-1-2-1-0-1--------0-1-0-1-2-1-0-1-0-1-0-1-2-1-0-1-|
|-0-1-0-1-2-1-0-1-0-1-0-1-2-1-0-1--------0-1-0-1-2-1-0-1-0-1-0-1-2-1-0-1-|
|                                                                        |
|                                                                        |
| Gtr. 2                                                                 |
|------------------------------------------------------------------------|
|------------------------------------------------------------------------|
|------------------------------------------------------------------------|
|-0-1-0-1-2-1-0-1-0-1-0-1-2-1-0-1--------0-1-0-1-2-1-0-1-0-1-0-1-2-1-0-1-|
|-0-1-0-1-2-1-0-1-0-1-0-1-2-1-0-1-3(p.h)-0-1-0-1-2-1-0-1-0-1-0-1-2-1-0-1-|
|-0-1-0-1-2-1-0-1-0-1-0-1-2-1-0-1--------0-1-0-1-2-1-0-1-0-1-0-1-2-1-0-1-|


  Gtr. 1
|------------------------------|-|
|------------------------------|-|
|------------------------------|-|
|-0-1-0-1-2-1-0-1-0---------3--|-|
|-0-1-0-1-2-1-0-1------1-------|-|
|-0-1-0-1-2-1-0-1--------------|-|                                
|                                |                         
|                                |       
| Gtr. 2                         |                             
|------------------------------|-|
|------------------------------|-|
|------------------------------|-|
|-0-1-0-1-2-1-0-1-0---------3--|-|
|-0-1-0-1-2-1-0-1------1-------|-|
|-0-1-0-1-2-1-0-1--------------|-|


  Gtr. 1-2x
|-------------------------------------------------------|
|-------------------------------------------------------|
|-------------------------------------------------------|
|-2-1-2-1-5-1-2-1-2-1-2-5-1-2-1-2-1-2-5-1-2-1-0-------3-|
|-2-1-2-1-5-1-2-1-2-1-2-5-1-2-1-2-1-2-5-1-2-1-----1-----|
|-2-1-2-1-5-1-2-1-2-1-2-5-1-2-1-2-1-2-5-1-2-1-----------|
| . . . . . . . . . . . . . . . . . . . . . .           |
|                                                       |
| Gtr. 2-2x                                             |
|-------------------------------------------------------|
|-------------------------------------------------------|
|-------------------------------------------------------|
|-2-1-2-1-5-1-2-1-2-1-2-5-1-2-1-2-1-2-5-1-2-1-0-------3-|
|-2-1-2-1-5-1-2-1-2-1-2-5-1-2-1-2-1-2-5-1-2-1-----1-----|
|-2-1-2-1-5-1-2-1-2-1-2-5-1-2-1-2-1-2-5-1-2-1-----------|
  . . . . . . . . . . . . . . . . . . . . . .



  Gtr. 1-2x
|--------------------------------------------------|
|--------------------------------------------------|
|--------------------------------------------------|
|--------0-0-0-------------------------------4-4-4-|
|--------------1-1-1-------------------1-1-1-------|
|--0-0-0-------------4-4-4-0-0-0-4-4-4-------------|
|                                                  |
|                                                  |
| Gtr. 20-2x                                       |
|--------------------------------------------------|
|--------------------------------------------------|
|--------------------------------------------------|
|-0-0----------------------0-0---------------------|
|-0-0----------------------0-0---------------------|
|-0-0----------------------0-0---------------------|
  . .                      . . 


 Gtr. 1-6x
|--------------------------------------------------|
|--------------------------------------------------|
|--------------------------------------------------|
|--------0-0-0-------------------------------4-4-4-|
|--------------1-1-1-------------------1-1-1-------|
|--0-0-0-------------4-4-4-0-0-0-4-4-4-------------|
|                                                  |
|                                                  |
| Gtr. 20-6x                                       |
|--------------------------------------------------|
|--------------------------------------------------|
|--------------------------------------------------|
|--------0-0-0-------------------------------4-4-4-|
|--------------1-1-1-------------------1-1-1-------|
|--0-0-0-------------4-4-4-0-0-0-4-4-4-------------|


  Gtr. 1
|---------------------------------------------------------------------|
|---------------------------------------------------------------------|
|---------------------------------------------------------------------|
|---------4-4---------4-4---------4---------4-4---------4-4---------4-|
|---------------------------------------------------------------------|
|-3-3-3-3-----3-3-3-3-----3-3-3-3---3-3-3-3-----3-3-3-3-----3-3-3-3---|
| . . . .     . . . .     . . . .   . . . .     . . . .     . . . .   |
|                                                                     |
| Gtr. 2                                                              |
|---------------------------------------------------------------------|
|---------------------------------------------------------------------|
|---------------------------------------------------------------------|
|---------4-4---------4-4---------4---------4-4---------4-4---------4-|
|---------------------------------------------------------------------|
|-3-3-3-3-----3-3-3-3-----3-3-3-3---3-3-3-3-----3-3-3-3-----3-3-3-3---|
  . . . .     . . . .     . . . .   . . . .     . . . .     . . . .

  
  Gtr. 1
|--------------------------------------------------------------------------|
|--------------------------------------------------------------------------|
|--------------------------------------------------------------------------|
|---------4-4---------4-4---------4---------4-4---------4-4---------4-4----|
|-----------------------------------------------------------------------5--|
|-3-3-3-3-----3-3-3-3-----3-3-3-3---3-3-3-3-----3-3-3-3-----3-3-3-3--------|
| . . . .     . . . .     . . . .   . . . .     . . . .     . . . .        |
|                                                                          |
| Gtr. 2                                                                   |
|--------------------------------------------------------------------------|
|--------------------------------------------------------------------------|
|--------------------------------------------------------------------------|
|---------4-4---------4-4---------4---------4-4---------4-4---------4-4----|
|-----------------------------------------------------------------------5--|
|-3-3-3-3-----3-3-3-3-----3-3-3-3---3-3-3-3-----3-3-3-3-----3-3-3-3--------|
  . . . .     . . . .     . . . .   . . . .     . . . .     . . . .


  Gtr. 1-2x
|--------------------------------------|
|--------------------------------------|
|--------------------------------------|
|--------------------------------------|
|-0-0-0-0-0-0------0-0-0-0-0-0-0-0-0-0-|
|-0-0-0-0-0-0------0-0-0-0-0-0-0-0-0-0-|
| . . . . . .      . . . . . . . . . . |
|                                      |
| Gtr. 2-2x                            |
|--------------------------------------|
|--------------------------------------|
|--------------------------------------|
|--------------------------------------|
|-0-0-0-0-0-0------0-0-0-0-0-0-0-0-0-0-|
|-0-0-0-0-0-0------0-0-0-0-0-0-0-0-0-0-|
  . . . . . .      . . . . . . . . . . 


  Gtr. 1
|--------------------------------------------------------------------------|
|--------------------------------------------------------------------------|
|--------------------------------------------------------------------------|
|-/12\---------4-4---------4-4---------4---------4-4---------4-4---------4-|
|-/12\---------------------------------------------------------------------|
|-/12\-3-3-3-3-----3-3-3-3-----3-3-3-3---3-3-3-3-----3-3-3-3-----3-3-3-3---|
|      . . . .     . . . .     . . . .   . . . .     . . . .     . . . .   |
|                                                                          |
| Gtr. 2                                                                   |
|--------------------------------------------------------------------------|
|--------------------------------------------------------------------------|
|--------------------------------------------------------------------------|
|-/12\---------4-4---------4-4---------4---------4-4---------4-4---------4-|
|-/12\---------------------------------------------------------------------|
|-/12\-3-3-3-3-----3-3-3-3-----3-3-3-3---3-3-3-3-----3-3-3-3-----3-3-3-3---|
       . . . .     . . . .     . . . .   . . . .     . . . .     . . . . 


  Gtr. 1
|-----------------------------------|
|-----------------------------------|
|-----------------------------------|
|---------4-4---------4-4---------4-|
|-----------------------------------|
|-3-3-3-3-----3-3-3-3-----3-3-3-3---|
| . . . .     . . . .     . . . .   |
|                                   |
| Gtr. 2                            |
|-----------------------------------|
|-----------------------------------|
|-----------------------------------|
|---------4-4---------4-4---------4-|
|-----------------------------------|
|-3-3-3-3-----3-3-3-3-----3-3-3-3---|
  . . . .     . . . .     . . . . 


  Gtr. 1
|------------------------------------------------------------|
|------------------------------------------------------------|
|------------------------------------------------------------|
|-----------------5------------------------------------------|
|-----5---7---8-------8---7---8-----8---10---8-----5---7---8-|
|-0-0---0---0---0---0---0---0---8-8---8----8---5-5---5---5---|
| . .   .   .   .   .   .   .   . .   .    .   . .   .   .   |
|                                                            |
| Gtr. 2                                                     |
|------------------------------------------------------------|
|------------------------------------------------------------|
|------------------------------------------------------------|
|-----------------5------------------------------------------|
|-----5---7---8-------8---7---8-----8---10---8-----5---7---8-|
|-0-0---0---0---0---0---0---0---8-8---8----8---5-5---5---5---|
  . .   .   .   .   .   .   .   . .   .    .   . .   .   .


  Gtr. 1
|------------------------------------------------------------|
|------------------------------------------------------------|
|------------------------------------------------------------|
|-----------------5---------------------7--------------------|
|-----5---7---8-------8---7---8-----8-------10-----3---8---5-|
|-0-0---0---0---0---0---0---0---8-8---8---8----5-5---5---5---|
| . .   .   .   .   .   .   .   . .   .   .    . .   .   .   |
|                                                            |
| Gtr. 2                                                     |
|------------------------------------------------------------|
|------------------------------------------------------------|
|------------------------------------------------------------|
|-----------------5---------------------7--------------------|
|-----5---7---8-------8---7---8-----8-------10-----3---8---5-|
|-0-0---0---0---0---0---0---0---8-8---8---8----5-5---5---5---|
  . .   .   .   .   .   .   .   . .   .   .    . .   .   .


  Gtr. 1
|-------------------------------------------------|
|-------------------------------------------------|
|-------------------------------------------------|
|------------5"-----------------------------------|
|---5"-7"-8"----8"-7"-8"---8"-10"-8"---5"-7"-8"---|
|-0----------------------8-----------5----------0-|
|                                                 |
|                                                 |
| Gtr.2                                           |
|-------------------------------------------------|
|-------------------------------------------------|
|-------------------------------------------------|
|------------5"-----------------------------------|
|---5"-7"-8"----8"-7"-8"---8"-10"-8"---5"-7"-8"---|
|-0----------------------8-----------5----------0-|



  Gtr. 1
|-----------------------------------------------|
|-----------------------------------------------|
|-----------------------------------------------|
|------------5"---------------7"----------------|
|---5"-7"-8"----8"-7"-8"---8"----10"---3"-8"-5"-|
|-0----------------------8-----------5----------|
|                                               |
|                                               |
| Gtr. 2                                        |
|-----------------------------------------------|
|-----------------------------------------------|
|-----------------------------------------------|
|------------5"---------------7"----------------|
|---5"-7"-8"----8"-7"-8"---8"----10"---3"-8"-5"-|
|-0----------------------8-----------5----------|


  Gtr. 1
|---------------------------------------------------|
|---------------------------------------------------|
|---------------------------------------------------|
|-6-----------6-----------5------5--5------5--------|
|-5-----------6-----------2------2--2------2--------|
|-6-----------6-----------2------2--2------2--------|
|                                .  .               |
|                                                   |
| Gtr. 2                                            |
|---------------------------------------------------|
|---------------------------------------------------|
|---------------------------------------------------|
|-6-----------6-----------5------5--5------5--------|
|-5-----------6-----------2------2--2------2--------|
|-6-----------6-----------2------2--2------2--------|
                                 .  .         


  Gtr. 1-3x
|---------------------------------------------------------------------|
|---------------------------------------------------------------------|
|---------------------------------------------------------------------|
|---------------------------------------------------------------------|
|-3--6-6-6--5-5-5--2-2-2--3-3--6-6-6--5-5-5--2-2-2--3-3--6-6-6--5-5-5-|
|-3--6-6-6--5-5-5--2-2-2--3-3--6-6-6--5-5-5--2-2-2--3-3--6-6-6--5-5-5-|
| .  . . .  . . .  . . .  . .  . . .  . . .  . . .  . .  . . .  . . . |
|                                                                     |
| Gtr. 2-3x                                                           |
|---------------------------------------------------------------------|
|---------------------------------------------------------------------|
|---------------------------------------------------------------------|
|---------------------------------------------------------------------|
|-3--6-6-6--5-5-5--2-2-2--3-3--6-6-6--5-5-5--2-2-2--3-3--6-6-6--5-5-5-|
|-3--6-6-6--5-5-5--2-2-2--3-3--6-6-6--5-5-5--2-2-2--3-3--6-6-6--5-5-5-|
  .  . . .  . . .  . . .  . .  . . .  . . .  . . .  . .  . . .  . . . 



  Gtr. 1
|----------------------------------------------------------------|
|----------------------------------------------------------------|
|----------------------------------------------------------------|
|-0----------(0)--------------(0)------------(0)-------------(0)-|
|-0----------(0)--------------(0)------------(0)-------------(0)-|
|-0----------(0)--------------(0)------------(0)-------------(0)-|
|                                                                |
|                                                                |
| Gtr. 2                                                         |
|----------------------------------------------------------------|
|----------------------------------------------------------------|
|----------------------------------------------------------------|
|-0----------(0)--------------(0)------------(0)-------------(0)-|
|-0----------(0)--------------(0)------------(0)-------------(0)-|
|-0----------(0)--------------(0)------------(0)-------------(0)-|



 Slower.
 Gtr. 1-2x
|-------------------------------------------------------|
|-------------------------------------------------------|
|-------------------------------------------------------|
|-2-1-2-1-5-1-2-1-2-1-2-5-1-2-1-2-1-2-5-1-2-1-0-------3-|
|-2-1-2-1-5-1-2-1-2-1-2-5-1-2-1-2-1-2-5-1-2-1-----1-----|
|-2-1-2-1-5-1-2-1-2-1-2-5-1-2-1-2-1-2-5-1-2-1-----------|
| . . . . . . . . . . . . . . . . . . . . . .           |
|                                                       |
| Gtr. 2-2x                                             |
|-------------------------------------------------------|
|-------------------------------------------------------|
|-------------------------------------------------------|
|-2-1-2-1-5-1-2-1-2-1-2-5-1-2-1-2-1-2-5-1-2-1-0-------3-|
|-2-1-2-1-5-1-2-1-2-1-2-5-1-2-1-2-1-2-5-1-2-1-----1-----|
|-2-1-2-1-5-1-2-1-2-1-2-5-1-2-1-2-1-2-5-1-2-1-----------|
  . . . . . . . . . . . . . . . . . . . . . .

comments
print report bad tab
2 comments total.
0 reply
Chaz-6(sic)6 wrote on September 10 2009, 01:20 pm

Is This Supposed To Be In Drop A?

0 reply
Tevexx wrote on February 22 2010, 03:26 am

|------------------------------------------------------------|
|------------------------------------------------------------|
|------------------------------------------------------------|
|-----------------5---------------------7--------------------|
|-----5---7---8-------8---7---8-----8-------10-----5---7---5-|
|-0-0---0---0---0---0---0---0---8-8---8---8----5-5---5---5---|

I think it sounds better like this =)

I want to post or [tab]
guest
You may want to rate the tab now too:
select rating
Please do not post tabs as comments. Select "correction" instead!