Oops, an error
Loading. Please wait.

Engine No 9 Tab

ver1
ver1

Whole song

Interactive

More versions @911Tabs.com
2,778 views 3 this week
no commentswrite comment
1 2 3 4 5
excellent!
x 3
Autoscroll
+/-
esc
set tempo
stop
Contributor
Difficulty
Tuning
intermediate
A E A D F# B
WARNING: You are trying to view
                                    content from Ultimate-Guitar.com
                                    in an unauthorized application,
                                    which is prohibited.

                                    Please use an official Ultimate
                                    Guitar Tabs application for iPhone,
                                    iPad or Android to access legitimate
                                    chords, guitar, bass, and drum tabs
                                    from Ultimate-Guitar.com database.

                                    Type "ultimate guitar tabs" in Apple
                                    App Store's or Android Market's
                                    search to find the application.
This is a covor of The Deftones by suicide silence.

 tuning=[A,E,A,D,G,B,e] 7 string drop A

  .=palm mute
  *=pinch harmonic
  t=tremelo pick

     don't forget to rate and comment it.
                                  Blaine M

|------------------------------0------------------------------0------------|
|------------------------------0let-ring----------------------0------------|
|------------------------------0------------------------------0------------|
|--------------------------------------------------------------------------|
|--------------------------------------------------------------------------|
|--------------------------------------------------------------------------|
|--2-3-2-0-2-3-2-0-2-3-2-0-2-3----2-3-2-0-2-3-2-0-2-3-2-0-2-3--------------|


|------------------------------0-----------------------------------------|
|------------------------------0-----------------------------------------|
|------------------------------0-----------------------------------------|
|------------------------------------------------------------------------|X2
|--2-3-2-0-2-3-2-0-2-3-2-0-2-3----2-3-2-0-2-3-2-0-2-3-2-0-2-3------------|
|--2-3-2-0-2-3-2-0-2-3-2-0-2-3----2-3-2-0-2-3-2-0-2-3-2-0-2-3------------|
|--2-3-2-0-2-3-2-0-2-3-2-0-2-3----2-3-2-0-2-3-2-0-2-3-2-0-2-3-0----------|


|--------0-0-0-0-------0-0-0-0-------0-0-0-0-------0-0-0-0-----------------|
|--------0-0-0-0-------0-0-0-0-------0-0-0-0-------0-0-0-0-----------------|
|--------0-0-0-0-------0-0-0-0-------0-0-0-0-------0-0-0-0-----------------|
|--------------------------------------------------------------------------|
|--2--2----------2--2----------2--2----------2--2----------6---5---2-3-2---|
|--2--2----------2--2----------2--2----------2--2----------6---5---2-3-2---|
|--2--2----------2--2----------2--2----------2--2----------6---5---2-3-2---|
   .  .          .  .          .  .          .  .                  . . 

|--------0-0-0-0-------0-0-0-0-------0-0-0-0-------0-0-0-0-----------------|
|--------0-0-0-0-------0-0-0-0-------0-0-0-0-------0-0-0-0-----------------|
|--------0-0-0-0-------0-0-0-0-------0-0-0-0-------0-0-0-0-----------------|
|--------------------------------------------------------------------------|
|--2--2----------2--2----------2--2----------2--2--------------------------|
|--2--2----------2--2----------2--2----------2--2--------------------------|
|--2--2----------2--2----------2--2----------2--2----------6T--5T--2-3-2---|
   .  .          .  .          .  .          .  .          .   .   . . .

|------------------------------0-----------------------------------------|
|------------------------------0-----------------------------------------|
|------------------------------0-----------------------------------------|
|------------------------------------------------------------------------|X3
|------------------------------------------------------------------------|
|------------------------------------------------------------------------|
|--2-3-2-0-2-3-2-0-2-3-2-0-2-3----2-3-2-0-2-3-2-0-2-3-2-0-2-3-0----------|
   . . . . . . . . . . . . . .    . . . . . . . . . . . . . . 

|------------------------------0-----------------------------------------|
|------------------------------0-----------------------------------------|
|------------------------------0-----------------------------------------|
|------------------------------------------------------------------------|
|------------------------------------------------------------------------|
|------------------------------------------------------------------------|
|--2-3-2-0-2-3-2-0-2-3-2-0-2-3----2-3-2-0-2-3-2-0-2-3-2-0-2-3-0----------|
   . . . . . . . . . . . . . .    

|------------------------------0---------------------------------------|
|------------------------------0---------------------------------------|
|------------------------------0---------------------------------------|
|----------------------------------------------------------------------|X2
|----------------------------------------------------------------------|
|----------------------------------------------------------------------|
|--2-3-2-0-2-3-2-0-2-3-2-0-2-3----2-3-2-0-2-3-2-0-2-3-2-0-2-3-0--------|


|--------0-0-0-0-------0-0-0-0-------0-0-0-0-------0-0-0-0-----------------|
|--------0-0-0-0-------0-0-0-0-------0-0-0-0-------0-0-0-0-----------------|
|--------0-0-0-0-------0-0-0-0-------0-0-0-0-------0-0-0-0-----------------|
|--------------------------------------------------------------------------|
|--2--2----------2--2----------2--2----------2--2----------6---5---2-3-2---|
|--2--2----------2--2----------2--2----------2--2----------6---5---2-3-2---|
|--2--2----------2--2----------2--2----------2--2----------6---5---2-3-2---|
   .  .          .  .          .  .          .  .                  . . 

|--------0-0-0-0-------0-0-0-0-------0-0-0-0-------0-0-0-0-----------------|
|--------0-0-0-0-------0-0-0-0-------0-0-0-0-------0-0-0-0-----------------|
|--------0-0-0-0-------0-0-0-0-------0-0-0-0-------0-0-0-0-----------------|
|--------------------------------------------------------------------------|
|--2--2----------2--2----------2--2----------2--2--------------------------|
|--2--2----------2--2----------2--2----------2--2--------------------------|
|--2--2----------2--2----------2--2----------2--2----------6T--5T--2-3-2---|
   .  .          .  .          .  .          .  .          .   .   . . .

|------------------------------0------------------------------0------------|
|------------------------------0------------------------------0------------|
|------------------------------0------------------------------0------------|
|--------------------------------------------------------------------------|
|--------------------------------------------------------------------------|
|--------------------------------------------------------------------------|
|--2-3-2-0-2-3-2-0-2-3-2-0-2-3----2-3-2-0-2-3-2-0-2-3-2-0-2-3--------------|
                                  . . . . . . . . . . . . . .

|------------------------------0------------------------------0------------|
|------------------------------0------------------------------0------------|
|------------------------------0------------------------------0------------|
|--------------------------------------------------------------------------|
|--------------------------------------------------------------------------|
|--------------------------------------------------------------------------|
|--2-3-2-0-2-3-2-0-2-3-2-0-2-3----2-3-2-0-2-3-2-0-2-3-2-0-2-3--------------|
   . . . . . . . . . . . . . .    . . . . . . . . . . . . . .

|-------------------------------------------------------------0------------|
|-------------------------------------------------------------0------------|
|-------------------------------------------------------------0------------|
|--------------------------------------------------------------------------|
|--------------------------------------------------------------------------|
|--------------------------------------------------------------------------|
|--2-3-2-0-2-3-2-0-2-3-2-0-2-3-0--2-3-2-0-2-3-2-0-2-3-2-0-2-3--------------|
   . . . . . . . . . . . . . .

|-------------------------------------------------------------0------------|
|-------------------------------------------------------------0------------|
|-------------------------------------------------------------0------------|
|--------------------------------------------------------------------------|
|--------------------------------------------------------------------------|
|--------------------------------------------------------------------------|
|--2-3-2-0-2-3-2-0-2-3-2-0-2-3-0--2-3-2-0-2-3-2-0-2-3-2-0-2-3--------------|


|--------------------------------------------------------------------------|
|--------------------------------------------------------------------------|
|--------------------------------------------------------------------------|
|--------------------------------------------------------------------------|
|--------------------------------------------------------------------------|
|--------------------------------------------------------------------------|
|--2-3-2-0-2-3-2-0-2-3-2-0-2-3-0-------------------------------------------|



|--------0-0-0-0-------0-0-0-0-------0-0-0-0-------0-0-0-0-----------------|
|--------0-0-0-0-------0-0-0-0-------0-0-0-0-------0-0-0-0-----------------|
|--------0-0-0-0-------0-0-0-0-------0-0-0-0-------0-0-0-0-----------------|
|--------------------------------------------------------------------------|
|--2--2----------2--2----------2--2----------2--2----------6---5---2-3-2---|
|--2--2----------2--2----------2--2----------2--2----------6---5---2-3-2---|
|--2--2----------2--2----------2--2----------2--2----------6---5---2-3-2---|
   .  .          .  .          .  .          .  .                  . . 


|--------0-0-0-0-------0-0-0-0-------0-0-0-0-------0-0-0-0-----------------|
|--------0-0-0-0-------0-0-0-0-------0-0-0-0-------0-0-0-0-----------------|
|--------0-0-0-0-------0-0-0-0-------0-0-0-0-------0-0-0-0-----------------|
|--------------------------------------------------------------------------|
|--2--2----------2--2----------2--2----------2--2----------6---5---2-3-----|
|--2--2----------2--2----------2--2----------2--2----------6---5---2-3-3*--|
|--2--2----------2--2----------2--2----------2--2----------6---5---2-3-----|
   .  .          .  .          .  .          .  .                  . . 

|--------0-0-0-0-------0-0-0-0-------0-0-0-0-------0-0-0-0-----------------|
|--------0-0-0-0-------0-0-0-0-------0-0-0-0-------0-0-0-0-----------------|
|--------0-0-0-0-------0-0-0-0-------0-0-0-0-------0-0-0-0-----------------|
|--------------------------------------------------------------------------|
|--2--2----------2--2----------2--2----------2--2--------------------------|
|--2--2----------2--2----------2--2----------2--2--------------------------|
|--2--2----------2--2----------2--2----------2--2----------6T--5T--2-3-2---|
   .  .          .  .          .  .          .  . 

|--------------------------------------------------------------------------|
|--------------------------------------------------------------------------|
|--------------------------------------------------------------------------|
|--------------------------------------------------------------------------|
|--2-----------------------------------------------------------------------|
|--2-----------------------------------------------------------------------|
|--2-----------------------------------------------------------------------|


|------------------------------------------------------------------------|
|------------------------------------------------------------------------|
|------------------------------------------------------------------------|
|------------------------------------------------------------------------|X2
|--2-0-2-0-2-0-2-0-2h3p2p0-2-0-2-0-2-0-2-0-2h3p2p0-----------------------|
|--2-0-2-0-2-0-2-0-2h3p2p0-2-0-2-0-2-0-2-0-2h3p2p0-----------------------|
|--2-0-2-0-2-0-2-0-2h3p2p0-2-0-2-0-2-0-2-0-2h3p2p0-----------------------|
     .   .   .   .           .   .   .   .

|------------------------------------------------------------------------|
|------------------------------------------------------------------------|
|------------------------------------------------------------------------|
|------------------------------------------------------------------------|
|--2-2-0-0-2-0-2-0-2h3h5p3p2-2h3-0-0-2-0-2-0-2h3h5p3p2-------------------|
|--2-2-0-0-2-0-2-0-2h3h5p3p2-2h3-0-0-2-0-2-0-2h3h5p3p2-------------------|
|--2-2-0-0-2-0-2-0-2h3h5p3p2-2h3-0-0-2-0-2-0-2h3h5p3p2-------------------|
       . .   .   .               . .   .   .

|------------------------------------------------------------------------|
|------------------------------------------------------------------------|
|------------------------------------------------------------------------|
|------------------------------------------------------------------------|
|--2h3-0-0-2-0-2-0-2-3-5h6p3p2-2h3-0-0-2-0-2-0---------------------------|
|--2h3-0-0-2-0-2-0-2-3-5h6p3p2-2h3-0-0-2-0-2-0-3*------------------------|
|--2h3-0-0-2-0-2-0-2-3-5h6p3p2-2h3-0-0-2-0-2-0---------------------------|
       . .   .   . . .             . .   .   .

|------------------------------------------------------------------------|
|------------------------------------------------------------------------|
|------------------------------------------------------------------------|
|------------------------------------------------------------------------|X2
|--2h3-0-0-2-0-2-0-2h3h5p3p2-2h3-0-0-2-0-2-0-2h3h5p3p2-------------------|
|--2h3-0-0-2-0-2-0-2h3h5p3p2-2h3-0-0-2-0-2-0-2h3h5p3p2-------------------|
|--2h3-0-0-2-0-2-0-2h3h5p3p2-2h3-0-0-2-0-2-0-2h3h5p3p2-------------------|
       . .   .   .               . .   .   .

|------------------------------------------------------------------------|
|------------------------------------------------------------------------|
|------------------------------------------------------------------------|
|------------------------------------------------------------------------|
|--1-1-1--1--1--1--1--1--1--1--1--1--------------------------------------|
|--1-1-1--1--1--1--1--1--1--1--1--1--------------------------------------|
|--1-1-1--1--1--1--1--1--1--1--1--1--------------------------------------|
   . . .  .  .  .  .  .  .  .  .  .

|-------0-------------0-------------0-------------0----------------------|
|-------0-------------0-------------0-------------0----------------------|
|-------0-------------0-------------0-------------0----------------------|
|------------------------------------------------------------------------|X3
|--2--2----------2--2----------2--2----------2--2----------6---5---2-3-2-|
|--2--2----------2--2----------2--2----------2--2----------6---5---2-3-2-|
|--2--2----------2--2----------2--2----------2--2----------6---5---2-3-2-|
   .  .          .  .          .  .          .  .                  . . 

|--------0-------------0-------------0-------------0-----------------------|
|--------0-------------0-------------0-------------0-----------------------|
|--------0-------------0-------------0-------------0-----------------------|
|--------------------------------------------------------------------------|
|--2--2----------2--2----------2--2----------2--2--------------------------|
|--2--2----------2--2----------2--2----------2--2--------------------------|
|--2--2----------2--2----------2--2----------2--2----------6T--5T--2-3-2---|
   .  .          .  .          .  .          .  . 
comments
We did not receive enough feedback on this tab! Please rate:
print report bad tab
1 2 3 4 5
I want to post or [tab]
guest
You may want to rate the tab now too:
select rating
Please do not post tabs as comments. Select "correction" instead!