Oops, an error
Loading. Please wait.

Eyes Sewn Shut Tab

ver2
ver2

Whole song

Interactive

More versions @911Tabs.com
515 views 1 this week
no commentswrite comment
1 2 3 4 5
please rate
Autoscroll
+/-
esc
set tempo
stop
Contributor
Tabbers playing skills
advanced
Hey! There's an official Ultimate Guitar app which is ideal
for learning songs when you're away from computer. Get the app
WARNING: You are trying to view
                                    content from Ultimate-Guitar.com
                                    in an unauthorized application,
                                    which is prohibited.

                                    Please use an official Ultimate
                                    Guitar Tabs application for iPhone,
                                    iPad or Android to access legitimate
                                    chords, guitar, bass, and drum tabs
                                    from Ultimate-Guitar.com database.

                                    Type "ultimate guitar tabs" in Apple
                                    App Store's or Android Market's
                                    search to find the application.
----------------------------------------------------------------------------
                    Eyes Sewn Shut - Suicide Silence
----------------------------------------------------------------------------

Tabbed by: Alain Cloutier
Email: six_inch_of_bl0od@hotmail.com

Tuning: A,E,A,D,G,B,e

Guitar 1 & 2 (240 bmp)
e|----------------------------------------------------|
B|----------------------------------------------------|
G|----------------------------------------------------|
D|----------------------------------------------------|  4x
A|----------------------------------------------------|
E|--3333333-1-0-3-1-0-3-1-0-3333333-1-0-4444443-1-0---|
A|--------3-1-0-3-1-0-3-1-0-------3-1-0-------3-1-0---|
          . . . . . . . . .       . . .       . . .


Guitar 1 & 2
e|-----------------------------------------------------|
B|-----------------------------------------------------|
G|-----------------------------------------------------|
D|-----------------------------------------------------|
A|-----------------------------------------------------|
E|--4-3-1-4-3-1-3-1-0-3-1-0-4-3-1-4-3-1-555566668888---|
A|--4-3-1-4-3-1-3-1-0-3-1-0-4-3-1-4-3-1----------------|
    . . . . . . . . . . . . . . . . . .

e|-----------------------------------------------------|
B|-----------------------------------------------------|
G|-----------------------------------------------------|
D|-----------------------------------------------------|  3x
A|-----------------------------------------------------|
E|--4-3-1-4-3-1-3-1-0-3-1-0-4-3-1-4-3-1-4---0---1------|
A|--4-3-1-4-3-1-3-1-0-3-1-0-4-3-1-4-3-1-4---0---1------|
    . . . . . . . . . . . . . . . . . . .   .   .


Guitar 1 & 2                   3x
e||------------------------------||----------------------------|
B||------------------------------||----------------------------|
G||o----------------------------o||----------------------------|
D||------------------------------||----------------------------|
A||o----------------------------o||----------------------------|
E||---4-3-1-4-3-1-3-1-0-3-1-0----||--4-3-1-4-3-1-555566668888--|
A||---4-3-1-4-3-1-3-1-0-3-1-0----||--4-3-1-4-3-1---------------|
      . . . . . . . . . . . .        . . . . . .
                               3x
e||------------------------------||----------------------------|
B||------------------------------||----------------------------|
G||o----------------------------o||----------------------------|
D||------------------------------||----------------------------|
A||o----------------------------o||----------------------------|
E||---4-3-1-4-3-1-3-1-0-3-1-0----||--4-3-1-4-3-1-4---0---1-----|
A||---4-3-1-4-3-1-3-1-0-3-1-0----||--4-3-1-4-3-1-4---0---1-----|
      . . . . . . . . . . . .        . . . . . . .   .   .


Guitar 1 & 2
e|----------------------------------------------------|------|
B|----------------------------------------------------|------|
G|----------------------------------------------------|------|
D|----------------------------------------------------|------| 4x
A|----------------------------------------------------|------|
E|--3333333-1-0-3-1-0-3-1-0-3333333-1-0-4444443-1-0---|-1----|
A|--------3-1-0-3-1-0-3-1-0-------3-1-0-------3-1-0---|-1----|
          . . . . . . . . .       . . .       . . .


Guitar 1 & 2
e|----------------------------------------|
B|----------------------------------------|
G|----------------------------------------|
D|----------------------------------------|  8x
A|----------------------------------------|
E|--4------0------1----3------0------1----|
A|--4------0------1----3------0------1----|
    .      .      .    .      .      .


Guitar 1 & 2
e|-----------------------------------------------------|
B|-----------------------------------------------------|
G|-----------------------------------------------------|
D|-----------------------------------------------------|
A|-----------------------------------------------------|
E|--4-3-1-4-3-1-3-1-0-3-1-0-4-3-1-4-3-1-555566668888---|
A|--4-3-1-4-3-1-3-1-0-3-1-0-4-3-1-4-3-1----------------|
    . . . . . . . . . . . . . . . . . .

e|-----------------------------------------------------|
B|-----------------------------------------------------|
G|-----------------------------------------------------|
D|-----------------------------------------------------|
A|-----------------------------------------------------|
E|--4-3-1-4-3-1-3-1-0-3-1-0-4-3-1-4-3-1----------------|
A|--4-3-1-4-3-1-3-1-0-3-1-0-4-3-1-4-3-1-444400001111---|
    . . . . . . . . . . . . . . . . . .

e|-----------------------------------------------------|
B|-----------------------------------------------------|
G|-----------------------------------------------------|
D|-----------------------------------------------------|
A|-----------------------------------------------------|
E|--4-3-1-4-3-1-3-1-0-3-1-0-4-3-1-4-3-1-555566668888---|
A|--4-3-1-4-3-1-3-1-0-3-1-0-4-3-1-4-3-1----------------|
    . . . . . . . . . . . . . . . . . .

e|-----------------------------------------------------|
B|-----------------------------------------------------|
G|-----------------------------------------------------|
D|-----------------------------------------------------|
A|-----------------------------------------------------|
E|--4-3-1-4-3-1-3-1-0-3-1-0-4-3-1-4-3-1-4---0---1------|
A|--4-3-1-4-3-1-3-1-0-3-1-0-4-3-1-4-3-1-4---0---1------|
    . . . . . . . . . . . . . . . . . . .   .   .

Guitar 2  (Guitar 1 Does'nt Change, only guitar 2)
e|---------------------------------------------------------------------|
B|---------------------------------------------------------------------|
G|---------------------------------------------------------------------|
D|---------------------------------------------------------------------|
A|---------------------------------------------------------------------|
E|--11-10-8--11-10-8--11-10-8--11-10-8--11-10-8--11-10-8--555566668888-|
A|--11-10-8--11-10-8--11-10-8--11-10-8--11-10-8--11-10-8---------------|
    .  .  .  .  .  .  .  .  .  .  .  .  .  .  .  .  .  .

e|---------------------------------------------------------------------|
B|---------------------------------------------------------------------|
G|---------------------------------------------------------------------|
D|---------------------------------------------------------------------|
A|---------------------------------------------------------------------|
E|--11-10-8--11-10-8--11-10-8--11-10-8--11-10-8--11-10-8---------------|
A|--11-10-8--11-10-8--11-10-8--11-10-8--11-10-8--11-10-8--444400001111-|
    .  .  .  .  .  .  .  .  .  .  .  .  .  .  .  .  .  .

e|---------------------------------------------------------------------|
B|---------------------------------------------------------------------|
G|---------------------------------------------------------------------|
D|---------------------------------------------------------------------|
A|---------------------------------------------------------------------|
E|--11-10-8--11-10-8--11-10-8--11-10-8--11-10-8--11-10-8--555566668888-|
A|--11-10-8--11-10-8--11-10-8--11-10-8--11-10-8--11-10-8---------------|
    .  .  .  .  .  .  .  .  .  .  .  .  .  .  .  .  .  .

e|---------------------------------------------------------------------|
B|---------------------------------------------------------------------|
G|---------------------------------------------------------------------|
D|---------------------------------------------------------------------|
A|---------------------------------------------------------------------|
E|--11-10-8--11-10-8--11-10-8--11-10-8--11-10-8--11-10-8---------------|
A|--11-10-8--11-10-8--11-10-8--11-10-8--11-10-8--11-10-8---------------|
    .  .  .  .  .  .  .  .  .  .  .  .  .  .  .  .  .  .


Guitar 1 & 2
e|----------------||--------------------------------||
B|----------------||--------------------------------||
G|----------------||o------------------------------o||
D|----------------||--------------------------------||  3x
A|----------------||o------------------------------o||
E|---3----0----1--||--4----0----1----3----0----1----||
A|---3----0----1--||--4----0----1----3----0----1----||
     .    .    .      .    .    .    .    .    .

Guitar 1 & 2
e|----------------------------------------------------|
B|----------------------------------------------------|
G|----------------------------------------------------|
D|----------------------------------------------------|
A|----------------------------------------------------|
E|----------------------------------------------------|
A|--444400001111333300001111444400001111333300001111--|


Guitar 1
e|----------------------------------------------------|
B|----------------------------------------------------|
G|----------------------------------------------------|
D|----------------------------------------------------|
A|----------------------------------------------------|
E|----------------------------------------------------|
A|--444400001111333300001111444400001111333300001111--|

Guitar 2
e|----------------------------------------------------|
B|----------------------------------------------------|
G|----------------------------------------------------|
D|----------------------------------------------------|
A|----------------------------------------------------|
E|--4444--------3333--------4444--------3333----------|
A|------00001111----00001111----00001111----00001111--|


Guitar 1 & 2
e|---------------------------------||
B|---------------------------------||
G|---------------------------------||
D|---------------------------------||  8x
A|---------------------------------||
E|---4----0----1----3----0----1----||
A|---4----0----1----3----0----1----||
     .    .    .    .    .    .

Guitar 1 & 2
e|----------------------------------------------------|
B|----------------------------------------------------|
G|----------------------------------------------------|
D|----------------------------------------------------|  4x
A|----------------------------------------------------|
E|--3333333-1-0-3-1-0-3-1-0-3333333-1-0-4444443-1-0---|
A|--------3-1-0-3-1-0-3-1-0-------3-1-0-------3-1-0---|
          . . . . . . . . .       . . .       . . .


Guitar 1 & 2
e|-----------------------------------------------------|
B|-----------------------------------------------------|
G|-----------------------------------------------------|
D|-----------------------------------------------------|
A|-----------------------------------------------------|
E|--4-3-1-4-3-1-3-1-0-3-1-0-4-3-1-4-3-1-555566668888---|
A|--4-3-1-4-3-1-3-1-0-3-1-0-4-3-1-4-3-1----------------|
    . . . . . . . . . . . . . . . . . .

e|-----------------------------------------------------|
B|-----------------------------------------------------|
G|-----------------------------------------------------|
D|-----------------------------------------------------|
A|-----------------------------------------------------|
E|--4-3-1-4-3-1-3-1-0-3-1-0-4-3-1-4-3-1----------------|
A|--4-3-1-4-3-1-3-1-0-3-1-0-4-3-1-4-3-1-444400001111---|
    . . . . . . . . . . . . . . . . . .

e|-----------------------------------------------------|
B|-----------------------------------------------------|
G|-----------------------------------------------------|
D|-----------------------------------------------------|
A|-----------------------------------------------------|
E|--4-3-1-4-3-1-3-1-0-3-1-0-4-3-1-4-3-1-555566668888---|
A|--4-3-1-4-3-1-3-1-0-3-1-0-4-3-1-4-3-1----------------|
    . . . . . . . . . . . . . . . . . .

e|-----------------------------------------------------|
B|-----------------------------------------------------|
G|-----------------------------------------------------|
D|-----------------------------------------------------|
A|-----------------------------------------------------|
E|--4-3-1-4-3-1-3-1-0-3-1-0-4-3-1-4-3-1-4---0---1------|
A|--4-3-1-4-3-1-3-1-0-3-1-0-4-3-1-4-3-1-4---0---1------|
    . . . . . . . . . . . . . . . . . . .   .   .


Guitar 2  (Guitar 1 Does'nt Change, only guitar 2)
e|---------------------------------------------------------------------|
B|---------------------------------------------------------------------|
G|---------------------------------------------------------------------|
D|---------------------------------------------------------------------|
A|---------------------------------------------------------------------|
E|--11-10-8--11-10-8--11-10-8--11-10-8--11-10-8--11-10-8--555566668888-|
A|--11-10-8--11-10-8--11-10-8--11-10-8--11-10-8--11-10-8---------------|
    .  .  .  .  .  .  .  .  .  .  .  .  .  .  .  .  .  .

e|---------------------------------------------------------------------|
B|---------------------------------------------------------------------|
G|---------------------------------------------------------------------|
D|---------------------------------------------------------------------|
A|---------------------------------------------------------------------|
E|--11-10-8--11-10-8--11-10-8--11-10-8--11-10-8--11-10-8---------------|
A|--11-10-8--11-10-8--11-10-8--11-10-8--11-10-8--11-10-8--444400001111-|
    .  .  .  .  .  .  .  .  .  .  .  .  .  .  .  .  .  .

e|---------------------------------------------------------------------|
B|---------------------------------------------------------------------|
G|---------------------------------------------------------------------|
D|---------------------------------------------------------------------|
A|---------------------------------------------------------------------|
E|--11-10-8--11-10-8--11-10-8--11-10-8--11-10-8--11-10-8--555566668888-|
A|--11-10-8--11-10-8--11-10-8--11-10-8--11-10-8--11-10-8---------------|
    .  .  .  .  .  .  .  .  .  .  .  .  .  .  .  .  .  .

e|---------------------------------------------------------------------|
B|---------------------------------------------------------------------|
G|---------------------------------------------------------------------|
D|---------------------------------------------------------------------|
A|---------------------------------------------------------------------|
E|--11-10-8--11-10-8--11-10-8--11-10-8--11-10-8--11-10-8---------------|
A|--11-10-8--11-10-8--11-10-8--11-10-8--11-10-8--11-10-8---------------|
    .  .  .  .  .  .  .  .  .  .  .  .  .  .  .  .  .  .

Guitar 1 & 2 (270 bmp)
e|-------------------------------------||
B|-------------------------------------||
G|-------------------------------------||
D|-------------------------------------||  8x
A|-------------------------------------||
E|---4----0----1----3----0----1----0---||
A|---4----0----1----3----0----1----0---||
     .    .    .    .    .    .

============================================================================
| /  slide up
| \  slide down
| h  hammer-on
| p  pull-off
| ~  vibrato
| +  harmonic
| x  Mute note
| .  Palm mute
============================================================================
comments
We did not receive enough feedback on this tab! Please rate:
print report bad tab
1 2 3 4 5
I want to post or [tab]
guest
You may want to rate the tab now too:
select rating
Please do not post tabs as comments. Select "correction" instead!