Oops, an error
Loading. Please wait.

No Pity For A Coward Bass Tab

17,535 views 15 this week
3 commentsread comments
1 2 3 4 5
excellent!
x 5
Autoscroll
+/-
esc
set tempo
stop
Contributor
WARNING: You are trying to view
                                    content from Ultimate-Guitar.com
                                    in an unauthorized application,
                                    which is prohibited.

                                    Please use an official Ultimate
                                    Guitar Tabs application for iPhone,
                                    iPad or Android to access legitimate
                                    chords, guitar, bass, and drum tabs
                                    from Ultimate-Guitar.com database.

                                    Type "ultimate guitar tabs" in Apple
                                    App Store's or Android Market's
                                    search to find the application.
  0:01
F#|---------------------------------------------------------------------------|
D|----------------------------------------------------------------------------|
A|----------------------------------------------------------------------------|
E|----------------------------------------------------------------------------|
A|-1--------------------------------------------------------------------------|

   0:04
F#|--------------------------------------------------------------------------|
D|---------------------------------------------------------------------------|
A|---------------------------------------------------------------------------|
E|---------------------------------------------------------------------------|
A|-1---1-1----1-1----1-1----1-1----1-1----1-1----1-1-------------------------|

   0:06
F#|--------------------------------------------------------------------------|
D|---------------------------------------------------------------------------|
A|---------------------------------------------------------------------------|
E|-----------------------------------------------------------4---------------|
A|-1--1-1-1---1-1-1---1-1-1---1-1-1---1-1-1---1-1-1---1-1-1-----1-1-1--1-1-1-|


F#|--------------------------------------------------------------------------|
D|---------------------------------------------------------------------------|
A|---------------------------------------------------------------------------|
E|--------------4-4-4---4-4-4--------4---------------------------------------|
A|-1-1-1--4-4-4----------------1-1-1-----------------------------------------|


F#|--------------------------------------------------------------------------|
D|---------------------------------------------------------------------------|
A|---------------------------------------------------------------------------|
E|-----------------------------------------------------------4---------------|
A|-1--1-1-1---1-1-1---1-1-1---1-1-1---1-1-1---1-1-1---1-1-1-----1-1-1--1-1-1-|


F#|--------------------------------------------------------------------------|
D|---------------------------------------------------------------------------|
A|---------------------------------------------------------------------------|
E|--------------4-4-4---4-4-4--------4---------------------------------------|
A|-1-1-1--4-4-4----------------1-1-1-----------------------------------------|


F#|--------------------------------------------------------------------------|
D|---------------------------------------------------------------------------|
A|---------------------------------------------------------------------------|
E|---------5---------4----------5---------4---------5----------4----------5--|
A|-1-4-1-4---1-4-1-4----1-4-1-4---1-4-1-4---1-4-1-4----1-4-1-4----1-4-1-4----|


F#|--------------------------------------------------------------------------|
D|---------------------------------------------------------------------------|
A|---------------------------------------------------------------------------|
E|---------4-----------------------------------------------------------------|
A|-1-4-1-4---1-4-1-4---------------------------------------------------------|


F#|--------------------------------------------------------------------------|
D|---------------------------------------------------------------------------|
A|---------------------------------------------------------------------------|
E|------------------4---------------4-----------------------4-4-4--------4---|
A|-1--1-1-1---1-1-1---1-1-1---1-1-1---1-1-1---1-1-1---4-4-4-------1-1-1------|


F#|--------------------------------------------------------------------------|
D|---------------------------------------------------------------------------|
A|---------------------------------------------------------------------------|
E|-----------------4---------------4-----------------------4-4-4--------4----|
A|---1-1-1---1-1-1---1-1-1---1-1-1---1-1-1---1-1-1---4-4-4-------1-1-1-------|


F#|--------------------------------------------------------------------------|
D|---------------------------------------------------------------------------|
A|---------------------------------------------------------------------------|
E|-----------------4---------------4-----------------------4-4-4--------4----|
A|---1-1-1---1-1-1---1-1-1---1-1-1---1-1-1---1-1-1---4-4-4-------1-1-1-------|


F#|--------------------------------------------------------------------------|
D|---------------------------------------------------------------------------|
A|---------------------------------------------------------------------------|
E|-----------------4---------------4-----------------------4-4-4-------------|
A|---1-1-1---1-1-1---1-1-1---1-1-1---1-1-1---1-1-1---4-4-4-------1-1-1-------|

F#|--------------------------------------------------------------------------|
D|---------------------------------------------------------------------------|
A|---------------------------------------------------------------------------|
E|-4---------4----------4---------4-4-4-4------------------------------------|
A|---1-4-1-4----1-4-1-4---1-4-1-4--------------------------------------------|


F#|--------------------------------------------------------------------------|
D|---------------------------------------------------------------------------|
A|---------------------------------------------------------------------------|
E|---------4----------4---------4-4-4-4--------------------------------------|
A|-1-4-1-4----1-4-1-4---1-4-1-4----------------------------------------------|


F#|--------------------------------------------------------------------------|
D|---------------------------------------------------------------------------|
A|---------------------------------------------------------------------------|
E|---------4----------4---------4-4-4-4--------------------------------------|
A|-1-4-1-4----1-4-1-4---1-4-1-4----------------------------------------------|


F#|--------------------------------------------------------------------------|
D|---------------------------------------------------------------------------|
A|---------------------------------------------------------------------------|
E|---------4--------------------4-4-4-4--------------------------------------|
A|-1-4-1-4----1-4-1-4---1-4-1-4----------------------------------------------|


F#|----------------------(play this riff five times)-------------------------|
D|---------------------------------------------------------------------------|
A|---------------------------------------------------------------------------|
E|----5-5-5--6-6-6--------------5-5-5--6-6-6--------------3------------------|
A|-1----------------1--4--3--1----------------1--4--3--4---------------------|


F#|--------------------------------------------------------------------------|
D|---------------------------------------------------------------------------|
A|---------------------------------------------------------------------------|
E|-------5-5-5--6-6-6--------2-2-2---------------5-5-5--6-6-6-------------3--|
A|-1-1-1--------------1-1-1-------4-4-4---1-1-1--------------1-1-1--4-4-4----|


F#|--------------------------------------------------------------------------|
D|---------------------------------------------------------------------------|
A|---------------------------------------------------------------------------|
E|-------5-5-5--6-6-6--------2-2-2---------------5-5-5--6-6-6-------------3--|
A|-1-1-1--------------1-1-1-------4-4-4---1-1-1--------------1-1-1--4-4-4----|

F#|--------------------------------------------------------------------------|
D|---------------------------------------------------------------------------|
A|---------------------------------------------------------------------------|
E|-------5-5-5--6-6-6--------2-2-2---------------5-5-5--6-6-6----------------|
A|-1-1-1--------------1-1-1-------4-4-4---1-1-1--------------1-1-1--4-4-4----|

F#|--------------------------------------------------------------------------|
D|---------------------------------------------------------------------------|
A|---------------------------------------------------------------------------|
E|-------5-5-5--6-6-6--------2-2-2---------------5-5-5--6-6-6----------------|
A|-1-1-1--------------1-1-1-------4-4-4---1-1-1--------------1-1-1--4-4-4----|

F#|--------------------------------------------------------------------------|
D|---------------------------------------------------------------------------|
A|---------------------------------------------------------------------------|
E|-------5-5-5--6-6-6--------2-2-2---------------5-5-5--6-6-6----------------|
A|-1-1-1--------------1-1-1-------4-4-4---1-1-1--------------1-1-1--4-4-4----|


  1:33

F#|--------------------------------------------------------------------------|
D|---------------------------------------------------------------------------|
A|---------------------------------------------------------------------------|
E|---------------------------------------------------------------4-----------|
A|-1-1----1-1--1-1--1-1--------1-1----1-1--1-1--1-1-------1--1---------------|


F#|--------------------------------------------------------------------------|
D|---------------------------------------------------------------------------|
A|---------------------------------------------------------------------------|
E|---------------------------------------------------------------4-----------|
A|-1-1----1-1--1-1--1-1--------1-1----1-1--1-1--1-1-------1--1---------------|


F#|--------------------------------------------------------------------------|
D|---------------------------------------------------------------------------|
A|---------------------------------------------------------------------------|
E|-4----------------4---------------4----------------------4-4-4--------4----|
A|---1-1-1---1-1-1---1-1-1---1-1-1---1-1-1---1-1-1---4-4-4-------1-1-1-------|


F#|--------------------------------------------------------------------------|
D|---------------------------------------------------------------------------|
A|---------------------------------------------------------------------------|
E|-----------------4---------------4-----------------------4-4-4--------4----|
A|---1-1-1---1-1-1---1-1-1---1-1-1---1-1-1---1-1-1---4-4-4-------1-1-1-------|

F#|--------------------------------------------------------------------------|
D|---------------------------------------------------------------------------|
A|---------------------------------------------------------------------------|
E|-----------------4---------------4-----------------------4-4-4--------4----|
A|---1-1-1---1-1-1---1-1-1---1-1-1---1-1-1---1-1-1---4-4-4-------1-1-1-------|

F#|--------------------------------------------------------------------------|
D|---------------------------------------------------------------------------|
A|---------------------------------------------------------------------------|
E|-----------------4---------------4-----------------------4-4-4--------4----|
A|---1-1-1---1-1-1---1-1-1---1-1-1---1-1-1---1-1-1---4-4-4-------1-1-1-------|

F#|--------------------------------------------------------------------------|
D|---------------------------------------------------------------------------|
A|---------------------------------------------------------------------------|
E|---------5---------4----------5---------4---------5----------4----------5--|
A|-1-4-1-4---1-4-1-4----1-4-1-4---1-4-1-4---1-4-1-4----1-4-1-4----1-4-1-4----|


F#|--------------------------------------------------------------------------|
D|---------------------------------------------------------------------------|
A|---------------------------------------------------------------------------|
E|---------4---------4----------4----------4---------4-4-4-4-----------------|
A|-1-4-1-4---1-4-1-4----1-4-1-4----1-4-1-4---1-4-1-4-------------------------|


F#---------------------------------------------------------------------------|
D|---------------------------------------------------------------------------|
A|---------------------------------------------------------------------------|
E|--------------------4---------4-4-4-4--------------------------------------|
A|-1-4-1-4----1-4-1-4---1-4-1-4----------------------------------------------|


F#|--------------------------------------------------------------------------|
D|---------------------------------------------------------------------------|
A|---------------------------------------------------------------------------|
E|---------4----------4---------4-4-4-4--------------------------------------|
A|-1-4-1-4----1-4-1-4---1-4-1-4----------------------------------------------|


F#|--------------------------------------------------------------------------|
D|---------------------------------------------------------------------------|
A|---------------------------------------------------------------------------|
E|---------4----------4---------4-4-4-4--------------------------------------|
A|-1-4-1-4----1-4-1-4---1-4-1-4----------------------------------------------|

F#|--------------------------------------------------------------------------|
D|---------------------------------------------------------------------------|
A|---------------------------------------------------------------------------|
E|---------------------------------------------------------------------------|
A|-1----1--------------------------------------------------------------------|

F#|--------------------------------------------------------------------------|
D|---------------------------------------------------------------------------|
A|---------------------------------------------------------------------------|
E|---------------------------------------------------------------------------|
A|-0-0-0-0-0-------0-0-0-0-0--0-0-0-0-0--0-0-0-0-0---------------------------|


F#|--------------------------------------------------------------------------|
D|---------------------------------------------------------------------------|
A|---------------------------------------------------------------------------|
E|---------------------------------------------------------------------------|
A|-0-0-0-0-0--0-0-0-0-0--0-0-0-0-0-------------------------------------------|


F#|--------------------------------------------------------------------------|
D|---------------------------------------------------------------------------|
A|---------------------------------------------------------------------------|
E|---------------------------------------------------------------------------|
A|-0-0-0-0-0--0-0-0-0-0--0-0-0-0-0-------------------------------------------|


F#|--------------------------------------------------------------------------|
D|---------------------------------------------------------------------------|
A|---------------------------------------------------------------------------|
E|---------------------------------------------------------------------------|
A|-0-0-0-0-0--1-1-1-1-1------------------------------------------------------|

       (part under sweeps)
F#|--------------------------------------------------------------------------|
D|---------------------------------------------------------------------------|
A|---------------------------------------------------------------------------|
E|----------------------5-----------6----------------------------------------|
A|---7~-6--7---6-6-6-6-----7-7-7-7-------------------------------------------|


F#|--------------------------------------------------------------------------|
D|---------------------------------------------------------------------------|
A|---------------------------------------------------------------------------|
E|----------------------5-----------6----------------------------------------|
A|---7~-6--7---6-6-6-6-----7-7-7-7-------------------------------------------|


F#|--------------------------------------------------------------------------|
D|---------------------------------------------------------------------------|
A|---------------------------------------------------------------------------|
E|---------------------------------------------------------------------------|
A|-0-0-0-0-0-------0-0-0-0-0--0-0-0-0-0--0-0-0-0-0---------------------------|


F#|--------------------------------------------------------------------------|
D|---------------------------------------------------------------------------|
A|---------------------------------------------------------------------------|
E|---------------------------------------------------------------------------|
A|-0-0-0-0-0--0-0-0-0-0--0-0-0-0-0-------------------------------------------|


F#|--------------------------------------------------------------------------|
D|---------------------------------------------------------------------------|
A|---------------------------------------------------------------------------|
E|---------------------------------------------------------------------------|
A|-0-0-0-0-0--0-0-0-0-0--0-0-0-0-0-------------------------------------------|


F#|--------------------------------------------------------------------------|
D|---------------------------------------------------------------------------|
A|---------------------------------------------------------------------------|
E|---------------------------------------------------------------------------|
A|-0-0-0-0-0--1-1-1-1-1~---------------0-0-0-0-0-0-0-------------------------|
3 comments total.
0 reply
^SiVART^ wrote on October 26 2009, 09:32 pm

Perfect!!!!! I know it's kinda late but kickass tab!!!!

0 reply
Marcusaurus wrote on November 6 2009, 10:54 pm

perfect!!

0 reply
petey1993 wrote on July 12 2010, 10:49 pm

great tab :)

and for those of you who don't know
when you tune the bottom four strings down
you go down an ENTIRE frame you don't just tune down the G and B string

I want to post or [tab]
guest
You may want to rate the tab now too:
select rating
Please do not post tabs as comments. Select "correction" instead!