Oops, an error
Loading. Please wait.

Suffer Tab

1,894 views 12 this week
no commentswrite comment
1 2 3 4 5
excellent!
x 1
add to favorites launch autoscroll
font size
0
reset
Autoscroll
+/-
esc
set tempo
stop
Contributor
Difficulty
Tuning
intermediate
A E A D F# B
WARNING: You are trying to view
                                    content from Ultimate-Guitar.com
                                    in an unauthorized application,
                                    which is prohibited.

                                    Please use an official Ultimate
                                    Guitar Tabs application for iPhone,
                                    iPad or Android to access legitimate
                                    chords, guitar, bass, and drum tabs
                                    from Ultimate-Guitar.com database.

                                    Type "ultimate guitar tabs" in Apple
                                    App Store's or Android Market's
                                    search to find the application.
Suffer
Suicide Silence
NTTB

Tabbed by Jaredh_d2012

Tuning:AEADGBE



E|--------------------------------------------------------------|
B|--------------------------------------------------------------|
G|--------------------------------------------------------------|
D|--------------------------------------------------------------|
A|--------------------------------------------------------------|
E|-3-4-3-0-----2---------3*-4*-3*---3-4-3-0-----2---------------|
A|---------4-3---3-2-1-0--------------------4-3---3-2-1-0-------|

E|--------------------------------------------------------|
B|--------------------------------------------------------|
G|--------------------------------------------------------|
D|--------------------------------------------------------|
A|--------------------------------------------------------|
E|-1p0-1-0--3*-1p0-1-0--3*4*3*-1p0-1-0--3*--1p0-1-0-----4*|
A|-1p0-1-0-----1p0-1-0---------1p0-1-0------1p0-1-0-4*3*--|X4 

E|---------------------------------------------------------|
B|---------------------------------------------------------|
G|---------------------------------------------------------|
D|---------5----------5-6-5---------5----------------------|
A|---------------------------------------------------------|
E|-1p0-1-0-3--1p0-1-0-3-4-3-1p0-1-0-3--1p0-1-0-----4*------|
A|-1p0-1-0----1p0-1-0-------1p0-1-0----1p0-1-0-4*3*--------|X4

E|-----------------------------------------------------------------|
B|-----------------------------------------------------------------|
G|-----------------------------------------------------------------|
D|-----------------------------------------------------------------|
A|-----------------------------------------------------------------|
E|-3-4-3-0-----2---------3*-4*-3*---3-4-3-0-----2------------------|
A|---------4-3---3-2-1-0--------------------4-3---3-2-1-0-00--0-00-|


E|--------------------------------------------------------------|
B|--------------------------------------------------------------|
G|--------------------------------------------------------------|
D|--------------------------------------------------------------|
A|--------------------------------------------------------------|
E|-----2*3*---3-4-3-0-----2--------3-4-3-0-----2----------------|
A|-0*1*----4*---------4-3---3-2-1----------4-3---3-2-1----------|X3

E|-----------------------------|
B|-----------------------------|
G|-----------------------------|
D|-----------------------------|
A|--------------3-----2---5--6-|
E|-----2*3*-----3-----2---5--6-|
A|-0*1*----4*---3-----2---5--6-|

E|-------------------------------------------------------|
B|-------------------------------------------------------|
G|-------------------------------------------------------|
D|-------------------------------------------------------|
A|-4---3----2------1-------4---3----2----------0-0-0-----|
E|-4-3-3-3--2-3-2--1-2-1---4-3-3-3--2-3-2------0-0-0-----|
A|---3---3----3-2----2-1-----3---3----3-2------1-1-1-----|

E|-----------------------|
B|-----------------------|
G|-----------------------|
D|-----------------------|
A|-4---3---------0-0-0---|
E|-4-3-3-3-------0-0-0---|
A|---3---3-------1-1-1---|X4

E|---------------------------------------------------|
B|---------------------------------------------------|
G|---------------------------------------------------|
D|---------------------------------------------------|
A|-3---3-3--2---2-2---5--6\3---3-3--2---2-2---5--6---|
E|-3---3-3--2---2-2---5--6\3---3-3--2---2-2---5--6---|
A|-3---3-3--2---2-2---5--6\3---3-3--2---2-2---5--6---|X2


Solo

Lead
E|---------11--------------10----------------1511------------1410--------|
B|-------13--13----------12--12------------13----13--------12----12------|
G|-----12------12------11------11--------12--------12----11--------11----|
D|---13----------13--12----------12----13--------------12----------------|
A|-15--------------14----------------15--------------14------------------|
E|-----------------------------------------------------------------------|
A|-----------------------------------------------------------------------|
  TREM PICK ALL THESE NOTES^

Rhythm                                                   
E|-------------------------------------------------------|
B|-------------------------------------------------------|
G|-------------------------------------------------------|
D|-------------------------------------------------------|
A|-------------------------------------------------------|
E|-------------------------------------------------------|
A|-3*--------------2*----------------5*-------------6*---|Repeat through out Solo.


Lead
E|---------11-15t20-15-11--------------11-15t20 15-11--------|
B|-------13--------------13----------13--------------13------|
G|-----12------------------12------12------------------12----|
D|---13----------------------13--13----------------------13--|
A|-15--------------------------15----------------------------|
E|-----------------------------------------------------------|
A|-----------------------------------------------------------|
   Sweep picking

E|---------10-14t-19-10--------------10-14t19-10--------------|
B|-------12------------12----------12-----------12------------|
G|-----11----------------11------11---------------11----------|
D|---12--------------------12--12-------------------12--------|
A|-14------------------------14-------------------------------|
E|------------------------------------------------------------|
A|------------------------------------------------------------|


E|---------11-15t20-15-11--------------11-15t20 15-11--------|
B|-------13--------------13----------13--------------13------|
G|-----12------------------12------12------------------12----|
D|---13----------------------13--13----------------------13--|
A|-15--------------------------15----------------------------|
E|-----------------------------------------------------------|
A|-----------------------------------------------------------|

E|---------10-14t-19-10-------18-15-------15-----------------|
B|-------12------------12-----------17-------17--------------|
G|-----11----------------11------------18-------18-15--------|
D|---12--------------------12---------------------------17b--|
A|-14--------------------------------------------------------|
E|-----------------------------------------------------------|
A|-----------------------------------------------------------|


E|---------||-----------------------|
B|---------||-----------------------|
G|---------||-----------------------|
D|---------||-----------------------|
A|--0-0-0--||-4---3---------0-0-0---|
E|--0-0-0--||-4-3-3-3-------0-0-0---|
A|--1-1-1--||---3---3-------1-1-1---|X3

Guitar 1
E|---------------------------------------------------|
B|---------------------------------------------------|
G|---------------------------------------------------|
D|---------------------------------------------------|
A|-3---3-3--2---2-2---5--6\3---3-3--2---2-2---5--6---|
E|-3---3-3--2---2-2---5--6\3---3-3--2---2-2---5--6---|
A|-3---3-3--2---2-2---5--6\3---3-3--2---2-2---5--6---|
 
Guitar 2
E|-------------------------------------------------------|
B|-444444444444444444444444444444444444444444444444------|
G|-------------------------------------------------------|
D|-------------------------------------------------------|
A|-------------------------------------------------------|
E|-------------------------------------------------------|
A|-------------------------------------------------------|


E|---------------------------------------------------------------------|
B|---------------------------------------------------------------------|
G|---------------------------------------------------------------------|
D|---------------------------------------------------------------------|
A|---------------------------------------------------------------------|
E|-----2*3*---3-4-3-0-----2--------3-4-3-0-----2-----------------------|
A|-0*1*----4*---------4-3---3-2-1----------4-3---3-2-1-0-00-0-00-0-00--|

E|-------------------------------------------------------|
B|-------------------------------------------------------|
G|-------------------------------------------------------|
D|-------------------------------------------------------|
A|-------------------------------------------------------|
E|-1p0-1-0---1-0-1----1p0-1-0---1-0-1--1p0-1-0---1-0-1---|
A|-1p0-1-0---1-0-1----1p0-1-0---1-0-1--1p0-1-0---1-0-1---|

E|------------------------|
B|------------------------|
G|------------------------|
D|------------------------|
A|------------------------|
E|---------------------3*-|
A|-1p0-1-0---1-0-1-4*3*---|

E|---------------------------------------------------------|
B|---------------------------------------------------------|
G|---------------------------------------------------------|
D|---------5----------5-6-5---------5----------------------|
A|---------------------------------------------------------|
E|-1p0-1-0-3--1p0-1-0-3-4-3-1p0-1-0-3--1p0-1-0-----4*------|
A|-1p0-1-0----1p0-1-0-------1p0-1-0----1p0-1-0-4*3*--------|X4

E|-------------------------------------------------------|
B|-------------------------------------------------------|
G|-------------------------------------------------------|
D|-------------------------------------------------------|
A|-------------------------------------------------------|
E|-1p0-1-0---1-0-1----1p0-1-0---1-0-1--1p0-1-0---1-0-1---|
A|-1p0-1-0---1-0-1----1p0-1-0---1-0-1--1p0-1-0---1-0-1---|X2

E|------------------------|
B|------------------------|
G|------------------------|
D|------------------------|
A|------------------------|
E|---------------------3*-|
A|-1p0-1-0---1-0-1-4*3*---|

E|-------------------------------------------------------|
B|-------------------------------------------------------|
G|-------------------------------------------------------|
D|-------------------------------------------------------|
A|-------------------------------------------------------|
E|-1p0-1-0---1-0-1----1p0-1-0---1-0-1--1p0-1-0---1-0-1---|
A|-1p0-1-0---1-0-1----1p0-1-0---1-0-1--1p0-1-0---1-0-1---| Repeat to fade out
comments
We did not receive enough feedback on this tab! Please rate:
print report bad tab
1 2 3 4 5
I want to post or [tab]
guest
You may want to rate the tab now too:
select rating
Please do not post tabs as comments. Select "correction" instead!