Oops, an error
Loading. Please wait.

All Killer No Filler Bass Tab

ver1
ver1

Album

More versions @911Tabs.com
4,169 views 3 this week
1 commentread comment
1 2 3 4 5
accurate
x 5
Autoscroll
+/-
esc
set tempo
stop
Hey! There's an official Ultimate Guitar app which is ideal
for learning songs when you're away from computer. Get the app
WARNING: You are trying to view
                                    content from Ultimate-Guitar.com
                                    in an unauthorized application,
                                    which is prohibited.

                                    Please use an official Ultimate
                                    Guitar Tabs application for iPhone,
                                    iPad or Android to access legitimate
                                    chords, guitar, bass, and drum tabs
                                    from Ultimate-Guitar.com database.

                                    Type "ultimate guitar tabs" in Apple
                                    App Store's or Android Market's
                                    search to find the application.
Album:All Killer No Filler
Artist:Sum 41

I know there alredy is a bass tab for this album but i'm trying to make a better one

1.Nothing On My Back
2.Never Wake Up
3.Fat Lip
4.Rythms(no tab)
5.Motivation
6.In Too Deep
7.Summer(no tab)
8.Handle This
9.Crazy Amarda Bunkface(no tab)
10.All Shes Got(no tab)
11.Heart Attack
12.Pain For Pleasure
-------------------------------------------------------------------------------
                          NOTHING ON MY BACK (Bassline)
                              As recorded by Sum 41

Words and Music by Deryck Whibley, Dave Baksh and Cone McAslin

Gtr I (E A D G) - 'Cone McAslin'

 Intro
  Moderately Fast Rock Q=165
 3/4      4/4        3/4      4/4
  Gtr I
  W        W          W        W
|--------|----------|--------|------|
|--------|----------|--------|------|
|--------|----------|--------|------|
|--------|----------|--------|------|


 3/4          4/4            3/4          4/4
  Q  E E E E   Q  E E Q  Q    Q  E E E E   Q  E E Q  Q
|------------|--------------|------------|--------------|
|------------|--------------|------------|--------------|
|------4-5---|--------5--5--|------4-5---|--------5--5--|
|-5--------0-|-3----0-------|-5--------0-|-3----0-------|


 3/4          4/4            3/4          4/4
  Q  E E E E   Q  E E Q  Q    Q  E E E E   Q  E E E E E E
|------------|--------------|------------|----------------||
|------------|--------------|------------|----------------||
|------4-5---|--------5--5--|------4-5---|--------5-5-5-5-||
|-5--------0-|-3----0-------|-5--------0-|-3----0---------||


 1st Verse
  Wx4
|--------|
|--------|
|--------|
|--------|


  W          H    E E E E   Q  q  H      Q.   E Q.   E   Q.   E Q  Q
|----------|--------------|------------|---------------|--------------|
|----------|--------------|------------|---------------|--------------|
|----------|--------------|------------|---------------|--------------|
|----------|--------2-2-3-|-5--5-------|-3----2-3----2-|-2----3-0--0--|


  E E E E E E E E   E E E E E E E E   E E E E E E E E   E E E E E E E E
|-----------------|-----------------|-----------------|-----------------|
|-----------------|-----------------|-----------------|-----------------|
|-----------------|-----------------|-----------------|-----------------|
|-5-5-5-5-5-5-5-5-|-5-5-5-5-5-5-5-5-|-5-5-5-5-5-5-5-5-|-5-5-5-5-5-5-5-5-|


  Q.   E Q.   E   E E E E E E E E   E E E E E E E E
|---------------|-----------------|-----------------||
|---------------|-----------------|-----------------||
|---------------|-5-5-5-5-5-5-5-5-|-----------------||
|-3----2-3----2-|-----------------|-0-0-0-0-0-0-0-0-||


 1st Chorus
  E E E E Q  E E   E E E E E E E E   E E E E Q  E E   E E E E E E E E
|----------------|-----------------|----------------|-----------------|
|----------------|-----------------|----------------|-----------------|
|----------------|-5-5-5-5---------|----------------|-5-5-5-5---------|
|-5-5-5-4-3--3-3-|---------0-0-0-0-|-5-5-5-4-3--3-3-|---------0-0-0-0-|


  E E E E Q  E E   E E E E E E E E
|----------------|-----------------|
|----------------|-----------------|
|----------------|-5-5-5-5---------|
|-5-5-5-4-3--3-3-|---------0-0-0-0-|


  E E E E Q  E E   E E E H    +E    +H.      Q
|----------------|----------------|--------------||
|----------------|----------------|--------------||
|----------------|-5-5-5----------|--------------||
|-5-5-5-4-3--3-3-|-------0----(0)-|-(0)------9\--||


 Post-Chorus
 3/4          4/4            3/4          4/4
  Q  E E E E   Q  E E Q  Q    Q  E E E E   Q  E E Q  Q
|------------|--------------|------------|--------------|
|------------|--------------|------------|--------------|
|------4-5---|--------5--5--|------4-5---|--------5--5--|
|-5--------0-|-3----0-------|-5--------0-|-3----0-------|


 3/4          4/4            3/4          4/4
  Q  E E E E   Q  E E Q  Q    Q  E E E E   Q  E E E E Q
|------------|--------------|------------|---------------||
|------------|--------------|------------|---------------||
|------4-5---|--------5--5--|------4-5---|--------5-5-5--||
|-5--------0-|-3----0-------|-5--------0-|-3----0--------||


   2nd Verse
    E E E E E E E E   E E E E E E E E   E E E E E E E E
||------------------|-----------------|-----------------|
||o-----------------|-----------------|-----------------|
||o-----------------|---------5-5-5-5-|-----------------|
||--5-5-5-5-3-3-3-3-|-5-5-5-5---------|-5-5-5-5-3-3-3-3-|


  E E E E E E E E   E E E E E E E E   E E E E E E E E
|-----------------|-----------------|------------------||
|-----------------|-----------------|-----------------o||
|---------5-5-5-5-|-----------------|---------5-5-5-5-o||
|-5-5-5-5---------|-5-5-5-5-3-3-3-3-|-5-5-5-5----------||


  q  H.        W
|------------|------||
|------------|------||
|-5----------|------||
|------------|-0----||


 2nd Chorus
  E E E E Q  E E   E E E E E E E E   E E E E Q  E E   E E E E E E E E
|----------------|-----------------|----------------|-----------------|
|----------------|-----------------|----------------|-----------------|
|----------------|-5-5-5-5---------|----------------|-5-5-5-5---------|
|-5-5-5-4-3--3-3-|---------0-0-0-0-|-5-5-5-4-3--3-3-|---------0-0-0-0-|


  E E E E Q  E E   E E E E E E E E   E E E E Q  E E   E E E H    +E    +W
|----------------|-----------------|----------------|----------------|--------||
|----------------|-----------------|----------------|----------------|--------||
|----------------|-5-5-5-5---------|----------------|-5-5-5----------|--------||
|-5-5-5-4-3--3-3-|---------0-0-0-0-|-5-5-5-4-3--3-3-|-------0----(0)-|-(0)----||


 Drum Solo
  +W           +W           +W           +W
|------------|------------|------------|--------|
|------------|------------|------------|--------|
|------------|------------|------------|--------|
|-(0)--------|-(0)--------|-(0)--------|-(0)----|


    E E E E E E E E   E E E E E E E E   E E E E E E E E   E E E E E E E E
||------------------|-----------------|-----------------|-------------------||
||o-----------------|-----------------|-----------------|------------------o||
||o-7-7-7-7-7-7-7-7-|-7-7-7-7-7-7-7-7-|-7-7-7-7-7-7-7-7-|-7-7-7-7-7-7-7-7--o||
||------------------|-----------------|-----------------|-------------------||


    Q  E Q  E Q    E E E E E E E E   E E E E E E E E   E E E E E E E E
||---------------|-----------------|-----------------|-------------------||
||o--------------|-----------------|-----------------|------------------o||
||o-5--5------6--|-7-7-7-7-7-7-7-7-|-7-7-7-7-7-7-7-7-|-7-7-7-7-7-7-7-7--o||
||-------5--5----|-----------------|-----------------|-------------------||


  Q  E Q  E Q    E E E E E E E E   Q  E Q  E Q    E E E E E E E E
|--------------|-----------------|--------------|-----------------|
|--------------|-----------------|--------------|-----------------|
|-5--5------6--|-7-7-7-7-7-7-7-7-|-5--5------6--|-7-7-7-7-7-7-7-7-|
|------5--5----|-----------------|------5--5----|-----------------|


  Q  E Q  E Q    Q  E Q  E Q    Q  E Q  E Q
|--------------|--------------|--------------|
|--------------|--------------|--------------|
|-5--5------6--|-5--5------6--|-5--5------6--|
|------5--5----|------5--5----|------5--5----|


  PM------------------------------|
  E E E E E E E E   E E E E E E E E
|-----------------|-----------------||
|-----------------|-----------------||
|-----------------|-----------------||
|-5-5-5-5-5-5-5-5-|-5-5-5-5-5-5-5-5-||


   Interlude
    E E E E E E E E   E E E E E E E E   E E E E E E E E   E E E E E E E E   4x
||------------------|-----------------|-----------------|-------------------||
||o-----------------|-----------------|-----------------|------------------o||
||o---------5-5-5-5-|-----------------|---------5-5-5-5-|------------------o||
||--0-0-0-0---------|-5-5-5-5-7-7-7-7-|-0-0-0-0---------|-5-5-5-5-7-7-7-7---||


 3rd Chorus
  E E E E Q  E E   E E E E E E E E   E E E E Q  E E   E E E E E E E E
|----------------|-----------------|----------------|-----------------|
|----------------|-----------------|----------------|-----------------|
|-7-7-7-6-5--5-5-|-----------------|-7-7-7-6-5--5-5-|-----------------|
|----------------|-5-5-5-5-7-7-7-7-|----------------|-5-5-5-5-7-7-7-7-|


  E E E E Q  E E   E E E E E E E E   E E E E Q  E E   E E E H    +E
|----------------|-----------------|----------------|----------------|
|----------------|-----------------|----------------|----------------|
|-7-7-7-6-5--5-5-|-----------------|-7-7-7-6-5--5-5-|----------------|
|----------------|-5-5-5-5-7-7-7-7-|----------------|-5-5-5-7----(7)-|


   >                                             <
  +W           +W           +W           +H     +H       +H     H
|------------|------------|------------|---------------|-------------*|
|------------|------------|------------|---------------|-------------*|
|------------|------------|------------|---------------|-------------*|
|-(7)--------|-(7)--------|-(7)--------|-(7)----(7)----|-(7)---------*|

-------------------------------------------------------------------------------
                            NEVER WAKE UP (Bassline)
                              As recorded by Sum 41
                   (From the 2001 Album ALL KILLER NO FILLER)

Words and Music by Sum 41

Gtr I (E A D G) - 'Cone'

  Q=220
 4/4
  Gtr I
  W           E Q  E E Q  E   E Q  E E Q  E   E Q  E E Q  E   E Q  E E Q  E
|----------||---------------|---------------|---------------|-----------------|
|----------||---------------|---------------|---------------|-----------------|
|----------||--------7-7--7-|-4-4--4--------|--------7-7--7-|-4-4--4----------|
|----------||-4-4--4--------|--------2-2--2-|-4-4--4--------|--------2-2--2---|


  E Q  E E Q  E   E Q  E E Q  E   E Q  E E Q  E   E Q  E E Q  E
|---------------|---------------|---------------|---------------||
|---------------|---------------|---------------|---------------||
|--------7-7--7-|-4-4--4--------|--------7-7--7-|-4-4--4--------||
|-4-4--4--------|--------2-2--2-|-4-4--4--------|--------2-2--2-||


  $
  E E E E E E E E   E E E E E E E E   E E E E E Q  E   E E E E E Q  E
|-----------------|-----------------|----------------|----------------|
|-----------------|-----------------|----------------|----------------|
|-2-2-2-2-2-2-2-2-|-----------------|-----------5----|-----------5----|
|-----------------|-2-2-2-2-2-2-2-2-|-0-0-0-0-0----0-|-0-0-0-0-0----0-|


                                            To Coda
  E E E E E E E E   E E E E E E E E   E E E E E Q  E   E E E E E Q  E
|-----------------|-----------------|----------------|----------------||
|-----------------|-----------------|----------------|----------------||
|-2-2-2-2-2-2-2-2-|-----------------|-----------5----|-----------5----||
|-----------------|-2-2-2-2-2-2-2-2-|-0-0-0-0-0----0-|-0-0-0-0-0----0-||


  E Q  E E Q  E   E Q  E E Q  E   E Q  E E Q  E   E Q  E E Q  E
|---------------|---------------|---------------|---------------|
|---------------|---------------|---------------|---------------|
|--------7-7--7-|-4-4--4--------|--------7-7--7-|-4-4--4--------|
|-4-4--4--------|--------2-2--2-|-4-4--4--------|--------2-2--2-|


                                                  D.S. al Coda
  E Q  E E Q  E   E Q  E E Q  E   E Q  E E Q  E   E Q  E E Q  E
|---------------|---------------|---------------|---------------||
|---------------|---------------|---------------|---------------||
|--------7-7--7-|-4-4--4--------|--------7-7--7-|-4-4--4--------||
|-4-4--4--------|--------2-2--2-|-4-4--4--------|--------2-2--2-||


  &
  H     H       E E E E E E E E   E E E E E E E E
|-------------|-----------------|-----------------|
|-------------|-----------------|-----------------|
|-------------|-2-2-2-2-2-2-2-2-|-----------------|
|------17\----|-----------------|-2-2-2-2-2-2-2-2-|


  E E E E E Q  E   E E E E E Q  E   E E E E E E E E   E E E E E E E E
|----------------|----------------|-----------------|-----------------|
|----------------|----------------|-----------------|-----------------|
|-----------5----|-----------5----|-2-2-2-2-2-2-2-2-|-----------------|
|-0-0-0-0-0----0-|-0-0-0-0-0----0-|-----------------|-2-2-2-2-2-2-2-2-|


  E E E E E Q  E   E E E E E Q  E   W          Q  Q  H
|----------------|----------------|----------|------------*|
|----------------|----------------|----------|------------*|
|-----------5----|-----------5----|----------|-2----------*|
|-0-0-0-0-0----0-|-0-0-0-0-0----0-|----------|-0----------*|

-------------------------------------------------------------------------------

                               FAT LIP (Bassline)
                              As recorded by Sum 41
                   (From the 2000 Album ALL KILLER NO FILLER)

Words and Music by Deryk Whibley, Dave Baksh, and Cone Mcaslin

Gtr I (D A D G) - 'Cone'

 Intro
  Moderate Rock Q=100
 4/4
  Gtr I
  W          W          W          W
|----------|----------|----------|------|
|----------|----------|----------|------|
|----------|----------|----------|------|
|----------|----------|----------|------|


 1st Verse
  E E E. S E E E. S   E E E. S E E E. S   E E E. S E E E. S   E E E. S E E Q
|-------------------|-------------------|-------------------|-----------------|
|-------------------|-------------------|-------------------|-----------------|
|--------------0--0-|--------------0--0-|--------------0--0-|--------------0--|
|-0-2-2--2-0-2------|-0-2-2--2-0-2------|-0-2-2--2-0-2------|-0-2-2--2-0-2----|


  E H    E Q    S e H    E. E   S e Q..   E Q    S e H    E. E
|-------------|---------------|----------------|---------------|
|-------------|---------------|----------------|---------------|
|--------2-2--|-0-0-----------|-----------2-2--|-0-0-----------|
|-2-----------|---------------|-2-2------------|---------------|


   1st Pre Chorus
    S S S S S S S S S S S S S S S S   S S S S S S S S S S S S S S S S
||----------------------------------|-----------------------------------||
||o---------------------------------|----------------------------------o||
||o---------------------------------|-4-4-4-4-4-4-4-4------------------o||
||--2-2-2-2-2-2-2-2-2-2-2-2-2-2-2-2-|-----------------7-7-7-7-7-7-7-7---||


   1st Chorus
    E S S E S S E S S S S S S   E S S E S S E S S E S S
||----------------------------|--------------------------||
||o-2-2-2---------------------|-------------------------o||
||o-------2-2-2-4-4-4-4h6-7-7-|-------------------------o||
||----------------------------|-6-6-6-7-7-7-6-6-6-7-7-7--||


 2nd Verse
  E E E. S E E E. S   E E E. S E E E. S   E E E. S E E E. S   E E E. S E E Q
|-------------------|-------------------|-------------------|-----------------|
|-------------------|-------------------|-------------------|-----------------|
|--------------0--0-|--------------0--0-|--------------0--0-|--------------0--|
|-0-2-2--2-0-2------|-0-2-2--2-0-2------|-0-2-2--2-0-2------|-0-2-2--2-0-2----|


  W
|------|
|------|
|------|
|------|


  E H    E Q    S e H    E. E   S e Q..   E Q    S e H    E. E
|-------------|---------------|----------------|---------------|
|-------------|---------------|----------------|---------------|
|--------2-2--|-0-0-----------|-----------2-2--|-0-0-----------|
|-2-----------|---------------|-2-2------------|---------------|


   2nd Pre Chorus
    S S S S S S S S S S S S S S S S   S S S S S S S S S S S S S S S S
||----------------------------------|-----------------------------------||
||o---------------------------------|----------------------------------o||
||o---------------------------------|-4-4-4-4-4-4-4-4------------------o||
||--2-2-2-2-2-2-2-2-2-2-2-2-2-2-2-2-|-----------------7-7-7-7-7-7-7-7---||


   2nd Chorus
    E S S E S S E S S S S S S   E S S E S S E S S E S S
||----------------------------|--------------------------||
||o-2-2-2---------------------|-------------------------o||
||o-------2-2-2-4-4-4-4h6-7-7-|-------------------------o||
||----------------------------|-6-6-6-7-7-7-6-6-6-7-7-7--||


 Bridge
  S E E. S E E. E E   S E E. S E E. Q    S E E. S E E. E E   S E Q  S E Q  E
|-------------------|------------------|-------------------|------------------|
|-------------------|------------------|-------------------|------------------|
|-------------------|------------------|-------------------|------------------|
|-2-2----2-2----2---|-2-2----2-2----7--|-2-2----2-2----2---|-2-2----2-2-------|


  W          W          W          H    E E E E
|----------|----------|----------|--------------|
|----------|----------|----------|----------2---|
|----------|----------|----------|--------0---0-|
|----------|----------|----------|--------------|


  H    H      H    +E  E E E   H    H      H    +E  E E E
|-----------|----------------|-----------|----------------|
|-2----1----|------------2---|-2----1----|------------2---|
|-----------|-4----(4)-0---0-|-----------|-4----(4)-0---0-|
|-----------|----------------|-----------|----------------|


 Breakdown
  E E E. S E E E. S   E E E. S E E Q
|-------------------|-----------------|
|-------------------|-----------------|
|-------------------|-----------------|
|-0-2-2--2-0-2-7--7-|-0-2-2--2-0-2-7--|


  W          E E E. S E E E. S   E E E. S E E Q
|----------|-------------------|-----------------|
|----------|-------------------|-----------------|
|----------|-------------------|-----------------|
|----------|-0-2-2--2-0-2-7--7-|-0-2-2--2-0-2----|


  E E Q  E E E. S   E E E. S E E Q    W          H    Q.   E
|-----------------|-----------------|----------|--------------|
|-----------------|-----------------|----------|--------------|
|-----------------|-----------------|----------|-----------8\-|
|-0-2----0-2-7--7-|-0-2-2--2-0-2-7--|----------|--------------|


  PM----------------------------------------------|
  S S S S S S S S S S S S S S S S   S S S S S S S S S S S S S S S S
|---------------------------------|---------------------------------|
|---------------------------------|---------------------------------|
|---------------------------------|---------------------------------|
|-0-0-0-0-0-0-0-0-0-0-0-0-0-0-0-0-|-0-0-0-0-0-0-0-0-0-0-0-0-0-0-0-0-|


    E S S E S S E S S S S S S   E S S E S S E S S E S S
||----------------------------|--------------------------||
||o-2-2-2---------------------|-------------------------o||
||o-------2-2-2-4-4-4-4h6-7-7-|-------------------------o||
||----------------------------|-6-6-6-7-7-7-6-6-6-7-7-7--||


    E S S E S S E S S S S S S   E S S E S S E S S E S S
||----------------------------|--------------------------||
||o-2-2-2-1-1-1---------------|-------------------------o||
||o-------------4-4-4-4h6-7-7-|-------------------------o||
||----------------------------|-6-6-6-7-7-7-6-6-6-7-7-7--||


  E E E. S E E E. S   E E E. S E E E. S   E E E. S E E E. S   E E E. S E E Q
|-------------------|-------------------|-------------------|-----------------|
|-------------------|-------------------|-------------------|-----------------|
|--------------0--0-|--------------0--0-|--------------0--0-|--------------0--|
|-0-2-2--2-0-2------|-0-2-2--2-0-2------|-0-2-2--2-0-2------|-0-2-2--2-0-2----|


  S S Q  S S H
|-----------------*|
|-----------------*|
|-----------------*|
|-2-2----2-2------*|

-------------------------------------------------------------------------------
Don't Have Rythms Yet
-------------------------------------------------------------------------------

                              MOTIVATION (Bassline)
                              As recorded by Sum 41
                   (From the 2001 Album ALL KILLER NO FILLER)

Words and Music by Deryk Whibley, Dave Baksh, and Cone Mcaslin

Gtr I (E A D G) - 'Cone'

 Intro
  Fast Rock Q=158
 4/4
  Gtr I
  Wx4
|--------|
|--------|
|--------|
|--------|


  E E H.        E E H.        E E H.        E E Q   H
|-------------|-------------|-------------|---------------|
|-------------|-------------|-------------|---------------|
|-------------|-------------|-------------|---------------|
|-0-0---------|-0-0---------|-0-0---------|-0-0----12\----|


   Post-Chorus
    $
    E E E E Q  E E   E E E E Q  E E   E E E E Q  E E   E E E E Q  E E
||-----------------|----------------|----------------|------------------||
||o----------------|----------------|----------------|-----------------o||
||o----------------|----------------|----------------|-2-2-2-----------o||
||--0-0-0-4-5--5-4-|-0-0-0-4-5--5-4-|-0-0-0-4-5--5-4-|-------4-5--5-4---||


 Verse
  E E E E E E E E   E E E E E E E E   E E E E E E E E   E E E E E E E E
|-----------------|-----------------|-----------------|-----------------|
|-----------------|-----------------|-----------------|-----------------|
|-----------------|-----------------|-----------------|-----------------|
|-0-0-0-0-4-4-4-4-|-5-5-5-5-7-7-7-7-|-0-0-0-0-4-4-4-4-|-5-5-5-5-7-7-7-7-|


  E E E E E E E E   E E E E E E E E   E E E E E E E E   Q  Q  Q  Q
|-----------------|-----------------|-----------------|-------------|
|-----------------|-----------------|-----------------|-------------|
|-----------------|-----------------|-----------------|-------4--6--|
|-0-0-0-0-2-2-2-2-|-1-1-1-1-7-7-7-7-|-0-0-0-0-4-4-4-4-|-5--7--------|


 Chorus
  q  q  q  E E   q  q  q  q    q  q  q  E E   q  q  q  q
|--------------|-------------|--------------|-------------|
|--------------|-------------|--------------|-------------|
|-7--7--7--7-7-|-7--7--7--7--|--------------|-------------|
|--------------|-------------|-7--7--7--7-7-|-7--7--7--7--|


  q  q  q  E E   q  q  q  q    q  q  q  E E   q  q  q  E E
|--------------|-------------|--------------|--------------|
|--------------|-------------|--------------|--------------|
|-7--7--7--7-7-|-7--7--7--7--|--------------|--------------|
|--------------|-------------|-5--5--5--5-5-|-7--7--7--7-7-|


                   D.S.
  W          E E E E H
|----------|--------------|
|----------|--------------|
|----------|--------------|
|-5--------|-7-7-7-7-7----|


 Pre-Bridge
  Q  Q  E E E E   +E  E E E E E Q    Q  Q  E E E E   +E  E E E E E Q
|---------------|------------------|---------------|------------------|
|---------------|------------------|---------------|------------------|
|-------2-2-2---|------------------|-------2-2-2---|------------------|
|-0--0--------5-|-(5)-5-5-5-5-5-5--|-0--0--------5-|-(5)-5-5-5-5-5-5--|


  Q  Q  E E E E   +E  E E E E E Q    E E E E E E E E   E E E E E E E E
|---------------|------------------|-----------------|-----------------|
|---------------|------------------|-----------------|-----------------|
|-------2-2-2---|------------------|-----------------|-0-0-0-0-0-0-0-0-|
|-0--0--------5-|-(5)-5-5-5-5-5-5--|-2-2-2-2-2-2-2-2-|-----------------|


  E E H.        W            E E E E E E E E   Q  E E Q  E E  3x
|-------------|----------||------------------|----------------||
|-------------|----------||o-----------------|---------------o||
|-------------|----------||o-----5-4-2-0-----|-0--0-2-2--2-2-o||
|-0-0---------|----------||--0-0---------4-0-|----------------||


  W          +W           W          +W
|----------|------------|----------|--------|
|----------|------------|----------|--------|
|-4--------|-(4)--------|-2--------|-(2)----|
|----------|------------|----------|--------|


 Bridge
  H.      Q    W          W
|------------|----------|------|
|------------|----------|------|
|-7-------7--|----------|------|
|------------|-7--------|-5----|


  H    H      Q  Q  Q  Q
|-----------|-------------|
|-----------|-------------|
|-----------|-------------|
|-7----7----|-7--7--7--7--|


 Post-Bridge
  Wx3          H.      E  E
|------------|--------------|
|------------|---------9h11-|
|------------|--------------|
|------------|--------------|


  W           Q.   Q.   Q    W           Q.    Q.    Q
|-9--------|-11----9-------|-9--------|-14----13----11--|
|----------|------------9--|----------|-----------------|
|----------|---------------|----------|-----------------|
|----------|---------------|----------|-----------------|


  W           Q.   Q.   Q    W           Q.    Q.    Q
|-9--------|-11----9-------|-9--------|-14----13----11--|
|----------|------------9--|----------|-----------------|
|----------|---------------|----------|-----------------|
|----------|---------------|----------|-----------------|


    E E Q  E E Q    E E Q  E E Q
||----------------|----------------||
||o---------------|---------------o||
||o--------2-2----|--------0-0----o||
||--0-0-----------|-2-2------------||


 Chorus
  Q  E E Q  E E   Q  E E Q  E E   Q  E E Q  E E   Q  E E Q  E E
|---------------|---------------|---------------|---------------|
|---------------|---------------|---------------|---------------|
|------2-2--2---|------0-0--0---|-------------0-|-0--0-2-2--2---|
|-0--0--------2-|-2--2--------0-|-0--0-2-2--2---|-------------2-|


  Q  E E Q  E E   Q  E E Q  E E   Q  Q  Q  Q    E E E E E E E E
|---------------|---------------|-------------|-----------------|
|---------------|---------------|-------------|-----------------|
|------2-2--2---|------0-0--0---|-------------|-----------------|
|-0--0--------2-|-2--2--------0-|-5--5--5--5--|-7-7-7-7-7-7-7-7-|


   Outro
    E E E E Q  E E   E E E E Q  E E   E E E E Q  E E   E E E E Q  E E
||-----------------|----------------|----------------|------------------||
||o----------------|----------------|----------------|-----------------o||
||o----------------|----------------|----------------|-2-2-2-----------o||
||--0-0-0-4-5--5-4-|-0-0-0-4-5--5-4-|-0-0-0-4-5--5-4-|-------4-5--5-4---||


  E H..
|----------*|
|----------*|
|----------*|
|-0--------*|

-------------------------------------------------------------------------------

                             IN TOO DEEP (Bassline)
                              As recorded by Sum 41
                   (From the 2001 Album ALL KILLER NO FILLER)

Words and Music by Deryk Whibley, Dave Baksh, and Cone Mcaslin

Gtr I (E A D G) - 'Cone'

 Intro/1st Verse
 4/4
  Gtr I
  Wx7
|--------|
|--------|
|--------|
|--------|


  H.      Q    E E H.        H.      Q    E E H.        E S S E E E E E E
|------------|-------------|------------|-------------|---------------------|
|---------9--|-------------|---------9--|-------------|---9-9-9-9-9---------|
|------------|-7-7---------|------------|-7-7---------|-------------5-5-7---|
|------------|-------------|------------|-------------|---------------------|


 Pre Chorus
  E E E E E E E E   E E E E E E  E  E   E E E E E E E E   E E E E E E E E
|-----------------|-------------------|-----------------|-----------------|
|-2-2-4-4-6-6-7-9-|-6-6-7-7-9-9-11-14-|-2-2-4-4-6-6-7-9-|-----------------|
|-----------------|-------------------|-----------------|-----------------|
|-----------------|-------------------|-----------------|-5-5-5-5-5-5-5-5-|


 Chorus
  Q  E. S E E E E   Q  E. S E E E E   Q  E. S E E E E   Q  E.  S E E Q
|-----------------|-----------------|-----------------|----------------|
|-----------------|-----------------|-----------------|----------------|
|-----------------|-----------------|-----------------|----------------|
|-0--0--5-5-5-5-5-|-0--0--5-5-5-5-5-|-0--0--5-5-5-5-5-|-0--0---5-5-5---|


  Q  E. S E E E E   Q  E. S E E E E
|-----------------|-----------------|
|-----------------|-----------------|
|-----------------|-----------------|
|-0--0--5-5-5-5-5-|-0--0--5-5-5-5-5-|


  Q  E. S E E E E   E E E E E E E E   E E E E H
|-----------------|-----------------|--------------|
|-----------------|-----------------|--------------|
|-----------------|-7-7-7-7-5-5-5-5-|--------------|
|-0--0--5-5-5-5-5-|-----------------|-5-5-5-5------|


 Pre Verse
  E E  Q  E E E E   E E  Q  E E E E   E E  Q  E E E E   E E  Q  E E E E
|-----------------|-----------------|-----------------|-----------------|
|-----------------|-----------------|-----------------|-----------------|
|-----/7----------|-----/7----------|-----/7----------|-----/7----------|
|-0-0-----5-5-4-5-|-0-0-----5-5-4-5-|-0-0-----5-5-4-5-|-0-0-----5-4-2-4-|


   2nd Verse
    E E H    Q    E E H    Q    E E H    Q    E E E E E E E E
||--------------|-------------|-------------|-------------------||
||o-------------|-------------|-------------|------------------o||
||o-------------|-------------|-------------|------------------o||
||--0-0------4--|-5-5------5--|-0-0------4--|-5-5---4-5-5---5---||


 Pre Chorus
    PM----------|     PM----------|     PM----------------|
  E E E E E E E E   E E E E E E E E   E E E E E E E E   E E E E E E E E
|-----------------|-----------------|-----------------|-----------------|
|-----------------|-----------------|-----------------|-----------------|
|-----------------|-----------------|-----------------|-----------------|
|-0-0-0-0-0-0-0-0-|-5-5-5-5-5-5-5-5-|-0-0-0-0-0-0-0-0-|-5-5-5-5-5-5-5-5-|


 Chorus
  Q  Q  E E Q    Q  Q  E E Q    Q  Q  E E Q    Q  Q  E E Q
|--------------|--------------|--------------|--------------|
|--------------|--------------|--------------|--------------|
|--------------|--------------|--------------|--------------|
|-0--0--5-5-5--|-0--0--5-5-5--|-0--0--5-5-5--|-0--0--5-5----|


  Q  Q  E E Q    Q  Q  E E Q    Q  Q  E E Q
|--------------|--------------|--------------|
|--------------|--------------|--------------|
|--------------|--------------|--------------|
|-0--0--5-5-5--|-0--0--5-5-5--|-0--0--5-5-5--|


  E E E E E E E E   E E E E E E E E   E E E E E E E E   E E E E H
|-----------------|-----------------|-----------------|--------------|
|-----------------|-----------------|-----------------|--------------|
|-7-7-7-7-5-5-5-5-|-----------------|-7-7-7-7-5-5-5-5-|--------------|
|-----------------|-5-5-5-5-5-5-5-5-|-----------------|-5-5-5-5------|


 Pre Solo
  W          W
|----------|------|
|----------|------|
|----------|------|
|----------|------|


   Guitar Solo
    S S S S S E. S S S S S E.   S S S S S E. S S S S E E
||----------------------------|----------------------------||
||o---------------------------|---------------------------o||
||o---------------------------|-5-5-5-5-5-----------------o||
||--0-0-0-0-0----2-2-2-2-2----|--------------5-5-5-5-5-4---||


 3rd Verse
  E E Q  E E Q    E E Q  E E Q    E E Q  E E Q    E E Q  E E Q
|---------------|---------------|---------------|---------------|
|---------------|---------------|---------------|---------------|
|---------------|---------------|---------------|---------------|
|-0-0----2-2----|-5-5----7-7----|-0-0----2-2----|-5-5----7-7----|


  E E Q  E E Q    E E Q  E E Q    E E Q  E E Q    E E Q  E E Q
|---------------|---------------|---------------|----------------|
|---------------|---------------|---------------|----------------|
|---------------|---------------|---------------|------------7\--|
|-0-0----2-2----|-5-5----7-7----|-0-0----2-2----|-5-5----7-7-----|


  E Q.   E Q.     E Q.   E Q.     E Q.   E Q.     E H..
|---------------|---------------|---------------|----------|
|---------------|---------------|---------------|----------|
|---------------|---------------|---------------|----------|
|-0-0----2-2----|-5-5----7-7----|-0-0----2-2----|-5--------|


 Chorus
  E E  Q  E E E E   E E  Q  E E E E   E E  Q  E E E E   E E  Q  E E E E
|-----------------|-----------------|-----------------|-----------------|
|-----------------|-----------------|-----------------|-----------------|
|-----/7----------|-----/7----------|-----/7----------|-----/7----------|
|-0-0-----5-5-4-5-|-0-0-----5-5-4-5-|-0-0-----5-5-4-5-|-0-0-----5-4-2-4-|


  E E  Q  E E E E   E E  Q  E E E E
|-----------------|-----------------|
|-----------------|-----------------|
|-----/7----------|-----/7----------|
|-0-0-----5-5-4-5-|-0-0-----5-5-4-5-|


  E E  Q  E E E E   E E E E E E E E   E E E E E E E E
|-----------------|-----------------|-----------------|
|-----------------|-----------------|-----------------|
|-----/7----------|-7-7-7-7-5-5-5-5-|-----------------|
|-0-0-----5-5-4-5-|-----------------|-5-5-5-5-5-5-5-5-|


 Post Chorus
  E E E E E E E E   E E E E E E E E   E E E E E E E E   E E E E E E E E
|-----------------|-----------------|-----------------|-----------------|
|-----------------|-----------------|-----------------|-----------------|
|-7-7-7-7-5-5-5-5-|-----------------|-7-7-7-7-5-5-5-5-|-----------------|
|-----------------|-5-5-5-5-8-8-8-8-|-----------------|-5-5-5-5-5-5-5-5-|


 Outro
  E E E E E E E E   E E E E E E E E   E E E E E E E E   E E E E E E E E
|-----------------|-----------------|-----------------|-----------------|
|-----------------|-----------------|-----------------|-----------------|
|-7-7-7-7-5-5-5-5-|-----------------|-7-7-7-7-5-5-5-5-|-----------------|
|-----------------|-5-5-5-5-8-8-8-8-|-----------------|-5-5-5-5-8-8-8-8-|


    E E E E E E E E   E E E E E E E E  4x
||------------------|------------------||
||o-----------------|-----------------o||
||o-7-7-7-7-5-5-5-5-|-----------------o||
||------------------|-5-5-5-5-8-8-8-8--||

-------------------------------------------------------------------------------
Sorry no tab for Summer
-------------------------------------------------------------------------------
                             HANDLE THIS (Bassline)
                              As recorded by Sum 41
                   (From the 2001 Album ALL KILLER NO FILLER)

Words and Music by Deryck Whibley, Dave Baksh and Cone McAslin

Gtr I (E A D G) - 'Cone'

 Intro
  Moderate Rock Q=83
 4/4
  Gtr I
  W            E E Q  E E Q    E E Q  E E Q
|----------||----------------|----------------||
|----------||o---------------|---------------o||
|----------||o-5-5-----------|---------------o||
|----------||---------5-5----|-3-3----3-3-----||


 1st Verse
  S S S S S S S S S S S S S S S S
|---------------------------------|
|---------------------------------|
|-5-5-5-5-5-5-5-5-5-5-5-5-5-5-5-5-|
|---------------------------------|


  S S S S S S S S S S S S S S S S   S S S S S S S S S S S S S S S S
|---------------------------------|---------------------------------|
|---------------------------------|---------------------------------|
|-0-0-0-0-0-0-0-0-0-0-0-0-0-0-0-0-|---------------------------------|
|---------------------------------|-3-3-3-3-3-3-3-3-3-3-3-3-3-3-3-3-|


  S S S S S S S S S S S S S S S S   S S S S S S S S S S S S S S S S
|---------------------------------|---------------------------------|
|---------------------------------|---------------------------------|
|-5-5-5-5-5-5-5-5-5-5-5-5-5-5-5-5-|-7-7-7-7-7-7-7-7-7-7-7-7-7-7-7-7-|
|---------------------------------|-5-5-5-5-5-5-5-5-5-5-5-5-5-5-5-5-|


  S S S S S S S S S S S S S E.   S S S S S S S S S S S S S S S S
|------------------------------|----------------------------------||
|-----------------0-0-2-2-4-4--|----------------------------------||
|-2-2-2-2-2-2-2-2--------------|----------------------------------||
|------------------------------|-3-3-3-3-3-3-3-3-3-3-3-3-3-3-3-3--||


 1st Chorus
  E E E E E E E E     E E E E E E E E   E E E E E E E E
|-----------------||------------------|------------------||
|-----------------||o-----------------|-----------------o||
|-2-2-2-2---------||o-5-5-5-5---------|-----------------o||
|---------3-3-3-3-||----------5-5-5-5-|-0-0-0-0-3-3-3-3--||


   Post Chorus
    E E Q  E E Q    E E Q  E E Q
||----------------|----------------||
||o---------------|---------------o||
||o-5-5-----------|---------------o||
||---------5-5----|-3-3----3-3-----||


 2nd Verse
  S S S S S S S S S S S S S S S S
|---------------------------------|
|---------------------------------|
|-5-5-5-5-5-5-5-5-5-5-5-5-5-5-5-5-|
|---------------------------------|


  S S S S S S S S S S S S S S S S   S S S S S S S S S S S S S S S S
|---------------------------------|---------------------------------|
|---------------------------------|---------------------------------|
|-0-0-0-0-0-0-0-0-0-0-0-0-0-0-0-0-|---------------------------------|
|---------------------------------|-3-3-3-3-3-3-3-3-3-3-3-3-3-3-3-3-|


  S S S S S S S S S S S S S S S S
|---------------------------------|
|---------------------------------|
|-5-5-5-5-5-5-5-5-5-5-5-5-5-5-5-5-|
|---------------------------------|


  S S S S S S S S S S S S S S S S   S S S S S S S S S S S S S S S S
|---------------------------------|---------------------------------|
|---------------------------------|---------------------------------|
|-0-0-0-0-0-0-0-0-0-0-0-0-0-0-0-0-|-2-2-2-2-2-2-2-2-2-2-2-2-2-2-2-2-|
|---------------------------------|---------------------------------|


  S S S S S S S S S S S S S S S S   Q  Q  Q  Q
|---------------------------------|-------------||
|---------------------------------|-------------||
|---------------------------------|-------------||
|-3-3-3-3-3-3-3-3-3-3-3-3-3-3-3-3-|-3--3--2--0--||


 2nd Chorus
  E E E E E E E E     E E E E E E E E   E E E E E E E E
|-----------------||------------------|------------------||
|-----------------||o-----------------|-----------------o||
|-2-2-2-2---------||o-5-5-5-5---------|-----------------o||
|---------3-3-3-3-||----------5-5-5-5-|-0-0-0-0-3-3-3-3--||


   Guitar Solo
    E E E E E E E E   E E E E E E E E  3x
||------------------|------------------||
||o-----------------|-----------------o||
||o-5-5-5-5---------|-----------------o||
||----------5-5-5-5-|-0-0-0-0-3-3-3-3--||


 Breakdown
  E E E E E E E E   E E E E E E E E   E E H.        E E Q..   S Q
|-----------------|-----------------|-------------|-----------------|
|-----------------|-----------------|-------------|-----------------|
|-----------------|-----------------|-5-5---------|-5-5-------0-9\--|
|-3-3-3-3-3-3-3-3-|-3-3-3-3-3-3-3-3-|-------------|-----------------|


  E E E E E E E E   E E E E E E E E
|-----------------|-----------------|
|-----------------|-----------------|
|-----------------|-----------------|
|-5-5-5-5-5-5-5-5-|-0-0-0-0-0-0-0-0-|


  E E E E E E E E   S S S S S S S S S S S S S S S S
|-----------------|----------------------------------||
|-----------------|-5-5-5-5-5-5-5-5-5-5-5-5-5-5-5-5--||
|-----------------|----------------------------------||
|-3-3-3-3-3-3-3-3-|----------------------------------||


   3rd Chorus
    E E E E E E E E   E E E E E E E E   E E E E E E E E
||------------------|-----------------|------------------||
||o-----------------|-----------------|-----------------o||
||o-2-2-2-2---------|-5-5-5-5---------|-----------------o||
||----------3-3-3-3-|---------5-5-5-5-|-0-0-0-0-3-3-3-3--||


  E E E E E E E E   E E E E E E E E
|-----------------|-----------------|
|-----------------|-----------------|
|-5-5-5-5---------|-----------------|
|---------5-5-5-5-|-0-0-0-0-3-3-3-3-|


  E E E E E E E E   E E E E S S S S S S S S
|-----------------|-------------------------||
|-----------------|-------------------------||
|-5-5-5-5---------|-------------------------||
|---------5-5-5-5-|-0-0-0-0-3-3-3-3-3-3-3-3-||


   Outro
    S S S S E S S S E E S S S   E S S E S S S E E S S S
||----------------------------|-------------------------|
||o---------------------------|-------------------------|
||o-5-5-5-5-5-5-5-5-5-5-5-5-5-|-------------------------|
||----------------------------|-5-5-5-5-5-5-5-5-5-5-5-5-|


  E E E Q  E Q    E S S S S Q  S S S S S S  3x
|---------------|---------------------------||
|---------------|--------------------------o||
|---------------|-5-5-5-5-5----------------o||
|-3-3---3--3-3--|-----------5--5-5-5-5-5-5--||


  S S S S E S S S E E S S S   E S S E S S S E E S S S
|---------------------------|-------------------------|
|---------------------------|-------------------------|
|-5-5-5-5-5-5-5-5-5-5-5-5-5-|-------------------------|
|---------------------------|-5-5-5-5-5-5-5-5-5-5-5-5-|


  E E E Q  E Q    E S S S S H    +E    +W
|---------------|--------------------|--------*|
|---------------|--------------------|--------*|
|---------------|-5-5-5-5-5----------|--------*|
|-3-3---3--3-3--|-----------5----(5)-|-(5)----*|

-------------------------------------------------------------------------------
No tab for Crazy Armada Bunkface
-------------------------------------------------------------------------------
no tab for All shes Got
-------------------------------------------------------------------------------

                             HEART ATTACK (Bassline)
                              As recorded by Sum 41
                   (From the 2001 Album ALL KILLER NO FILLER)

Words and Music by Sum 41

Gtr I (E A D G) - 'Cone'

 Intro
  Moderately Fast Rock Q=170
 4/4
  Gtr I
  Wx3          H    Q  Q    W           W           W           +W
|------------|------------|----------|-----------|-----------|---------||
|------------|------------|----------|-11--------|-13--------|-(13)----||
|------------|---------4S=|=9--------|-----------|-----------|---------||
|------------|------------|----------|-----------|-----------|---------||


 Verse
  E E E E H      Q.   E +Q   Q    H.      Q    Q.   E +Q   Q
|-----3S4-6----|----------------|------------|-4----3-(3)-----|
|---4----------|-6--------------|---------4--|-------------6--|
|--------------|------4-(4)--6--|-2----------|----------------|
|-2------------|----------------|------------|----------------|


  E E E E H      Q.   E +Q   Q    H.      Q    Q.   E +Q   Q
|-----3S4-6----|----------------|------------|-4----3-(3)-----|
|---4----------|-6--------------|---------4--|-------------6--|
|--------------|------4-(4)--6--|-2----------|----------------|
|-2------------|----------------|------------|----------------|


  E E E E E E E E   E E E E E E E E   E E E E E E E E   E E E E E E E E
|-----------------|-----------------|-----------------|-----------------|
|-4-4-4-4-4-4-4-4-|-----------------|-----------------|-----------------|
|-----------------|-4-4-4-4-4-4-4-4-|-2-2-2-2-2-2-2-2-|-2-2-2-2-2-2-4-4-|
|-----------------|-----------------|-----------------|-----------------|


  E E E E E E E E   E E E E E E E E   E E E E E E E E   E. S E. S E. S E. S
|-----------------|-----------------|-----------------|---------------------||
|-----------------|-----------------|-----------------|---------------------||
|-----------------|-4-4-4-4-4-4-4-4-|-2-2-2-2-2-2-2-2-|-4----4----4----4----||
|-2-2-2-2-2-2-2-2-|-----------------|-----------------|---------------------||


 Chorus
  $
  E. S E. S E. S E. S   E. S E. S E. S E. S
|---------------------|---------------------|
|---------------------|---------------------|
|---------------------|-----------2----2----|
|-2----2----2----2----|-0----0--------------|


  E. S E. S E. S E. S   E. S E. S E. S E. S
|---------------------|---------------------|
|---------------------|---------------------|
|---------------------|-----------2----2----|
|-2----2----2----2----|-0----0--------------|


                                                                      To Coda
                                     |3|
  E. S E. S E. S E. S   E. S E. S Q  Q E   E. S E. S E. S E. S   Q  E E Q  Q
|---------------------|------------------|---------------------|--------------||
|---------------------|------------------|---------------------|--------------||
|---------------------|-----------2--1-2-|---------------------|-4----2-2--2--||
|-2----2----2----2----|-0----0-----------|-2----2----2----2----|--------------||


                                                                  2/4
  E. S E. S E E  E E   E. S E. S E E  E E    E. S  E. S E E  E E   E E E E
|--------------------|--------------------|----------------------|----------|
|-----------9-8----8-|-----------9-8----8-|-------------9-8----8-|----------|
|-9----9--------11---|---------------11---|-----------------11---|-------8--|
|--------------------|-9----9-------------|-11----11-------------|-6-7-9----|


 4/4
  E. S E. S E E  E E   E. S E. S E E  E E    E. S  E. S E E  E E
|--------------------|--------------------|----------------------|
|-----------9-8----8-|-----------9-8----8-|-------------9-8----8-|
|-9----9--------11---|---------------11---|-----------------11---|
|--------------------|-9----9-------------|-11----11-------------|


 2/4       4/4
  E E E E   W          +W
|---------|----------|--------||
|---------|----------|--------||
|---------|----------|--------||
|-6-7-6-7-|-9--------|-(9)----||


 Second Verse
  W          H    H      W          H    H
|----------|-----------|----------|-----------|
|----------|-----------|----------|-----------|
|----------|-4----6----|-2--------|-2----4----|
|-2--------|-----------|----------|-----------|


  W          H    H      W          H    H
|----------|-----------|----------|-----------|
|----------|-----------|----------|-----------|
|----------|-4----6----|-2--------|-2----4----|
|-2--------|-----------|----------|-----------|


  E E E E E E E E   E E E E E E E E   E E E E E E E E   E E E E E E E E
|-----------------|-----------------|-----------------|-----------------|
|-----------------|-----------------|-----------------|-----------------|
|-----------------|-4-4-4-4-4-4-4-4-|-2-2-2-2-2-2-2-2-|-4-4-4-4-4-4-4-4-|
|-2-2-2-2-2-2-2-2-|-----------------|-----------------|-----------------|


  E E E E E E E E   E E E E E E E E   E E E E E E E E
|-----------------|-----------------|-----------------|
|-----------------|-----------------|-----------------|
|-----------------|-4-4-4-4-4-4-4-4-|-2-2-2-2-2-2-2-2-|
|-2-2-2-2-2-2-2-2-|-----------------|-----------------|


                                     D.S. al Coda
  E E E E E E E E   W          E. S E. S E. S E. S
|-----------------|----------|---------------------||
|-4-4-3-3---------|----------|---------------------||
|---------6-6-4-4-|-2--------|-4----4----4----4----||
|-----------------|----------|---------------------||


 Interlude
  &
  E E Q  H      H    Q   Q     E E +E  E E +E  E E   +E  E E +E  E E E E
|-------------|--------------|---------------------|---------------------|
|-------------|--------------|---------------------|---------------------|
|-------------|--------------|-----------------2-2-|-(2)-----------------|
|-2-2---------|------7\--7\--|-2-2-(2)-0-0-(0)-----|-----0-0-(0)-6-7-6-4-|


  E E +E  E E +E  E E   +E  E E +E  E E E E   E E +E  E E +E  E E
|---------------------|---------------------|---------------------|
|---------------------|---------------------|---------------------|
|-----------------2-2-|-(2)-----------------|-----------------2-2-|
|-2-2-(2)-0-0-(0)-----|-----0-0-(0)-6-7-6-4-|-2-2-(2)-0-0-(0)-----|


  +E  E E +E  E E E E   E E +E  E E +E  E E   +E  E E +E  E E E E
|---------------------|---------------------|---------------------||
|---------------------|-4-4-(4)-2-2-(2)-1-1-|-(1)-----------------||
|-(2)-----------------|---------------------|-----4-4-(4)---------||
|-----0-0-(0)-6-7-6-4-|---------------------|-------------6-7-6-4-||


 Third Verse
  Q   Q  H      W          W          H    Q  Q
|-------------|----------|----------|------------|
|-------------|----------|----------|------------|
|-9\----------|----------|----------|---------4S=|
|-------------|----------|----------|------------|


  W           W           W           +W
|----------|-----------|-----------|---------|
|----------|-11--------|-13--------|-(13)----|
|-9--------|-----------|-----------|---------|
|----------|-----------|-----------|---------|


  E E E E H      Q.   E +Q   Q    H.      Q    Q.   E +Q   Q
|-----3S4-6----|----------------|------------|-4----3-(3)-----|
|---4----------|-6--------------|---------4--|-------------6--|
|--------------|------4-(4)--6--|-2----------|----------------|
|-2------------|----------------|------------|----------------|


  E E E E H      Q.   E +Q   Q    E E E E E E E E
|-----3S4-6----|----------------|-----------------|
|---4----------|-6--------------|-----------------|
|--------------|------4-(4)--6--|-2-2-2-2-2-2-2-2-|
|-2------------|----------------|-----------------|


  E E E E E E E E   W          E. S E. S E. S E. S
|-----------------|----------|---------------------||
|-----------------|----------|---------------------||
|-4-4-4-4-4-4-4-4-|-2--------|-4----4----4----4----||
|-----------------|----------|---------------------||


 Third Chorus
  E. S E. S E. S E. S   E. S E. S E. S E. S
|---------------------|---------------------|
|---------------------|---------------------|
|---------------------|-----------2----2----|
|-2----2----2----2----|-0----0--------------|


  E. S E. S E. S E. S   E. S E. S E. S E. S
|---------------------|---------------------|
|---------------------|-2----2--------------|
|---------------------|-----------2----2----|
|-2----2----2----2----|---------------------|


                                     |3|
  E. S E. S E. S E. S   E. S E. S Q  Q E
|---------------------|------------------|
|---------------------|------------------|
|---------------------|-----------2--1-2-|
|-2----2----2----2----|-0----0-----------|


  E. S E. S E. S E. S   Q  E E E +E  Q
|---------------------|------------------||
|---------------------|------------------||
|---------------------|-4----2-2-(2)s9\--||
|-2----2----2----2----|------------------||


 Outro
  E E +E  E E +E  E E   +E  E E +E  E E E E
|---------------------|---------------------|
|---------------------|---------------------|
|-----------------2-2-|-(2)-----------------|
|-2-2-(2)-0-0-(0)-----|-----0-0-(0)-6-7-6-4-|


  E E +E  E E +E  E E   +E  E E +E  E E E E
|---------------------|---------------------|
|---------------------|---------------------|
|-----------------2-2-|-(2)-----------------|
|-2-2-(2)-0-0-(0)-----|-----0-0-(0)-6-7-6-4-|


  E E +E  E E +E  E E   +E  E E +E  E E E E
|---------------------|---------------------|
|---------------------|---------------------|
|-----------------2-2-|-(2)-----------------|
|-2-2-(2)-0-0-(0)-----|-----0-0-(0)-6-7-6-4-|


  E E +E  E E +E  E E   +E  E E +E  E E E E
|---------------------|---------------------|
|-4-4-(4)-2-2-(2)-1-1-|-(1)-----------------|
|---------------------|-----4-4-(4)---------|
|---------------------|-------------6-7-6-4-|


  W          +W           +W           +W
|----------|------------|------------|--------*|
|----------|------------|------------|--------*|
|----------|------------|------------|--------*|
|-2--------|-(2)--------|-(2)--------|-(2)----*|

-------------------------------------------------------------------------------
 PAIN FOR PLEASURE (Bassline)
                            As recorded by Sum 41
                      (From the Album All Killer No Filler)

Words and Music by Sum 41

Gtr I (E A D G) 'Cone'

 Intro
  Moderately Fast Rock Q=160
 4/4
  Gtr I
  Wx4            H.      Q    H.      Q
|------------||-------------|------------|
|------------||o------------|------------|
|------------||o-6-------6--|-4-------4--|
|------------||-------------|------------|


  H.      Q    H    Q  Q   4x
|------------|-------------||
|------------|------------o||
|-2-------2--|-1----1--4--o||
|------------|-------------||


    E E H    Q    E E H    Q    E E H    Q    E E Q  Q  Q
||--------------|-------------|-------------|----------------||
||o-------------|-------------|-------------|---------------o||
||o-6-6---------|-4-4---------|-2-2---------|-1-1----1--4---o||
||--------------|-------------|-------------|----------------||


   Guitar Break
    E S S E S S E S S E S S   E S S E S S E S S E S S
||--------------------------|--------------------------|
||o-------------------------|--------------------------|
||o-6-6-6-6-6-6-6-6-6-6-6-6-|-4-4-4-4-4-4-4-4-4-4-4-4--|
||--------------------------|--------------------------|


  E S S E S S E S S E S S   E S S E S S E S S E S S
|-------------------------|--------------------------||
|-------------------------|-------------------------o||
|-2-2-2-2-2-2-2-2-2-2-2-2-|-1-1-1-1-1-1-1-1-1-4-4-4-o||
|-------------------------|--------------------------||


   Verse
    E S S E S S E S S E S S   E S S E S S E S S E S S
||--------------------------|--------------------------|
||o-------------------------|--------------------------|
||o-6-6-6-6-6-6-6-6-6-6-6-6-|-4-4-4-4-4-4-4-4-4-4-4-4--|
||--------------------------|--------------------------|


  E S S E S S E S S E S S   E S S E S S E S S E S S
|-------------------------|--------------------------||
|-------------------------|-------------------------o||
|-2-2-2-2-2-2-2-2-2-2-2-2-|-1-1-1-1-1-1-1-1-1-4-4-4-o||
|-------------------------|--------------------------||


   Bridge
    E S S E S S E S S E S S   E S S E S S E S S E S S
||--------------------------|--------------------------|
||o-------------------------|--------------------------|
||o-6-6-6-6-6-6-6-6-6-6-6-6-|-4-4-4-4-4-4-4-4-4-4-4-4--|
||--------------------------|--------------------------|


  E S S E S S E S S E S S   E S S E S S E S S E S S
|-------------------------|--------------------------||
|-------------------------|-------------------------o||
|-2-2-2-2-2-2-2-2-2-2-2-2-|-1-1-1-1-1-1-1-1-1-4-4-4-o||
|-------------------------|--------------------------||


   Chorus
    Eb5        F#5Eb5                  B5     C#5
    W          Q  H.        W          Q  E E Q  E E
||-----------|------------|----------|-----------------||
||o----------|------------|----------|----------------o||
||o-6--------|-9--6-------|-6--------|-2--2-2-4--4-4--o||
||-----------|------------|----------|-----------------||


 Ending
  B5     C#5      B5     C#5      Eb5              C#Eb5
  Q  E E Q  E E   Q  E E Q  E E   E H..         Q  E E +Q    Q
|---------------|---------------|-------------|-----------------*|
|---------------|---------------|-------------|-----------------*|
|-2--2-2-4--4-4-|-2--2-2-4--4-4-|-6-6---------|-6--4-6-(6)\-----*|
|---------------|---------------|-------------|-----------------*|


Duration Legend
---------------
W - whole; H - half; Q - quarter; E - 8th; S - 16th; T - 32nd; X - 64th; a - acciaccatura
+ - note tied to previous; . - note dotted; .. - note double dotted
Uncapitalized letters represent notes that are staccato (1/2 duration)
Irregular groupings are notated above the duration line
Duration letters will always appear directly above the note/fret number it represents the
duration for.  Duration letters with no fret number below them represent rests.  Multi-
bar rests are notated in the form Wxn, where n is the number of bars to rest for.  Low
melody durations appear below the staff

Tablature Legend
----------------
 h   - hammer-on
 p   - pull-off
 b   - bend
 pb  - pre-bend
 r   - bend release (if no number after the r, then release immediately)
 /\  - slide into or out of (from/to "nowhere")
 s   - legato slide
 S   - shift slide
  - natural harmonic
[n]  - artificial harmonic
n(n) - tapped harmonic
 ~   - vibrato
 tr  - trill
 T   - tap
 TP  - trem. picking
 PM  - palm muting
\n/  - tremolo bar dip; n = amount to dip
 \n  - tremolo bar down
 n/  - tremolo bar up
/n\  - tremolo bar inverted dip
 =   - hold bend; also acts as connecting device for hammers/pulls
 <>  - volume swell (louder/softer)
 x   - on rhythm slash represents muted slash
 o   - on rhythm slash represents single note slash

Misc Legend
-----------
 |  - bar
||  - double bar
||o - repeat start
o|| - repeat end
*|  - double bar (ending)
 :  - bar (freetime)
 $  - Segno
 &  - Coda
Tempo markers -  = BPM(8/16=s8/s16), where s8 = swing 8ths,
s16 = swing 16ths
-------------------------------------------------------------------------------
THATS IT!SORRY ABOUT THE MISSING TABS BUT I DIDN'T HAVE THE TIME TO TAB ALL THE SONGS...
I THINK IT IS PRETTY ACURATE SO PLEASE USE IT!!!!!!THATS ALL!!!!!!!!!!
-------------------------------------------------------------------------------
comments
print report bad tab
1 comment total.
0 reply
182_generation wrote on October 6 2004, 12:00 am

I have to admit this tab rocks. You actually spent a lot of time on something. Ill be waiting for more of your tabs. This rocks!!!!!!

I want to post or [tab]
guest
You may want to rate the tab now too:
select rating
Please do not post tabs as comments. Select "correction" instead!