Oops, an error
Loading. Please wait.

All Killer No Filler Tab

ver1
ver1

Album

More versions @911Tabs.com
27,415 views 12 this week
4 commentsread comments
1 2 3 4 5
accurate
x 16
Autoscroll
+/-
esc
set tempo
stop
Hey! There's an official Ultimate Guitar app which is ideal
for learning songs when you're away from computer. Get the app
WARNING: You are trying to view
                                    content from Ultimate-Guitar.com
                                    in an unauthorized application,
                                    which is prohibited.

                                    Please use an official Ultimate
                                    Guitar Tabs application for iPhone,
                                    iPad or Android to access legitimate
                                    chords, guitar, bass, and drum tabs
                                    from Ultimate-Guitar.com database.

                                    Type "ultimate guitar tabs" in Apple
                                    App Store's or Android Market's
                                    search to find the application.
Album:All Killer No Filler
Artist:Sum 41
Tabed by:Stephen Brown

1.Nothing On My Back
2.Never Wake Up
3.Fat Lip
4.Rythms
5.Motivation
6.In Too Deep
7.Summer
8.Handle This
9.Crazy Amanda Bunkface
10.All She's Got
11.Heart Attack
12.Pain For Pleasure

-------------------------------------------------------------------------------

                               NOTHING ON MY BACK
                              As recorded by Sum 41
                   (From the 2000 Album ALL KILLER NO FILLER)

Words and Music by Deryck Whibley, Dave Baksh and Cone McAslin

          A5                   D5                   G5                   G5V
      5 7 7 x x x          x 5 7 7 x x          3 5 5 x x x          x x 5 7 8 x

          C#5                  F#5                  E5                   G#5
      x 4 6 6 x x          2 4 4 x x x          0 2 2 x x x          4 6 6 x x x

           A                    G                    D                    C
      5 4 x x x x          3 2 x x x x          x 5 4 x x x          x 6 8 8 x x

         E5VII                 B5
      x 7 9 9 x x          7 9 9 x x x

Gtr I (E A D G B E) - 'Deryck Whibley Dist.'
Gtr II (E A D G B E) - 'Dave Baksh Dist.'
Gtr III (E A D G B E) - 'Deryck Whibley Clean'

 Intro
  Moderately Fast Rock Q=165
  A5   C#D5    G5V    D5      A5   C#G5    G5     D5
 3/4          4/4            3/4          4/4
  Gtr I
  Q  E E E E   Q  E E Q  Q    Q  E E E E   Q  E E Q  Q
|------------|--------------|------------|--------------|
|------------|-8--8---------|------------|--------------|
|------6-7---|-7--7---7--7--|------6-7---|--------7--7--|
|-7--x-6-7---|-5--5---7--7--|-7--x-6-7---|-5--5---7--7--|
|-7--x-4-5---|--------5--5--|-7--x-4-5---|-5--5---5--5--|
|-5--x-----0-|------0-------|-5--x-----0-|-3--3-0-------|


  A5   C#D5    G5     D5      A5   C#D5    G5     D5
 3/4          4/4            3/4          4/4
  Gtr I
  Q  E E E E   Q  E E Q  Q    Q  E E E E   Q  E E Q  Q
|------------|--------------|------------|--------------|
|------------|-8--8---------|------------|--------------|
|------6-7---|-7--7---7--7--|------6-7---|--------7--7--|
|-7--x-6-7---|-5--5---7--7--|-7--x-6-7---|-5--5---7--7--|
|-7--x-4-5---|--------5--5--|-7--x-4-5---|-5--5---5--5--|
|-5--x-----0-|------0-------|-5--x-----0-|-3--3-0-------|
|
| Gtr II
| Q  E E E E   Q  E E Q  Q    Q  E E E E   Q  E E Q  Q
|------------|--------------|------------|--------------|
|------------|--------------|------------|--------------|
|------6-7---|--------7--7--|------6-7---|--------7--7--|
|-7--x-6-7---|-5--5---7--7--|-7--x-6-7---|-5--5---7--7--|
|-7--x-4-5---|-5--5---5--5--|-7--x-4-5---|-5--5---5--5--|
|-5--x-----0-|-3--3-0-------|-5--x-----0-|-3--3-0-------|


  A5   C#D5    G5     D5      A5   C#D5    G5     D5
 3/4          4/4            3/4          4/4
  Gtrs I, II
  Q  E E E E   Q  E E Q  Q    Q  E E E E   Q  E E E E E E
|------------|--------------|------------|----------------||
|------------|--------------|------------|----------------||
|------6-7---|--------7--7--|------6-7---|--------7-7-7-7-||
|-7--x-6-7---|-5--5---7--7--|-7--x-6-7---|-5--5---7-7-7-7-||
|-7--x-4-5---|-5--5---5--5--|-7--x-4-5---|-5--5---5-5-5-5-||
|-5--x-----0-|-3--3-0-------|-5--x-----0-|-3--3-0---------||


 1st Verse
  Gtr II
  E E E E E E E E   E E E E E E E E   E E E E E E E E   E E E E E E E E
|-----------------|-----------------|-----------------|-----------------|
|-----------------|-----------------|-----------------|-----------------|
|-----------------|-----------------|-----------------|-----------------|
|-----------------|-----------------|-----------------|-----------------|
|-----------------|-----------------|-----------------|-----------------|
|-5-5-5-5-5-5-5-5-|-5-5-5-5-5-5-5-5-|-5-5-5-5-5-5-5-5-|-5-5-5-5-5-5-5-5-|


                              F#5 G5
                              Gtrs I,
  E E E E E E E E   E E E E E E E E
|-----------------|-----------------|
|-----------------|-----------------|
|-----------------|-----------------|
|-----------------|-----------4-4-5-|
|-----------------|-----------4-4-5-|
|-5-5-5-5-5-5-5-5-|-5-5-5-5-5-2-2-3-|


  A5           G5   F#G5   F#5      G5E5
  II
  Q  q  H      Q.   E Q.   E   Q.   E Q  Q
|------------|---------------|--------------|
|------------|---------------|--------------|
|------------|---------------|--------------|
|-7--7-------|-5----4-5----4-|-4----5-2--2--|
|-7--7-------|-5----4-5----4-|-4----5-2--2--|
|-5--5-------|-3----2-3----2-|-2----3-0--0--|


  A5                  F#5 G5          A5
  Gtr I
  E E E E H         E E E E H         Q   q   H         H.           Q
|-----------------|-----------------|-----------------|-------------------|
|-----------------|-----------------|-----------------|-------------------|
|-----------------|-----------------|-----------------|-------------------|
|-7-7-7-7---------|---4-4-5---------|-7---7-----------|-------------------|
|-7-7-7-7---------|---4-4-5---------|-7---7-----------|-------------------|
|-5-5-5-5---------|---2-2-3---------|-5---5-----------|--------------9\---|
|
| Gtr II
| PM----|             PM--------------------|              PM-----------|
| E E E E E E E E   E E E E E E E E   E E E E E E E E   E  E E E E E E  E
|-----------------|-----------------|-----------------|-------------------|
|-----------------|-----------------|-----------------|-------------------|
|---------6-6h7p6-|-6---------------|---------6-6h7p6-|-6-----------------|
|-7-7-7-7-7-7-7-7-|-7-7-7-7-7-7-7-7-|-7-7-7-7-7-7-7-7-|-7--7-7-7-7-7-7--7-|
|-----------------|-----------------|-----------------|-------------------|
|-----------------|-----------------|-----------------|-------------------|


  G5   F#G5   F#5 D5                E5
  Q.   E Q.   E   E E E E E E E E   E E E E E  E   E   E
|---------------|-----------------|-----------------------||
|---------------|-----------------|-----------------------||
|---------------|-7-7-7-7-7-7-7-7-|-----------------------||
|-5----4-5----4-|-7-7-7-7-7-7-7-7-|-2-2-2-2-2--2---2---2--||
|-5----4-5----4-|-5-5-5-5-5-5-5-5-|-2-2-2-2-2--2---2---2--||
|-3----2-3----2-|-----------------|-0-0-0-0-0--0---0---0--||
|
| Q.   E Q.   E   E E E E E E E E   E E E E E  E   E   E
|---------------|-----------------|-----------------------||
|---------------|-----------------|-----------------------||
|---------------|-7-7-7-7-7-7-7-7-|-----------------------||
|-5----4-5----4-|-7-7-7-7-7-7-7-7-|-2-2-2-2-2-------------||
|-5----4-5----4-|-5-5-5-5-5-5-5-5-|-2-2-2-2-2-------------||
|-3----2-3----2-|-----------------|-0-0-0-0-0-<5>-<5>-<5>-||


 1st Chorus
  A5    G#G5       G5      E5        A5    G#G5       G5      E5
  Gtrs I, II
  E E E E Q  E E   E E E E E E E E   E E E E Q  E E   E E E E E E E E
|----------------|-----------------|----------------|-----------------|
|----------------|-----------------|----------------|-----------------|
|----------------|-7-7-7-7---------|----------------|-7-7-7-7---------|
|-7-7-7-6-5--5-5-|-7-7-7-7-2-2-2-2-|-7-7-7-6-5--5-5-|-7-7-7-7-2-2-2-2-|
|-7-7-7-6-5--5-5-|-5-5-5-5-2-2-2-2-|-7-7-7-6-5--5-5-|-5-5-5-5-2-2-2-2-|
|-5-5-5-4-3--3-3-|---------0-0-0-0-|-5-5-5-4-3--3-3-|---------0-0-0-0-|


  A5    G#G5       D5      E5
  E E E E Q  E E   E E E E E E E E
|----------------|-----------------|
|----------------|-----------------|
|----------------|-7-7-7-7---------|
|-7-7-7-6-5--5-5-|-7-7-7-7-2-2-2-2-|
|-7-7-7-6-5--5-5-|-5-5-5-5-2-2-2-2-|
|-5-5-5-4-3--3-3-|---------0-0-0-0-|


  A5    G#G5       D5    E5
  E E E E Q  E E   E E E H    +E    +H.      Q
|----------------|----------------|--------------|
|----------------|----------------|--------------|
|----------------|-7-7-7----------|--------------|
|-7-7-7-6-5--5-5-|-7-7-7-2----(2)-|-(2)----------|
|-7-7-7-6-5--5-5-|-5-5-5-2----(2)-|-(2)----------|
|-5-5-5-4-3--3-3-|-------0----(0)-|-(0)------9\--|


 Post-Chorus
  A5   C#D5    G5     D5      A5   C#D5    G5     D5
 3/4          4/4            3/4          4/4
  Q  E E E E   Q  E E Q  Q    Q  E E E E   Q  E E Q  Q
|------------|--------------|------------|--------------|
|------------|--------------|------------|--------------|
|------6-7---|--------7--7--|------6-7---|--------7--7--|
|-7--x-6-7---|-5--5---7--7--|-7--x-6-7---|-5--5---7--7--|
|-7--x-4-5---|-5--5---5--5--|-7--x-4-5---|-5--5---5--5--|
|-5--x-----0-|-3--3-0-------|-5--x-----0-|-3--3-0-------|


  A5   C#D5    G5     D5      A5   C#D5    G5     D5
 3/4          4/4            3/4          4/4
  Q  E E E E   Q  E E Q  Q    Q  E E E E   Q  E E E E Q
|------------|--------------|------------|---------------||
|------------|--------------|------------|---------------||
|------6-7---|--------7--7--|------6-7---|--------7-7-7--||
|-7--x-6-7---|-5--5---7--7--|-7--x-6-7---|-5--5---7-7-7--||
|-7--x-4-5---|-5--5---5--5--|-7--x-4-5---|-5--5---5-5-5--||
|-5--x-----0-|-3--3-0-------|-5--x-----0-|-3--3-0--------||


   2nd Verse
    A       G         A       D         A       G
    Gtr II
    PM|   PM--|   PM----|   PM--|   PM----|   PM--|   PM
    E E E E E E E E   E E E E E E E E   E E E E E E E E
||------------------|-----------------|-----------------|
||o-----------------|-----------------|-----------------|
||------------------|-----------------|-----------------|
||------------------|-------------4---|-----------------|
||o-----4-------2---|-----4---5-5-5-5-|-----4-------2---|
||--5-5-5-5-3-3-3-3-|-5-5-5-5---------|-5-5-5-5-3-3-3-3-|


  A       D         A       G         A       D
  PM|   PM--|   PM----|   PM--|   PM----|   PM--|   PM
  E E E E E E E E   E E E E E E E E   E E E E E E E E
|-----------------|-----------------|------------------||
|-----------------|-----------------|-----------------o||
|-----------------|-----------------|------------------||
|-------------4---|-----------------|-------------4----||
|-----4---5-5-5-5-|-----4-------2---|-----4---5-5-5-5-o||
|-5-5-5-5---------|-5-5-5-5-3-3-3-3-|-5-5-5-5----------||


  D5           E5
  Gtr I
  q  H.        W
|------------|----------------------||
|------------|----------------------||
|-7----------|----------------------||
|-7----------|-2--------------------||
|-5----------|-2--------------------||
|------------|-0--------------------||
|
| Gtr II
| q  H.        H    +E   E   E   E
|------------|----------------------||
|------------|----------------------||
|-7----------|----------------------||
|-7----------|-2----(2)-------------||
|-5----------|-2----(2)-------------||
|------------|-0----(0)-<5>-<5>-<5>-||


 2nd Chorus
  A5    G#G5       D5      E5        D5    G#G5       D5      E5
  Gtrs I, II
  E E E E Q  E E   E E E E E E E E   E E E E Q  E E   E E E E E E E E
|----------------|-----------------|----------------|-----------------|
|----------------|-----------------|----------------|-----------------|
|----------------|-7-7-7-7---------|----------------|-7-7-7-7---------|
|-7-7-7-6-5--5-5-|-7-7-7-7-2-2-2-2-|-7-7-7-6-5--5-5-|-7-7-7-7-2-2-2-2-|
|-7-7-7-6-5--5-5-|-5-5-5-5-2-2-2-2-|-7-7-7-6-5--5-5-|-5-5-5-5-2-2-2-2-|
|-5-5-5-4-3--3-3-|---------0-0-0-0-|-5-5-5-4-3--3-3-|---------0-0-0-0-|


  A5    G#G5       D5      E5        A5    G#G5       D5    E5
  E E E E Q  E E   E E E E E E E E   E E E E Q  E E   E E E H    +E    +W
|----------------|-----------------|----------------|----------------|-------||
|----------------|-----------------|----------------|----------------|-------||
|----------------|-7-7-7-7---------|----------------|-7-7-7----------|-------||
|-7-7-7-6-5--5-5-|-7-7-7-7-2-2-2-2-|-7-7-7-6-5--5-5-|-7-7-7-2----(2)-|-(2)---||
|-7-7-7-6-5--5-5-|-5-5-5-5-2-2-2-2-|-7-7-7-6-5--5-5-|-5-5-5-2----(2)-|-(2)---||
|-5-5-5-4-3--3-3-|---------0-0-0-0-|-5-5-5-4-3--3-3-|-------0----(0)-|-(0)---||


 Drum Solo
   >
  +W           +W           +W           +W
|------------|------------|------------|--------|
|------------|------------|------------|--------|
|------------|------------|------------|--------|
|-(2)--------|-(2)--------|-(2)--------|-(2)----|
|-(2)--------|-(2)--------|-(2)--------|-(2)----|
|-(0)--------|-(0)--------|-(0)--------|-(0)----|


  +W           +W           +W           +W
|------------|------------|------------|--------|
|------------|------------|------------|--------|
|------------|------------|------------|--------|
|-(2)--------|-(2)--------|-(2)--------|-(2)----|
|-(2)--------|-(2)--------|-(2)--------|-(2)----|
|-(0)--------|-(0)--------|-(0)--------|-(0)----|


  Q   H.        W          W          W
|-------------|----------|----------|------|
|-------------|----------|----------|------|
|-9\----------|----------|----------|------|
|-x-----------|----------|----------|------|
|-7\----------|----------|----------|------|
|-------------|----------|----------|------|


  D5   A5   C    E5VII
  Gtr I
  Q  E Q  E Q    W           Q.   Q.   Q     W
|--------------|----------|---------------|--------|
|--------------|----------|--9------------|--------|
|-7--7------8--|-9--------|-------9-------|--9-----|
|-7--7-7--7-x--|-x--------|------------9--|--------|
|-5--5-7--7-6--|-7--------|---------------|--------|
|------5--5----|----------|---------------|--------|
|
| Gtr II
| Q  E Q  E Q    W          +W              +W
|--------------|----------|---------------|--------|
|--------------|----------|---------------|--------|
|-7--7------8--|-9--------|-(9)-----------|-(9)----|
|-7--7-7--7-x--|-x--------|---------------|--------|
|-5--5-7--7-6--|-7--------|-(7)-----------|-(7)----|
|------5--5----|----------|---------------|--------|


  D5   A5   C    E5VII
  Q  E Q  E Q    W           Q.    Q.    Q     W
|--------------|----------|-----------------|-------|
|--------------|----------|--9--------------|-------|
|-7--7------8--|-9--------|--------9--------|--9----|
|-7--7-7--7-x--|-x--------|--------------9--|-------|
|-5--5-7--7-6--|-7--------|-----------------|-------|
|------5--5----|----------|-----------------|-------|
|
| Q  E Q  E Q    W           Q.    Q.    Q     W
|--------------|----------|-12--------------|-12----|
|--------------|----------|-------12--------|-------|
|-7--7------8--|-9--------|-----------------|-------|
|-7--7-7--7-x--|-x--------|-------------14--|-------|
|-5--5-7--7-6--|-7--------|-----------------|-------|
|------5--5----|----------|-----------------|-------|


  D5   A5   Ebm   E           D5   A5   Ebm   E
  Q  E Q  E  Q     W          Q  E Q  E  Q     W
|---------------|-----------|---------------|-------|
|---------------|-----------|---------------|-------|
|-7--7-------8--|--9--------|-7--7-------8--|--9----|
|-7--7-7--7--x--|--x--------|-7--7-7--7--x--|--x----|
|-5--5-7--7--6--|--7--------|-5--5-7--7--6--|--7----|
|------5--5-----|-----------|------5--5-----|-------|
|
| Q  E Q  E  Q     W          Q  E Q  E  Q     W
|---------------|-----------|---------------|-------|
|---------------|-----------|---------------|-------|
|-7--7------11--|-13--------|-7--7------11--|-13----|
|-7--7-7--7--x--|--x--------|-7--7-7--7--x--|--x----|
|-5--5-7--7--9--|-11--------|-5--5-7--7--9--|-11----|
|------5--5-----|-----------|------5--5-----|-------|


  D5   A5   Eb5  D5   A5   Eb5  D5   A5   Eb5
  Q  E Q  E Q    Q  E Q  E Q    Q  E Q  E Q
|--------------|--------------|--------------|
|--------------|--------------|--------------|
|-7--7------8--|-7--7------8--|-7--7------8--|
|-7--7-7--7-8--|-7--7-7--7-8--|-7--7-7--7-8--|
|-5--5-7--7-6--|-5--5-7--7-6--|-5--5-7--7-6--|
|------5--5----|------5--5----|------5--5----|


  A5
  PM------------------------------|
  E E E E E E E E   E E E E E E E E
|-----------------|-----------------|
|-----------------|-----------------|
|-----------------|-----------------|
|-7-7-7-7-7-7-7-7-|-7-7-7-7-7-7-7-7-|
|-7-7-7-7-7-7-7-7-|-7-7-7-7-7-7-7-7-|
|-5-5-5-5-5-5-5-5-|-5-5-5-5-5-5-5-5-|


 Interlude
  E5
  Q  H.        W          W          W
|------------|----------|----------|------|
|------------|----------|----------|------|
|------------|----------|----------|------|
|-2----------|----------|----------|------|
|-2----------|----------|----------|------|
|-0----------|----------|----------|------|


  PM------------------------------------------------------------------|
  E E E E E E E E   E E E E E E E E   E E E E E E E E   E E E E E E E E
|-----------------|-----------------|-----------------|-----------------|
|-----------------|-----------------|-----------------|-----------------|
|-----------------|-----------------|-----------------|-----------------|
|-----------------|-----------------|-----------------|-----------------|
|-7-7-7-6-5-5-5-5-|-----------------|-7-7-7-6-5-5-5-5-|-----------------|
|-----------------|-5-5-5-5-7-7-7-7-|-----------------|-5-5-5-5-7-7-7-7-|


  E5VII   D5        A5      B5        E5VII   D5        A5      B5
  Gtr III
  PM|   PM--|   PM----|
  E E E E E E E E   E E E E E E E E   E E E E E E E E   E E E E E E E E
|-----------------|-----------------|-----------------|-----------------|
|-----------------|-----------------|-----------------|-----------------|
|-----9-------7---|-----------------|-----9-------7---|-----------------|
|---9---9---7---7-|-----7-------9---|---9---9---7---7-|-----7-------9---|
|-7-------5-------|---7---7---9---9-|-7-------5-------|---7---7---9---9-|
|-----------------|-5-------7-------|-----------------|-5-------7-------|
|
| Gtr II
| PM------------------------------------------------------------------|
| E E E E E E E E   E E E E E E E E   E E E E E E E E   E E E E E E E E
|-----------------|-----------------|-----------------|-----------------|
|-----------------|-----------------|-----------------|-----------------|
|-----------------|-----------------|-----------------|-----------------|
|-----------------|-----------------|-----------------|-----------------|
|-7-7-7-6-5-5-5-5-|-----------------|-7-7-7-6-5-5-5-5-|-----------------|
|-----------------|-5-5-5-5-7-7-7-7-|-----------------|-5-5-5-5-7-7-7-7-|


  E5VII   D5        A5      B5        E5VII   D5        A5    B5
  E E E E E E E E   E E E E E E E E   E E E E E E E E   E E E E E E Q
|-----------------|-----------------|-----------------|----------------|
|-----------------|-----------------|-----------------|----------------|
|-----9-------7---|-----------------|-----9-------7---|----------------|
|---9---9---7---7-|-----7-------9---|---9---9---7---7-|-----7---9---9--|
|-7-------5-------|---7---7---9---9-|-7-------5-------|---7-------9----|
|-----------------|-5-------7-------|-----------------|-5-----7--------|
|
| PM------------------------------------------------|
| E E E E E E E E   E E E E E E E E   E E E E E E E E   E E E E E E Q
|-----------------|-----------------|-----------------|----------------|
|-----------------|-----------------|-----------------|----------------|
|-----------------|-----------------|-----------------|----------------|
|-----------------|-----------------|-----------------|-7-7-7-9-9-9-9--|
|-7-7-7-6-5-5-5-5-|-----------------|-7-7-7-6-5-5-5-5-|-7-7-7-9-9-9-9--|
|-----------------|-5-5-5-5-7-7-7-7-|-----------------|-5-5-5-7-7-7-7--|


 3rd Chorus
  E5VII    Eb5D5          A5      B5
  Gtr I
   E  E  E  E  Q   E  E   E E E E E E E E
|-----------------------|-----------------|
|-----------------------|-----------------|
|--9--9--9--8--7---7--7-|-----------------|
|--9--9--9--8--7---7--7-|-7-7-7-7-9-9-9-9-|
|--7--7--7--6--5---5--5-|-7-7-7-7-9-9-9-9-|
|-----------------------|-5-5-5-5-7-7-7-7-|
|
|  E  E  E  E  Q   E  E   E E E E E E E E
|-----------------------|-----------------|
|-----------------------|-----------------|
|-13-13-13-12-11--11-11-|-6-6-6-6-8-8-8-8-|
|--x--x--x--x--x---x--x-|-x-x-x-x-x-x-x-x-|
|-11-11-11-10--9---9--9-|-4-4-4-4-6-6-6-6-|
|-----------------------|-----------------|


  E5VII    Eb5D5          A5      B5
   E  E  E  E  Q   E  E   E E E E E E E E
|-----------------------|-----------------|
|-----------------------|-----------------|
|--9--9--9--8--7---7--7-|-----------------|
|--9--9--9--8--7---7--7-|-7-7-7-7-9-9-9-9-|
|--7--7--7--6--5---5--5-|-7-7-7-7-9-9-9-9-|
|-----------------------|-5-5-5-5-7-7-7-7-|
|
|  E  E  E  E  Q   E  E   E E E E E E E E
|-----------------------|-----------------|
|-----------------------|-----------------|
|-13-13-13-12-11--11-11-|-6-6-6-6-8-8-8-8-|
|--x--x--x--x--x---x--x-|-x-x-x-x-x-x-x-x-|
|-11-11-11-10--9---9--9-|-4-4-4-4-6-6-6-6-|
|-----------------------|-----------------|


  E5VII    Eb5D5          A5      B5
   E  E  E  E  Q   E  E   E E E E E E E E
|-----------------------|-----------------|
|-----------------------|-----------------|
|--9--9--9--8--7---7--7-|-----------------|
|--9--9--9--8--7---7--7-|-7-7-7-7-9-9-9-9-|
|--7--7--7--6--5---5--5-|-7-7-7-7-9-9-9-9-|
|-----------------------|-5-5-5-5-7-7-7-7-|
|
|  E  E  E  E  Q   E  E   E E E E E E E E
|-----------------------|-----------------|
|-----------------------|-----------------|
|-13-13-13-12-11--11-11-|-6-6-6-6-8-8-8-8-|
|--x--x--x--x--x---x--x-|-x-x-x-x-x-x-x-x-|
|-11-11-11-10--9---9--9-|-4-4-4-4-6-6-6-6-|
|-----------------------|-----------------|


  E5VII    Eb5D5          A5    B5
   E  E  E  E  Q   E  E   E E E H    +E
|-----------------------|----------------|
|-----------------------|----------------|
|--9--9--9--8--7---7--7-|----------------|
|--9--9--9--8--7---7--7-|-7-7-7-9----(9)-|
|--7--7--7--6--5---5--5-|-7-7-7-9----(9)-|
|-----------------------|-5-5-5-7----(7)-|
|
|  E  E  E  E  Q   E  E   E E E H    +E
|-----------------------|----------------|
|-----------------------|----------------|
|-13-13-13-12-11--11-11-|-6-6-6-8----(8)-|
|--x--x--x--x--x---x--x-|-x-x-x-x--------|
|-11-11-11-10--9---9--9-|-4-4-4-6----(6)-|
|-----------------------|----------------|


   >                                             <
  +W           +W           +W           +H     +H       +H     H
|------------|------------|------------|---------------|-------------*|
|------------|------------|------------|---------------|-------------*|
|------------|------------|------------|---------------|-------------*|
|-(9)--------|-(9)--------|-(9)--------|-(9)----(9)----|-(9)---------*|
|-(9)--------|-(9)--------|-(9)--------|-(9)----(9)----|-(9)---------*|
|-(7)--------|-(7)--------|-(7)--------|-(7)----(7)----|-(7)---------*|
|
|  >                                             <
| +W           +W           +W           +H     +H       +H     H
|------------|------------|------------|---------------|-------------*|
|------------|------------|------------|---------------|-------------*|
|-(8)--------|-(8)--------|-(8)--------|-(8)----(8)----|-(8)---------*|
|------------|------------|------------|---------------|-------------*|
|-(6)--------|-(6)--------|-(6)--------|-(6)----(6)----|-(6)---------*|
|------------|------------|------------|---------------|-------------*|

-------------------------------------------------------------------------------
                                  NEVER WAKE UP
                              As recorded by Sum 41
                   (From the 2001 Album ALL KILLER NO FILLER)

Words and Music by Sum 41

          G#5                  E5                   C#5                  F#5
      4 6 6 x x x          7 7 9 9 x x          x 4 6 6 x x          2 4 4 x x x

          B5                 E5open                G5/D
      x 2 4 4 x x          0 2 2 x x x          x 5 5 7 x x

Gtr I (E A D G B E) - 'Untitled'
Gtr II (E A D G B E) - 'Untitled'
Gtr III (E A D G B E) - 'Untitled'
Gtr IV (E A D G B E) - 'Untitled'

 Intro       Verse
  Fast Rock Q=220
              G#5    E5       C#5    F#5      G#5    E5       C#5    F#5
 4/4
           Gtrs I, II
  W           E Q  E E Q  E   E Q  E E Q  E   E Q  E E Q  E   E Q  E E Q  E
|----------||---------------|---------------|---------------|---------------|
|----------||---------------|---------------|---------------|---------------|
|----------||--------9-9--9-|-6-6--6--------|--------9-9--9-|-6-6--6--------|
|----------||-6-6--6-9-9--9-|-6-6--6-4-4--4-|-6-6--6-9-9--9-|-6-6--6-4-4--4-|
|----------||-6-6--6-7-7--7-|-4-4--4-4-4--4-|-6-6--6-7-7--7-|-4-4--4-4-4--4-|
|----------||-4-4--4-7-7--7-|--------2-2--2-|-4-4--4-7-7--7-|--------2-2--2-|


  G#5       E5          C#5       F#5
 4/4
  Gtrs I, II
   E  Q   E  E  Q   E    E  Q   E  E  Q   E
|---------------------|---------------------|
|---------------------|---------------------|
|------------9--9---9-|--6--6---6-----------|
|--6--6---6--9--9---9-|--6--6---6--4--4---4-|
|--6--6---6--7--7---7-|--4--4---4--4--4---4-|
|--4--4---4--7--7---7-|------------2--2---2-|
|
| Gtrs III, IV
|  E  Q   E  E  Q   E    E  Q   E  E  Q   E
|---------------------|---------------------|
|---------------------|---------------------|
|-13-13--13-13-13--13-|-13-13--13-11-11--11-|
|--x--x---x--x--x---x-|--x--x---x--x--x---x-|
|-11-11--11-11-11--11-|-11-11--11--9--9---9-|
|---------------------|---------------------|


  G#5       E5          C#5      F#5
   E  Q   E  E  Q   E    E Q   E E Q  E
|---------------------|------------------||
|---------------------|------------------||
|------------9--9---9-|--6-6---6---------||
|--6--6---6--9--9---9-|--6-6---6-4-4--4--||
|--6--6---6--7--7---7-|--4-4---4-4-4--4--||
|--4--4---4--7--7---7-|----------2-2--2--||
|
|  E  Q   E  E  Q   E    Q   Q   H
|---------------------|------------------||
|---------------------|------------------||
|-13-13--13-13-13--13-|-13---------------||
|--x--x---x--x--x---x-|--x---------------||
|-11-11--11-11-11--11-|-11---------------||
|---------------------|------------------||


 Chorus
  $
  B5                F#5               E5open    G5/D   E5open    G5/D
  Gtrs I, II
  E E E E E E E E   E E E E E E E E   E E E E E Q  E   E E E E E Q  E
|-----------------|-----------------|----------------|----------------|
|-----------------|-----------------|----------------|----------------|
|-4-4-4-4-4-4-4-4-|-----------------|-----------7----|-----------7----|
|-4-4-4-4-4-4-4-4-|-4-4-4-4-4-4-4-4-|-2-2-2-2-2-5----|-2-2-2-2-2-5----|
|-2-2-2-2-2-2-2-2-|-4-4-4-4-4-4-4-4-|-2-2-2-2-2-5----|-2-2-2-2-2-5----|
|-----------------|-2-2-2-2-2-2-2-2-|-0-0-0-0-0----0-|-0-0-0-0-0----0-|


                                            To Coda
  B5                F#5               E5open    G5/D   E5open    G5/D
  E E E E E E E E   E E E E E E E E   E E E E E Q  E   E E E E E Q  E
|-----------------|-----------------|----------------|----------------||
|-----------------|-----------------|----------------|----------------||
|-4-4-4-4-4-4-4-4-|-----------------|-----------7----|-----------7----||
|-4-4-4-4-4-4-4-4-|-4-4-4-4-4-4-4-4-|-2-2-2-2-2-5----|-2-2-2-2-2-5----||
|-2-2-2-2-2-2-2-2-|-4-4-4-4-4-4-4-4-|-2-2-2-2-2-5----|-2-2-2-2-2-5----||
|-----------------|-2-2-2-2-2-2-2-2-|-0-0-0-0-0----0-|-0-0-0-0-0----0-||


 Verse
  G#5    E5       C#5    F#5      G#5    E5       C#5    F#5
  Gtrs I, II
  E Q  E E Q  E   E Q  E E Q  E   E Q  E E Q  E   E Q  E E Q  E
|---------------|---------------|---------------|---------------|
|---------------|---------------|---------------|---------------|
|--------9-9--9-|-6-6--6--------|--------9-9--9-|-6-6--6--------|
|-6-6--6-9-9--9-|-6-6--6-4-4--4-|-6-6--6-9-9--9-|-6-6--6-4-4--4-|
|-6-6--6-7-7--7-|-4-4--4-4-4--4-|-6-6--6-7-7--7-|-4-4--4-4-4--4-|
|-4-4--4-7-7--7-|--------2-2--2-|-4-4--4-7-7--7-|--------2-2--2-|


                                                  D.S. al Coda
  G#5    E5       C#5    F#5      G#5    E5       C#5    F#5
  Gtrs I, II
  E Q  E E Q  E   E Q  E E Q  E   E Q  E E Q  E   E Q  E E Q  E
|---------------|---------------|---------------|---------------||
|---------------|---------------|---------------|---------------||
|--------9-9--9-|-6-6--6--------|--------9-9--9-|-6-6--6--------||
|-6-6--6-9-9--9-|-6-6--6-4-4--4-|-6-6--6-9-9--9-|-6-6--6-4-4--4-||
|-6-6--6-7-7--7-|-4-4--4-4-4--4-|-6-6--6-7-7--7-|-4-4--4-4-4--4-||
|-4-4--4-7-7--7-|--------2-2--2-|-4-4--4-7-7--7-|--------2-2--2-||


  &
                B5                F#5
  Gtr III     Gtrs III, IV
  H     H       E E E E E E E E   E E E E E E E E
|-------------|-----------------|-----------------|
|-------------|-----------------|-----------------|
|-------------|-8-8-8-8-8-8-8-8-|-6-6-6-6-6-6-6-6-|
|-------------|-x-x-x-x-x-x-x-x-|-x-x-x-x-x-x-x-x-|
|-------------|-6-6-6-6-6-6-6-6-|-4-4-4-4-4-4-4-4-|
|------17\----|-----------------|-----------------|
|
|             Gtrs I, II
| W             E E E E E E E E   E E E E E E E E
|-------------|-----------------|-----------------|
|-------------|-----------------|-----------------|
|-------------|-4-4-4-4-4-4-4-4-|-----------------|
|-------------|-4-4-4-4-4-4-4-4-|-4-4-4-4-4-4-4-4-|
|-------------|-2-2-2-2-2-2-2-2-|-4-4-4-4-4-4-4-4-|
|-------------|-----------------|-2-2-2-2-2-2-2-2-|


  E5        G5/D   E5        G5/D   B5                F#5
  E E E E E Q  E   E E E E E Q  E   E E E E E E E E   E E E E E E E E
|----------------|----------------|-----------------|-----------------|
|----------------|----------------|-----------------|-----------------|
|-9-9-9-9-9-7--x-|-9-9-9-9-9-7--x-|-8-8-8-8-8-8-8-8-|-6-6-6-6-6-6-6-6-|
|-x-x-x-x-x-5--x-|-x-x-x-x-x-7--x-|-x-x-x-x-x-x-x-x-|-x-x-x-x-x-x-x-x-|
|-7-7-7-7-7-5--x-|-7-7-7-7-7-5--x-|-6-6-6-6-6-6-6-6-|-4-4-4-4-4-4-4-4-|
|----------------|----------------|-----------------|-----------------|
|
| E E E E E Q  E   E E E E E Q  E   E E E E E E E E   E E E E E E E E
|----------------|----------------|-----------------|-----------------|
|----------------|----------------|-----------------|-----------------|
|-----------7----|-----------7----|-4-4-4-4-4-4-4-4-|-----------------|
|-2-2-2-2-2-5----|-2-2-2-2-2-5----|-4-4-4-4-4-4-4-4-|-4-4-4-4-4-4-4-4-|
|-2-2-2-2-2-5----|-2-2-2-2-2-5----|-2-2-2-2-2-2-2-2-|-4-4-4-4-4-4-4-4-|
|-0-0-0-0-0----0-|-0-0-0-0-0----0-|-----------------|-2-2-2-2-2-2-2-2-|


  E5        G5/D   E5        G5/D              E5
                                    Gtrs I, II, III, IV
  E E E E E Q  E   E E E E E Q  E   W          Q  Q  H
|----------------|----------------|----------|------------*|
|----------------|----------------|----------|------------*|
|-9-9-9-9-9-7--x-|-9-9-9-9-9-7--x-|----------|------------*|
|-x-x-x-x-x-5--x-|-x-x-x-x-x-5--x-|----------|-2----------*|
|-7-7-7-7-7-5--x-|-7-7-7-7-7-5--x-|----------|-2----------*|
|----------------|----------------|-4S=======|=0----------*|
|
| E E E E E Q  E   E E E E E Q  E   W          W
|----------------|----------------|----------|------------*|
|----------------|----------------|----------|------------*|
|-----------7----|-----------7----|----------|------------*|
|-2-2-2-2-2-5----|-2-2-2-2-2-5----|----------|------------*|
|-2-2-2-2-2-5----|-2-2-2-2-2-5----|----------|------------*|
|-0-0-0-0-0----0-|-0-0-0-0-0----0-|----------|------------*|

-------------------------------------------------------------------------------

                                     FAT LIP
                              As recorded by Sum 41
                   (From the 2001 Album ALL KILLER NO FILLER)
Note:THE FIRST INTRO IS THE CORRECT ONE(CHANGE THE OTHERS YOU'RE SELF)

Words and Music by Sum 41

Gtr I (D A D G B E) - 'Untitled'
Gtr II (D A D G B E) - 'Untitled'
Gtr III (D A D G B E) - 'Untitled'
Gtr IV (E A D G B E) - 'Untitled'
Gtr V (E A D G B E) - 'Untitled'

 Intro
  Moderate Rock Q=98
 4/4
  Gtr I
  PM--|    PM--|      PM--|    PM--|
  S S E Q  S S E Q    S S E Q  S S E S E.
|-------------------|---------------------|
|-------------------|---------------------|
|-------1-----------|-------1-------------|
|----------------4--|----------------4-2--|
|-0-1-2----0-1-2----|-0-1-2----0-1-2------|
|-------------------|---------------------|
|
| Gtr II
| W                   W
|-------------------|---------------------|
|-------------------|---------------------|
|-------------------|---------------------|
|-------------------|---------------------|
|-------------------|---------------------|
|-------------------|---------------------|
|
| Gtr III
| W                   W
|-------------------|---------------------|
|-------------------|---------------------|
|-------------------|---------------------|
|-------------------|---------------------|
|-------------------|---------------------|
|-------------------|---------------------|


  PM--|    PM--|      PM--|    PM--|
  S S E Q  S S E Q    S S E Q  S S E  S  E.
|-------------------|-----------------------------|
|-------------------|-----------------------------|
|-------1-----------|-------1---------------------|
|----------------4--|-----------------4--2--------|
|-0-1-2----0-1-2----|-0-1-2----0-1-2--------------|
|-------------------|-----------------------------|
|
| W                   H        Q      Q
|-------------------|-----------------------------|
|-------------------|-----------------------------|
|-------------------|-----------------------------|
|-------------------|-----------------------------|
|-------------------|-----------------------------|
|-------------------|----------------16\----------|
|
| W                   H        Q      S  S  S S
|-------------------|-----------------------------|
|-------------------|-----------------------------|
|-------------------|-----------------------------|
|-------------------|-----------------0--0--0-0---|
|-------------------|-----------------0--0--0-0---|
|-------------------|-----------------0--0--0-0---|


  D5  E5     D5  E5A5   D5  E5     D5  E5A5
  Gtr I
  S S E Q    S S E Q    S S E Q    S S E S E.
|---------------------|-----------------------|
|---------------------|-----------------------|
|-------1-------------|-------1---------------|
|------------------4--|------------------4-2--|
|-0-1-2------0-1-2----|-----------------------|
|---------------------|-0-1-2------0-1-2------|
|
| Gtrs II, III
| E   E E. S E   E Q    E   E E. S E   E Q
|---------------------|-----------------------|
|---------------------|-----------------------|
|---------------------|-----------------------|
|-0---2-2--2-0---2S7--|-0---2-2--2-0---2S7----|
|-0---2-2--2-0---2S7--|-0---2-2--2-0---2S7----|
|-0---2-2--2-0---2S7--|-0---2-2--2-0---2S7----|


  D5  E5     D5  E5A5   D5  E5     D5  E5A5
  S S E Q    S S E Q    S S E Q    S S E S  E.
|---------------------|------------------------------||
|---------------------|------------------------------||
|-------1-------------|-------1----------------------||
|------------------4--|------------------4--2--------||
|-0-1-2------0-1-2----|-0-1-2------0-1-2-------------||
|---------------------|------------------------------||
|
| E   E E. S E   E Q    E   E E. S E   E E.    +S
|---------------------|------------------------------||
|---------------------|------------------------------||
|---------------------|------------------------------||
|-0---2-2--2-0---2S7--|-0---2-2--2-0---2S7-----(7)\--||
|-0---2-2--2-0---2S7--|-0---2-2--2-0---2S7-----(7)\--||
|-0---2-2--2-0---2S7--|-0---2-2--2-0---2S7-----(7)\--||


   1st Verse
    E5            B5     A5
    Gtrs II, III
    S S E E S S e e Q    S S E E S S e E E E
||---------------------|---------------------|
||o--------------------|---------------------|
||----------------4-4--|-2-2-----------------|
||--2-2-----2-1-2-4-4--|-2-2-----------------|
||o-2-2-----------2-2--|-0-0-----2-1-2-0-----|
||--2-2----------------|-----------------6-4-|


  E5            B5     A5
  Gtr II
  S S E E S S e e Q    S S E E S S e E E E
|--------------------|---------------------||
|--------------------|---------------------||
|---------------4-4--|-2-2-----------------||
|-2-2-----6-4-6-4-4--|-2-2-----2-1-2-------||
|-2-2-----------2-2--|-0-0-----------0-----||
|-2-2----------------|-----------------6-4-||
|
| Gtr III
| S S E E S S e e Q    S S E E S S e E E E
|--------------------|---------------------||
|--------------------|---------------------||
|--------------------|---------------------||
|-2-2-----6S4S6-9-9--|-7-7-----------------||
|-2-2-----------9-9--|-7-7-----7S6S7-------||
|-2-2-----------9-9--|-7-7-----------7-6-4-||


 Pre-Chorus
  Double Time Q=196
  E5                                  C#5               A5            E5
  Gtrs II, III
  PM|   PM--|   PM----|   PM--|   PM----|   PM--|   PM----|   PM--|   PM|
  E E E E E E E E   E E E E E E E E   E E E E E E E E   E E E E E E E S S
|-----------------|-----------------|-----------------|-------------------|
|-----------------|-----------------|-----------------|-------------------|
|-----------------|-----------------|-----6-------6---|-----2-------2-----|
|-----2-------2---|-----2-------2---|-6-6-6-6-6-6-6---|-2-2-2-2-2-2-2-----|
|-2-2-2-2-2-2-2-2-|-2-2-2-2-2-2-2-2-|-4-4-4-4-4-4-4-0-|-0-0-0-0-0-0-0-2-2-|
|-2-2-2-2-2-2-2-2-|-2-2-2-2-2-2-2-2-|-----------------|---------------2-2-|


  E5                                    C#5               N.C.
  PM|   PM--|   PM    PM|   PM--|   PM----|   PM--|
  E E E E E E E S S   E E E E E E E E   E E E E E E E E   W
|-------------------|-----------------|-----------------|-------||
|-------------------|-----------------|-----------------|-------||
|-----1-------1-----|-----1-------1---|-----6-------6---|-------||
|-----2-------2-----|-----2-------2---|-6-6-6-6-6-6-6---|-------||
|-2-2-2-2-2-2-2-2-2-|-2-2-2-2-2-2-2-2-|-4-4-4-4-4-4-4-0-|-x\----||
|-2-2-2-2-2-2-2-2-2-|-2-2-2-2-2-2-2-2-|-----------------|-------||


 1st and 2nd Choruses
  E    B      C#m                          G#5  A5     G#5      A5
  Gtr III
  Q  E E Q  E  E    Q   E  E  E  E  E  e   Q  E E Q  E E   Q  E E Q  Q
|----------------|-----------------------|---------------|----------------|
|-9--x-7-7--x--9-|--9---9--9--9--9--9--9-|---------------|----------------|
|-9--x-8-8--x--9-|--9---9--9--9--9--9--9-|-8--x-9-9--x-8-|-8--x-9-9--0----|
|-9--x-9-9--x-11-|-11--11-11-11-11-11-11-|-x--x-x-x--x-x-|-x--x-x-x--0----|
|----------------|-----------------------|-6--x-7-7--x-6-|-6--x-7-7--0----|
|----------------|-----------------------|---------------|----------------|
|
| Gtr II
| Q  E E Q  E  E    Q   E  E  E  E  E  E   Q  E E Q  E E   Q  E E Q  Q
|----------------|-----------------------|---------------|----------------|
|----------------|-----------------------|---------------|----------------|
|----------------|-----------------------|---------------|----------------|
|-6--x-4-4--x--2-|--2---2--2--2--2--2--0-|-6--x-7-7--x-6-|-6--x-7-7--x/---|
|-7--x-6-6--x--4-|--4---4--4--4--4--4--0-|-6--x-7-7--x-6-|-6--x-7-7--x/---|
|----------------|---------------------0-|-6--x-7-7--x-6-|-6--x-7-7-------|


  E    B      C#m                          G#5  A5     G#5      A5
  Q  E E Q  E  E    Q   E  E  E  E  E  e   Q  E E Q  E E   Q  E E E E E E
|----------------|-----------------------|---------------|------------------||
|-9--x-7-7--x--9-|--9---9--9--9--9--9--9-|---------------|------------------||
|-9--x-8-8--x--9-|--9---9--9--9--9--9--9-|-8--x-9-9--x-8-|-8--x-9-9-9-9-9---||
|-9--x-9-9--x-11-|-11--11-11-11-11-11-11-|-x--x-x-x--x-x-|-x--x-x-x-x-x-x---||
|----------------|-----------------------|-6--x-7-7--x-6-|-6--x-7-7-7-7-7---||
|----------------|-----------------------|---------------|------------------||
|
| Q  E E Q  E  E    Q   E  E  E  E  E  E   Q  E E Q  E E   Q  E E E E E E
|----------------|-----------------------|---------------|------------------||
|----------------|-----------------------|---------------|------------------||
|----------------|-----------------------|---------------|------------------||
|-6--x-4-4--x--2-|--2---2--2--2--2--2--0-|-6--x-7-7--x-6-|-6--x-7-7-7-7-7\--||
|-7--x-6-6--x--4-|--4---4--4--4--4--4--0-|-6--x-7-7--x-6-|-6--x-7-7-7-7-7\--||
|----------------|---------------------0-|-6--x-7-7--x-6-|-6--x-7-7-7-7-7\--||


  1.iginal Tempo Q=98
  D5  E5     D5  E5A5   D5  E5     D5  E5A5
  Gtr I
  S S E Q    S S E Q    S S E Q    S S E S E.
|---------------------|-----------------------|
|---------------------|-----------------------|
|---------------------|-----------------------|
|-------6-------------|-------6---------------|
|------------------9--|------------------9-7--|
|-6-7-9------6-7-9----|-6-7-9------6-7-9------|
|
| Gtrs II, III
| E   E E. S E   E Q    E   E E. S E   E Q
|---------------------|-----------------------|
|---------------------|-----------------------|
|---------------------|-----------------------|
|-0---2-2--2-0---2S7--|-0---2-2--2-0---2S7----|
|-0---2-2--2-0---2S7--|-0---2-2--2-0---2S7----|
|-0---2-2--2-0---2S7--|-0---2-2--2-0---2S7----|


  D5  E5     D5  E5A5   D5  E5     D5  E5A5
  S S E Q    S S E Q    S S E Q    S S E S  E.        W
|---------------------|-----------------------------|-------||
|---------------------|-----------------------------|------o||
|---------------------|-----------------------------|-------||
|-------6-------------|-------6---------------------|-------||
|------------------9--|------------------9--7-------|------o||
|-6-7-9------6-7-9----|-6-7-9------6-7-9------------|-------||
|
| E   E E. S E   E Q    E   E E. S E   E E.    +S     W
|---------------------|-----------------------------|-------||
|---------------------|-----------------------------|------o||
|---------------------|-----------------------------|-------||
|-0---2-2--2-0---2S7--|-0---2-2--2-0---2S7-----(7)\-|-------||
|-0---2-2--2-0---2S7--|-0---2-2--2-0---2S7-----(7)\-|------o||
|-0---2-2--2-0---2S7--|-0---2-2--2-0---2S7-----(7)\-|-------||


  2.iginal Tempo Q=98
  E5                                        A5
  Gtrs II, III
  S S E E S S S S E E E   S S E E S S S S E Q
|-----------------------|----------------------|
|-----------------------|----------------------|
|-----------------------|-------------------2--|
|-2-2---x-2-2---x-x-2---|-2-2---x-2-2---x-x-2--|
|-2-2---x-2-2---x-x-2---|-2-2---x-2-2---x-x-0--|
|-2-2---x-2-2---x-x-2---|-2-2---x-2-2---x-x----|


  E5
  S S E E S S S S E E E   S S S S E S S H
|-----------------------|--------------------||
|-----------------------|--------------------||
|-----------------------|--------------------||
|-2-2---x-2-2---x-x-2---|-2-2---x-x-2-2------||
|-2-2---x-2-2---x-x-2---|-2-2---x-x-2-2------||
|-2-2---x-2-2---x-x-2---|-2-2---x-x-2-2------||


 Bridge
  E5      E5/D#      C#m       A5      E5      E5/D#      C#m       A5
  Gtr IV
  E E E E E E E E    E E E E E E E E   E E E E E E E E    E E E E E E E E
|------------------|-----------------|------------------|------------------|
|------------------|-----5-----------|------------------|-----5------------|
|-----9-------9----|-----------------|-----9-------9----|------------------|
|---9---9---9---9\-|---6---6-----2---|---9---9---9---9\-|---6---6-----2----|
|-7-------6--------|-4---------0---0-|-7-------6--------|-4---------0---0--|
|------------------|-----------------|------------------|------------------|


 Bridge
  E5      E5/D#      C#m       A5      E5      E5/D#      C#m       A5
  Gtr IV
  E E E E E E E E    E E E E E E E E   E E E E E E E E    E E E E E E  E E
|------------------|-----------------|------------------|--------------------||
|------------------|-----5-----------|------------------|-----5--------------||
|-----9-------9----|-----------------|-----9-------9----|--------------------||
|---9---9---9---9\-|---6---6-----2---|---9---9---9---9\-|---6---6------2-----||
|-7-------6--------|-4---------0---0-|-7-------6--------|-4---------0----0---||
|------------------|-----------------|------------------|--------------------||
|
| Gtr V                                                               Gtrs II, III
| E E E E E E E E    E E E E E E E E   E E E E E E E E    E E E E E E  E S S
|-0---0---2---2----|-0---0-----0-----|-0---0---2---2----|-0---0-----0--------||
|---0---0---0---0--|---0---0h2---2-0-|---0---0---0---0--|---0---0h2----------||
|------------------|-----------------|------------------|----------------0-0-||
|------------------|-----------------|------------------|-------------/xS0-0-||
|------------------|-----------------|------------------|-------------/xS0-0-||
|------------------|-----------------|------------------|-------------/xS0-0-||


 3rd Verse
  D5E5     D5E5A5   D5E5     D5E5A5
  Gtrs II, III
  E E E. S E E Q    E E E. S E E E +E
|-----------------|---------------------|
|-----------------|---------------------|
|-----------------|---------------------|
|-0-2-2--2-0-2S7--|-0-2-2--2-0-2S7-(7)\-|
|-0-2-2--2-0-2S7--|-0-2-2--2-0-2S7-(7)\-|
|-0-2-2--2-0-2S7--|-0-2-2--2-0-2S7-(7)\-|


                    D5E5     D5E5A5
  H    Q  S S S S   E E E. S E E E +E
|-----------------|---------------------|
|-----------------|---------------------|
|---------x-x-x-x-|---------------------|
|---------x-x-x-x-|-0-2-2--2-0-2S7-(7)\-|
|---------x-x-x-x-|-0-2-2--2-0-2S7-(7)\-|
|---------x-x-x-x-|-0-2-2--2-0-2S7-(7)\-|


  D5E5     D5E5     D5E5   D5E5A5
  E E E. S E E Q    E E Q  E E Q
|-----------------|---------------|
|-----------------|---------------|
|-----------------|---------------|
|-0-2-2--2-0-2----|-0-2----0-2S7--|
|-0-2-2--2-0-2----|-0-2----0-2S7--|
|-0-2-2--2-0-2----|-0-2----0-2S7--|


  D5E5     D5E5A5
  E E E. S E E E +E     W          H    Q  E  E
|---------------------|----------|---------------||
|---------------------|----------|---------------||
|---------------------|----------|---------------||
|-0-2-2--2-0-2S7-(7)\-|----------|---------------||
|-0-2-2--2-0-2S7-(7)\-|----------|---------------||
|-0-2-2--2-0-2S7-(7)\-|----------|-----------14\-||


  Double Time Q=196
  D5                                  D5
  PM------------------------------|
  E E E E E E E E   E E E E E E E E   E E E E E E E E   E E E E E E E E
|-----------------|-----------------|-----------------|------------------||
|-----------------|-----------------|-----------------|------------------||
|-----------------|-----------------|-7-7-7-7-7-7-7-7-|-7-7-7-7-7-7-7-7--||
|-----------------|-----------------|-7-7-7-7-7-7-7-7-|-7-7-7-7-7-7-7-7--||
|-0-0-0-0-0-0-0-0-|-0-0-0-0-0-0-0-0-|-5-5-5-5-5-5-5-5-|-5-5-5-5-5-5-5-5--||
|-0-0-0-0-0-0-0-0-|-0-0-0-0-0-0-0-0-|-0-0-0-0-0-0-0-0-|-0-0-0-0-0-0-0-0--||


 3rd Chorus
  E    B      C#m                          G#5  A5     G#5      A5
  Gtr III
  Q  E E Q  E  E    Q   E  E  E  E  E  e   Q  E E Q  E E   Q  E E Q  Q
|----------------|-----------------------|---------------|----------------|
|-9--x-7-7--x--9-|--9---9--9--9--9--9--9-|---------------|----------------|
|-9--x-8-8--x--9-|--9---9--9--9--9--9--9-|-8--x-9-9--x-8-|-8--x-9-9--0----|
|-9--x-9-9--x-11-|-11--11-11-11-11-11-11-|-x--x-x-x--x-x-|-x--x-x-x--0----|
|----------------|-----------------------|-6--x-7-7--x-6-|-6--x-7-7--0----|
|----------------|-----------------------|---------------|----------------|
|
| Gtr II
| Q  E E Q  E  E    Q   E  E  E  E  E  E   Q  E E Q  E E   Q  E E Q  Q
|----------------|-----------------------|---------------|----------------|
|----------------|-----------------------|---------------|----------------|
|----------------|-----------------------|---------------|----------------|
|-6--x-4-4--x--2-|--2---2--2--2--2--2--0-|-6--x-7-7--x-6-|-6--x-7-7--x/---|
|-7--x-6-6--x--4-|--4---4--4--4--4--4--0-|-6--x-7-7--x-6-|-6--x-7-7--x/---|
|----------------|---------------------0-|-6--x-7-7--x-6-|-6--x-7-7-------|


  E    B      C#m                          G#5  A5     G#5      A5
  Q  E E Q  E  E    Q   E  E  E  E  E  e   Q  E E Q  E E   Q  E E Q   Q
|----------------|-----------------------|---------------|-------------------|
|-9--x-7-7--x--9-|--9---9--9--9--9--9--9-|---------------|-------------------|
|-9--x-8-8--x--9-|--9---9--9--9--9--9--9-|-8--x-9-9--x-8-|-8--x-9-9----------|
|-9--x-9-9--x-11-|-11--11-11-11-11-11-11-|-x--x-x-x--x-x-|-x--x-x-x----------|
|----------------|-----------------------|-6--x-7-7--x-6-|-6--x-7-7---x\-----|
|----------------|-----------------------|---------------|------------x\-----|
|
| Q  E E Q  E  E    Q   E  E  E  E  E  E   Q  E E Q  E E   Q  E E E E E  E
|----------------|-----------------------|---------------|-------------------|
|----------------|-----------------------|---------------|-------------------|
|----------------|-----------------------|---------------|-------------------|
|-6--x-4-4--x--2-|--2---2--2--2--2--2--0-|-6--x-7-7--x-6-|-6--x-7-7-7-7--7\--|
|-7--x-6-6--x--4-|--4---4--4--4--4--4--0-|-6--x-7-7--x-6-|-6--x-7-7-7-7--7\--|
|----------------|---------------------0-|-6--x-7-7--x-6-|-6--x-7-7-7-7--7\--|


  E     B      C#m                  G#5  A5     G#5      A5
  Gtr III
   Q  E E Q  E E   Q  E E E E E e   Q  E E Q  E E   Q  E E Q  Q
|----------------|----------------|---------------|----------------|
|-12--x-7-7--x-9-|-9--9-9-9-9-9-9-|-7--x-9-9--x-7-|-7--x-9-9-------|
|--x--x-x-x--x-6-|-6--6-6-6-6-6-6-|-x--x-x-x--x-x-|-x--x-x-x--0----|
|--9--x-4-4--x-6-|-6--6-6-6-6-6-6-|-4--x-6-6--x-4-|-4--x-6-6--0----|
|----------------|----------------|---------------|-----------0----|
|----------------|----------------|---------------|----------------|
|
| Gtr II
|  Q  E E Q  E E   Q  E E E E E E   Q  E E Q  E E   Q  E E Q  Q
|----------------|----------------|---------------|----------------|
|----------------|----------------|---------------|----------------|
|----------------|----------------|---------------|----------------|
|--6--x-4-4--x-2-|-2--2-2-2-2-2-0-|-6--x-7-7--x-6-|-6--x-7-7--x/---|
|--7--x-6-6--x-4-|-4--4-4-4-4-4-0-|-6--x-7-7--x-6-|-6--x-7-7--x/---|
|----------------|--------------0-|-6--x-7-7--x-6-|-6--x-7-7-------|


  E       B    C#m                  G#5    A5   G#5        A5
   Q  E E Q  E E   Q  E E E E E e   Q  E E Q  E E   Q  E E Q   Q
|----------------|----------------|---------------|-------------------||
|-12--x-7-7--x-9-|-9--9-9-9-9-9-9-|-7--x-9-9--x-7-|-7--x-9-9---9\-----||
|--x--x-x-x--x-6-|-6--6-6-6-6-6-6-|-x--x-x-x--x-x-|-x--x-x-x---x------||
|--9--x-4-4--x-6-|-6--6-6-6-6-6-6-|-4--x-6-6--x-4-|-4--x-6-6---6\-----||
|----------------|----------------|---------------|-------------------||
|----------------|----------------|---------------|-------------------||
|
|  Q  E E Q  E E   Q  E E E E E E   Q  E E Q  E E   Q  E E E E E  E
|----------------|----------------|---------------|-------------------||
|----------------|----------------|---------------|-------------------||
|----------------|----------------|---------------|-------------------||
|--6--x-4-4--x-2-|-2--2-2-2-2-2-0-|-6--x-7-7--x-6-|-6--x-7-7-7-7--7\--||
|--7--x-6-6--x-4-|-4--4-4-4-4-4-0-|-6--x-7-7--x-6-|-6--x-7-7-7-7--7\--||
|----------------|--------------0-|-6--x-7-7--x-6-|-6--x-7-7-7-7--7\--||


 Outro
  Original Tempo Q=98
  D5  E5     D5  E5A5   D5  E5     D5  E5A5     D5  E5     D5  E5A5
  Gtr I
  S S E Q    S S E Q    S S E Q    S S E S E.   S S E Q    S S E Q
|---------------------|-----------------------|---------------------|
|---------------------|-----------------------|---------------------|
|---------------------|-----------------------|---------------------|
|-------6-------------|-------6---------------|-------6-------------|
|------------------9--|------------------9-7--|------------------9--|
|-6-7-9------6-7-9----|-6-7-9------6-7-9------|-6-7-9------6-7-9----|
|
| Gtrs II, III
| E   E E. S E   E Q    E   E E. S E   E Q      E   E E. S E   E Q
|---------------------|-----------------------|---------------------|
|---------------------|-----------------------|---------------------|
|---------------------|-----------------------|---------------------|
|-0---2-2--2-0---2S7--|-0---2-2--2-0---2S7----|-0---2-2--2-0---2S7--|
|-0---2-2--2-0---2S7--|-0---2-2--2-0---2S7----|-0---2-2--2-0---2S7--|
|-0---2-2--2-0---2S7--|-0---2-2--2-0---2S7----|-0---2-2--2-0---2S7--|


  D5  E5     D5  E5A5           E5
  S S E Q    S S E S  E.        W
|-----------------------------|------------------*|
|-----------------------------|------------------*|
|-----------------------------|------------------*|
|-------6---------------------|------------------*|
|------------------9--7-------|------------------*|
|-6-7-9------6-7-9------------|------------------*|
|
| E   E E. S E   E E.    +S     S S E E S S H
|-----------------------------|------------------*|
|-----------------------------|------------------*|
|-----------------------------|------------------*|
|-0---2-2--2-0---2S7-----(7)\-|-2-2-----2-2------*|
|-0---2-2--2-0---2S7-----(7)\-|-2-2-----2-2------*|
|-0---2-2--2-0---2S7-----(7)\-|-2-2-----2-2------*|

-------------------------------------------------------------------------------

                                     RHYTHMS
                              As recorded by Sum 41
                   (From the 2001 Album ALL KILLER NO FILLER)

Words and Music by Sum 41

         C#m7                 Bsus4                Asus2                 E5
      x 4 6 6 0 0          x 2 4 4 0 0          x 0 2 2 0 0          0 7 9 9 0 0

           A                 E5open                 C#5                  A5
      x 0 2 2 2 0          0 2 2 x x x          x 4 6 6 x x          x 0 2 2 x x

          B5                  E5/D#
      7 9 9 x x x          x 6 9 9 x x

Gtr I (E A D G B E) - 'Untitled'
Gtr II (E A D G B E) - 'Untitled'
Gtr III (E A D G B E) - 'Untitled'
Gtr IV (E A D G B E) - 'Untitled'
Gtr V (E A D G B E) - 'Untitled'

 Intro
  Fast Rock Q=190
             E
 4/4
           Gtr II
  W           E  E  E  E  +E   E  E  E
|----------|---------------------------|
|----------|---------------------------|
|----------|-13-13-13-11-(11)-11-11-11-|
|----------|--x--x--x--x-------x--x--x-|
|----------|-11-11-11--9--(9)--9--9--9-|
|----------|---------------------------|
|
|          Gtr I
| W           E  E  E  E  +E   E  E  E
|----------|---------------------------|
|----------|---------------------------|
|----------|--9--9--9--8--(8)--8--8--8-|
|----------|--x--x--x--x-------x--x--x-|
|----------|--7--7--7--6--(6)--6--6--6-|
|----------|---------------------------|


                              C#m
   E  E  E  E  +E   E  E  E    E  E  E  E  +E   E  E  E
|---------------------------|----------------------------|
|---------------------------|----------------------------|
|-13-13-13--9--(9)--9--9--9-|-13-13-13-11-(11)-11-11-11--|
|--x--x--x--x-------x--x--x-|--x--x--x--x-------x--x--x--|
|-11-11-11--7--(7)--7--7--7-|-11-11-11--9--(9)--9--9--9--|
|---------------------------|----------------------------|
|
|  E  E  E  E  +E   E  E  E    E  E  E  E  +E   E  E  E
|---------------------------|----------------------------|
|---------------------------|----------------------------|
|--9--9--9-13-(13)-13-13-13-|--9--9--9--8--(8)--8--8--8--|
|--x--x--x--x-------x--x--x-|--x--x--x--x-------x--x--x--|
|--7--7--7-11-(11)-11-11-11-|--7--7--7--6--(6)--6--6--6--|
|---------------------------|----------------------------|


   E  E  E  E  +E   E  E  E
|---------------------------|
|---------------------------|
|-13-13-13--9--(9)--9--9--9-|
|--x--x--x--x-------x--x--x-|
|-11-11-11--7--(7)--7--7--7-|
|---------------------------|
|
|  E  E  E  E  +E   E  E  E
|---------------------------|
|---------------------------|
|--9--9--9-13-(13)-13-13-13-|
|--x--x--x--x-------x--x--x-|
|--7--7--7-11-(11)-11-11-11-|
|---------------------------|


  B
   E  E  E  E  +E   E  E  E    E  E  E  E  +E   E  E  E
|---------------------------|---------------------------|
|---------------------------|---------------------------|
|-13-13-13-11-(11)-11-11-11-|-13-13-13--9--(9)--9--9--9-|
|--x--x--x--x-------x--x--x-|--x--x--x--x-------x--x--x-|
|-11-11-11--9--(9)--9--9--9-|-11-11-11--7--(7)--7--7--7-|
|---------------------------|---------------------------|
|
|  E  E  E  E  +E   E  E  E    E  E  E  E  +E   E  E  E
|---------------------------|---------------------------|
|---------------------------|---------------------------|
|--9--9--9--8--(8)--8--8--8-|--9--9--9-13-(13)-13-13-13-|
|--x--x--x--x-------x--x--x-|--x--x--x--x-------x--x--x-|
|--7--7--7--6--(6)--6--6--6-|--7--7--7-11-(11)-11-11-11-|
|---------------------------|---------------------------|


                                                          Verse
  A                                                        E
   E  E  E  E  +E   E  E  E    E  E  E  E  +E   E  E  E     Q   Q   H
|---------------------------|---------------------------||---------------|
|---------------------------|---------------------------||---------------|
|-13-13-13-11-(11)-11-11-11-|-13-13-13--9--(9)--9--9--9-||-13--13\-------|
|--x--x--x--x-------x--x--x-|--x--x--x--x-------x--x--x-||--x---x--------|
|-11-11-11--9--(9)--9--9--9-|-11-11-11--7--(7)--7--7--7-||-11--11\-------|
|---------------------------|---------------------------||---------------|
|
|  E  E  E  E  +E   E  E  E    E  E  E  E  +E   E  E  E     Q   Q   H
|---------------------------|---------------------------||---------------|
|---------------------------|---------------------------||---------------|
|--9--9--9--8--(8)--8--8--8-|--9--9--9-13-(13)-13-13-13-||--9---9\-------|
|--x--x--x--x-------x--x--x-|--x--x--x--x-------x--x--x-||--x---x--------|
|--7--7--7--6--(6)--6--6--6-|--7--7--7-11-(11)-11-11-11-||--7---7\-------|
|---------------------------|---------------------------||---------------|


  C#5        A5             B5
  W          W          W
|----------|----------|---------|
|----------|----------|---------|
|----------|----------|---------|
|----------|----------|---------|
|----------|----------|---------|
|----------|----------|---------|


  E5         C#5        A5                   E
                                 Gtr II
  W          W          W          H    Q     Q
                                        |     |
                                        x     o

  Gtr I
  W          W          W          H    E  E  Q
|----------|----------|----------|----------------||
|----------|----------|----------|----------------||
|----------|----------|----------|--------12-13---||
|----------|----------|----------|---------x--x---||
|----------|----------|----------|--------10-11---||
|----------|----------|----------|------0---------||


 Pre-Chorus
  E5              C#5             A5
  Gtrs I, II
  Q  E E E E Q    Q  E E E E Q    Q  E E E E E E
|---------------|---------------|----------------|
|---------------|---------------|----------------|
|---------------|-6--6-6-6-6-6--|----------------|
|-2--2-2-2-2-2--|-6--6-6-6-6-6--|-7--7-7-7-7-7-7-|
|-2--2-2-2-2-2--|-4--4-4-4-4-4--|-7--7-7-7-7-7-7-|
|-0--0-0-0-0-0--|---------------|-5--5-5-5-5-5-5-|


                   E5              C#5
  E E E E E E Q    Q  E E E E Q    Q  Q  Q  E E
|----------------|---------------|--------------|
|----------------|---------------|--------------|
|----------------|---------------|-6--6--6--6-6-|
|-7-7-7-7-7-7-7--|-2--2-2-2-2-2--|-6--6--6--6-6-|
|-7-7-7-7-7-7-7--|-2--2-2-2-2-2--|-4--4--4--4-4-|
|-5-5-5-5-5-5-5--|-0--0-0-0-0-0--|--------------|


     A5                     E5
  Q  H.        +W           W          +W
|------------|------------|----------|--------|
|------------|------------|----------|--------|
|------------|------------|----------|--------|
|----7-------|-(7)--------|-2--------|-(2)----|
|----7-------|-(7)--------|-2--------|-(2)----|
|----5-------|-(5)--------|-0--------|-(0)----|


  C#5                      A5
  W          +H.      Q    W          Q  E E E E Q
|----------|-------------|----------|-----------------||
|----------|-------------|----------|-----------------||
|-6--------|-(6)------6--|----------|-----------------||
|-6--------|-(6)------6--|-7--------|-9--9-9-9-9-9\---||
|-4--------|-(4)------4--|-7--------|-9--9-9-9-9-9----||
|-4--------|-(4)---------|-5--------|-7--7-7-7-7-7\---||


 Chorus
  E5             C#5            A5             B5
  Q  E E Q  Q    Q  E E Q  Q    Q  E E Q  Q    E E E E E E Q
|--------------|--------------|--------------|-----------------|
|--------------|--------------|--------------|-----------------|
|--------------|-6--x-6-6--6--|--------------|-----------------|
|-2--x-2-2--2--|-6--x-6-6--6--|-7--x-7-7--7S=|=9-9-9-9-9-9-9---|
|-2--x-2-2--2--|-4--x-4-4--4--|-7--x-7-7--7S=|=9-9-9-9-9-9-9---|
|-0--x-0-0--0--|--------------|-5--x-5-5--5S=|=7-7-7-7-7-7-7---|


  E5             C#5            A5             B5
  Q  E E Q  Q    Q  E E Q  Q    Q  E E Q  Q    E E E E E E Q
|--------------|--------------|--------------|-----------------||
|--------------|--------------|--------------|-----------------||
|--------------|-6--x-6-6--6--|--------------|-----------------||
|-2--x-2-2--2--|-6--x-6-6--6--|-7--x-7-7--7S=|=9-9-9-9-9-9-9---||
|-2--x-2-2--2--|-4--x-4-4--4--|-7--x-7-7--7S=|=9-9-9-9-9-9-9---||
|-0--x-0-0--0--|--------------|-5--x-5-5--5S=|=7-7-7-7-7-7-7---||


 Post-Chorus
  $
  E5              E5/D#           C#5             A5
  Gtrs I, II
  Q  Q  E E E E   Q  Q  E E E E   Q  Q  E E E E   Q  E E Q  E E
|---------------|---------------|---------------|----------------|
|---------------|---------------|---------------|----------------|
|-9--9--9-9-9-9-|-9--9--9-9-9-9-|-6--6--6-6-6---|----------------|
|-9--9--9-9-9-9-|-9--9--9-9-9-9-|-6--6--6-6-6---|-7----9-9--9----|
|-7--7--7-7-7-7-|-6--6--6-6-6-6-|-4--4--4-4-4---|-7----9-9--9----|
|---------------|---------------|-------------0-|-5----7-7--7-0--|


  E5              E5/D#           C#5             A5
  Q  Q  E E E E   Q  Q  E E E E   Q  Q  E E E E   Q  E E Q  E E
|---------------|---------------|---------------|----------------||
|---------------|---------------|---------------|----------------||
|-9--9--9-9-9-9-|-9--9--9-9-9-9-|-6--6--6-6-6---|----------------||
|-9--9--9-9-9-9-|-9--9--9-9-9-9-|-6--6--6-6-6---|-7----9-9--9----||
|-7--7--7-7-7-7-|-6--6--6-6-6-6-|-4--4--4-4-4---|-7----9-9--9----||
|---------------|---------------|-------------0-|-5----7-7--7-0--||


 Interlude
  E
 4/4
  Gtr II
   E  E  E  E  +E   E  E  E    E  E  E  E  +E   E  E  E
|---------------------------|---------------------------|
|---------------------------|---------------------------|
|-13-13-13-11-(11)-11-11-11-|-13-13-13--9--(9)--9--9--9-|
|--x--x--x--x-------x--x--x-|--x--x--x--x-------x--x--x-|
|-11-11-11--9--(9)--9--9--9-|-11-11-11--7--(7)--7--7--7-|
|---------------------------|---------------------------|
|
| Gtr I
|  E  E  E  E  +E   E  E  E    E  E  E  E  +E   E  E  E
|---------------------------|---------------------------|
|---------------------------|---------------------------|
|--9--9--9--8--(8)--8--8--8-|--9--9--9-13-(13)-13-13-13-|
|--x--x--x--x-------x--x--x-|--x--x--x--x-------x--x--x-|
|--7--7--7--6--(6)--6--6--6-|--7--7--7-11-(11)-11-11-11-|
|---------------------------|---------------------------|


  C#m
   E  E  E  E  +E   E  E  E    E  E  E  E  +E   E  E  E
|---------------------------|----------------------------|
|---------------------------|----------------------------|
|-13-13-13-11-(11)-11-11-11-|-13-13-13--9--(9)--9--9--9--|
|--x--x--x--x-------x--x--x-|--x--x--x--x-------x--x--x--|
|-11-11-11--9--(9)--9--9--9-|-11-11-11--7--(7)--7--7--7--|
|---------------------------|----------------------------|
|
|  E  E  E  E  +E   E  E  E    E  E  E  E  +E   E  E  E
|---------------------------|----------------------------|
|---------------------------|----------------------------|
|--9--9--9--8--(8)--8--8--8-|--9--9--9-13-(13)-13-13-13--|
|--x--x--x--x-------x--x--x-|--x--x--x--x-------x--x--x--|
|--7--7--7--6--(6)--6--6--6-|--7--7--7-11-(11)-11-11-11--|
|---------------------------|----------------------------|


  B
   E  E  E  E  +E   E  E  E    E  E  E  E  +E   E  E  E
|---------------------------|---------------------------|
|---------------------------|---------------------------|
|-13-13-13-11-(11)-11-11-11-|-13-13-13--9--(9)--9--9--9-|
|--x--x--x--x-------x--x--x-|--x--x--x--x-------x--x--x-|
|-11-11-11--9--(9)--9--9--9-|-11-11-11--7--(7)--7--7--7-|
|---------------------------|---------------------------|
|
|  E  E  E  E  +E   E  E  E    E  E  E  E  +E   E  E  E
|---------------------------|---------------------------|
|---------------------------|---------------------------|
|--9--9--9--8--(8)--8--8--8-|--9--9--9-13-(13)-13-13-13-|
|--x--x--x--x-------x--x--x-|--x--x--x--x-------x--x--x-|
|--7--7--7--6--(6)--6--6--6-|--7--7--7-11-(11)-11-11-11-|
|---------------------------|---------------------------|


                  To Coda
  A
   E  E  E  E  +E   E  E  E    E  E  E  E  +E   E  E  E
|---------------------------|----------------------------||
|---------------------------|----------------------------||
|-13-13-13-11-(11)-11-11-11-|-13-13-13--9--(9)--9--9--9--||
|--x--x--x--x-------x--x--x-|--x--x--x--x-------x--x--x--||
|-11-11-11--9--(9)--9--9--9-|-11-11-11--7--(7)--7--7--7--||
|---------------------------|----------------------------||
|
|  E  E  E  E  +E   E  E  E    E  E  E  E  +E   E  E  E
|---------------------------|----------------------------||
|---------------------------|----------------------------||
|--9--9--9--8--(8)--8--8--8-|--9--9--9-13-(13)-13-13-13--||
|--x--x--x--x-------x--x--x-|--x--x--x--x-------x--x--x--||
|--7--7--7--6--(6)--6--6--6-|--7--7--7-11-(11)-11-11-11--||
|---------------------------|----------------------------||


 Verse
  E5               C#5               A5
  PM-----------------------------------|   PM|   PM    PM|   PM|   PM
  Q  E E E E E E   E E E E E E E E   E E E E E E E E   E E E E E E E E
|----------------|-----------------|-----------------|------------------|
|----------------|-----------------|-----------------|------------------|
|-9--9-9-9-9-9-9-|-6-6-6-6-6-6-6-6-|-----------------|------------------|
|-9--9-9-9-9-9-9-|-6-6-6-6-6-6-6-6-|-----7-----7---7-|-----7-----7---7--|
|-7--7-7-7-7-7-7-|-4-4-4-4-4-4-4-4-|-----7-----7---7-|-----7-----7---7--|
|----------------|-----------------|-5-5-5-5-5-5-5-5-|-5-5-5-5-5-5-5-5--|


  E5                C#5               Am7
  Gtr III
  W                 W                 W                 H       Q   Q
                                                                |   |
                                                                x   o

  Gtrs I, II
  PM------------------------------------|   PM--|   PM
  E E E E E E E E   E E E E E E E E   E E E E E E E E   E E E E E E E E
|-----------------|-----------------|-----------------|------------------||
|-----------------|-----------------|-----------------|------------------||
|-9-9-9-9-9-9-9-9-|-6-6-6-6-6-6-6-6-|-----5-------5---|-5-5-5-5-5-5-5----||
|-9-9-9-9-9-9-9-9-|-6-6-6-6-6-6-6-6-|-----5-------5---|-5-5-5-5-5-5-5----||
|-7-7-7-7-7-7-7-7-|-4-4-4-4-4-4-4-4-|-----7-------7---|-7-7-7-7-7-7-7----||
|-----------------|-----------------|-5-5---5-5-5---5-|-5-5-5-5-5-5-5-0--||


 Pre-Chorus
  E5              C#5             A5
  Gtrs I, II, III
  Q  E E E E Q    Q  E E E E Q    Q  E E E E E E
|---------------|---------------|----------------|
|---------------|---------------|----------------|
|---------------|-6--6-6-6-6-6--|----------------|
|-2--2-2-2-2-2--|-6--6-6-6-6-6--|-7--7-7-7-7-7-7-|
|-2--2-2-2-2-2--|-4--4-4-4-4-4--|-7--7-7-7-7-7-7-|
|-0--0-0-0-0-0--|---------------|-5--5-5-5-5-5-5-|


                   E5              C#5
  E E E E E E Q    Q  E E E E Q    Q  Q  Q  E E
|----------------|---------------|--------------|
|----------------|---------------|--------------|
|----------------|---------------|-6--6--6--6-6-|
|-7-7-7-7-7-7-7--|-2--2-2-2-2-2--|-6--6--6--6-6-|
|-7-7-7-7-7-7-7--|-2--2-2-2-2-2--|-4--4--4--4-4-|
|-5-5-5-5-5-5-5--|-0--0-0-0-0-0--|--------------|


  A5                      E5
                                      >
  W          +W           W          +W
|----------|------------|----------|--------||
|----------|------------|----------|--------||
|----------|------------|----------|--------||
|-7--------|-(7)--------|-2--------|-(2)----||
|-7--------|-(7)--------|-2--------|-(2)----||
|-5--------|-(5)--------|-0--------|-(0)----||


 Bridge
  C#m7       Bsus4      Asus2
  Gtr V
  W          W          W          +W
  |          |          |           |
  /          /          /           /

  Gtr IV
  W          W          W          +W
|----------|----------|----------|--------|
|----------|----------|----------|--------|
|-6--------|-8--------|-9--------|-(9)----|
|-x--------|-x--------|-x--------|--------|
|-4--------|-6--------|-7--------|-(7)----|
|----------|----------|----------|--------|


  E5         C#m7       A
  W          W          W          +W
  |          |          |           |
  /          /          /           /

  W          W          W          +W
|----------|----------|----------|--------|
|----------|----------|----------|--------|
|-9--------|-6--------|----------|--------|
|-x--------|-x--------|-7--------|-(7)----|
|-7--------|-4--------|-x--------|--------|
|----------|----------|-5--------|-(5)----|


  E5         C#m7       A
  Gtr V
  W          W          W          +W
  |          |          |           |
  /          /          /           /

  Gtr III
  W          W          W          +W
|----------|----------|----------|--------|
|----------|----------|----------|--------|
|----------|-6--------|-2--------|-(2)----|
|-2--------|-6--------|-2--------|-(2)----|
|-2--------|-4--------|-0--------|-(0)----|
|-0--------|----------|----------|--------|


  E5         C#m7       A
  Gtr V
  W          W          W          +W
  |          |          |           |
  /          /          /           /

  Gtr III
  W          W          W          +W
|----------|----------|----------|--------|
|----------|----------|----------|--------|
|----------|-6--------|-2--------|-(2)----|
|-2--------|-6--------|-2--------|-(2)----|
|-2--------|-4--------|-0--------|-(0)----|
|-0--------|----------|----------|--------|


  E5                C#5               A5
  Gtrs I, II
  PM------------------------------------------------------------------|
  E E E E E E E E   E E E E E E E E   E E E E E E E E   E E E E E E E E
|-----------------|-----------------|-----------------|------------------|
|-----------------|-----------------|-----------------|------------------|
|-----------------|-6-6-6-6-6-6-6-6-|-----------------|------------------|
|-2-2-2-2-2-2-2-2-|-6-6-6-6-6-6-6-6-|-7-7-7-7-7-7-7-7-|-7-7-7-7-7-7-7----|
|-2-2-2-2-2-2-2-2-|-4-4-4-4-4-4-4-4-|-7-7-7-7-7-7-7-7-|-7-7-7-7-7-7-7----|
|-0-0-0-0-0-0-0-0-|-----------------|-5-5-5-5-5-5-5-5-|-5-5-5-5-5-5-5-0--|


  E5                C#5              A5                        B5
  PM--------------------------|
  E E E E E E E E   E E E E E E Q    Q.   E Q  E E   Q  E E Q  Q
|-----------------|----------------|---------------|---------------||
|-----------------|----------------|---------------|---------------||
|-9-9-9-9-9-9-9-9-|-6-6-6-6-6-6-6--|---------------|---------------||
|-9-9-9-9-9-9-9-9-|-6-6-6-6-6-6-6--|-7----7-7--7-7-|-7--7-7-7--9---||
|-7-7-7-7-7-7-7-7-|-4-4-4-4-4-4-4--|-7----7-7--7-7-|-7--7-7-7--9---||
|-----------------|----------------|-5----5-5--5-5-|-5--5-5-5--7---||


   Chorus
    E5             C#5            A5             B5
    Gtrs I, II
    Q  E E Q  Q    Q  E E Q  Q    Q  E E Q  Q    E E E E E E Q
||---------------|--------------|--------------|----------------|
||o--------------|--------------|--------------|----------------|
||---------------|-6--x-6-6--6--|--------------|----------------|
||--2--x-2-2--2--|-6--x-6-6--6--|-7--x-7-7--7S=|=9-9-9-9-9-9-9--|
||o-2--x-2-2--2--|-4--x-4-4--4--|-7--x-7-7--7S=|=9-9-9-9-9-9-9--|
||--0--x-0-0--0--|--------------|-5--x-5-5--5S=|=7-7-7-7-7-7-7--|


  E5             C#5            A5
  Gtrs I, II
  Q  E E Q  Q    Q  E E Q  Q    Q  E E Q  Q
|--------------|--------------|--------------|
|--------------|--------------|--------------|
|--------------|-6--x-6-6--6--|--------------|
|-2--x-2-2--2--|-6--x-6-6--6--|-7--x-7-7--7S=|
|-2--x-2-2--2--|-4--x-4-4--4--|-7--x-7-7--7S=|
|-0--x-0-0--0--|--------------|-5--x-5-5--5S=|


 1.                  2.
                        D.S. al Coda
  B5
  E E E E E E Q      E E E E E E Q
|-----------------||-----------------|
|----------------o||-----------------|
|-----------------||-----------------|
|-9-9-9-9-9-9-9---||-9-9-9-9-9-9-9---|
|-9-9-9-9-9-9-9--o||-9-9-9-9-9-9-9---|
|-7-7-7-7-7-7-7---||-7-7-7-7-7-7-7---|


                            Outro
  &
                             E
  Gtr II
   E  E  E  E  +E   E Q        Q  Q    Q  Q
|------------------------||------------------|
|------------------------||o-----------------|
|-13-13-13--9--(9)--9-9--||--/13-----/13-----|
|--x--x--x--x-------x-x--||----x--2----x--2--|
|-11-11-11--7--(7)--7-7--||o-/11--2--/11--2--|
|------------------------||-------0-------0--|
|
| Gtr I
|  E  E  E  E  +E   E Q        Q  Q    Q  Q
|------------------------||------------------|
|------------------------||o-----------------|
|--9--9--9-13-(13)-13----||---/9------/9-----|
|--x--x--x--x-------x----||----x--2----x--2--|
|--7--7--7-11-(11)-11----||o--/7--2---/7--2--|
|---------------------0--||-------0-------0--|


 1.                   2.
    Q  E E +H          Q  E E +H       +W
|------------------||----------------|--------*|
|-----------------o||----------------|--------*|
|-/13--------------||-13-------------|--------*|
|---x--2-2-(2)-----||--x--2-2-(2)----|-(2)----*|
|-/11--2-2-(2)----o||-11--2-2-(2)----|-(2)----*|
|------0-0-(0)-----||-----0-0-(0)----|-(0)----*|
|
|   Q  E E +H          Q  E E +H       +W
|------------------||----------------|--------*|
|-----------------o||----------------|--------*|
|--/9--------------||--9-------------|--------*|
|---x--2-2-(2)-----||--x--2-2-(2)----|-(2)----*|
|--/7--2-2-(2)----o||--7--2-2-(2)----|-(2)----*|
|------0-0-(0)-----||-----0-0-(0)----|-(0)----*|

-------------------------------------------------------------------------------
                                   MOTIVATION
                              As recorded by Sum 41
                   (From the 2001 Album ALL KILLER NO FILLER)

Words and Music by Deryk Whibley, Dave Baksh, and Cone Mcaslin

Gtr I (E A D G B E) - 'Lead'
Gtr II (E A D G B E) - 'Rythm'

 Intro
  Fast Rock Q=158
 4/4
  Gtrs I, II
  Wx4
|--------|
|--------|
|--------|
|--------|
|--------|
|--------|


  E E H.        E E H.        E E H.        E E Q   H
|-------------|-------------|-------------|---------------|
|-------------|-------------|-------------|---------------|
|-------------|-------------|-------------|---------------|
|-2-2---------|-2-2---------|-2-2---------|-2-2-----------|
|-2-2---------|-2-2---------|-2-2---------|-2-2----14\----|
|-0-0---------|-0-0---------|-0-0---------|-0-0----12\----|


   Post-Chorus
    $
    E E E E Q  E E   E E E E Q  E E   E E E E Q  E E   E E E E Q  E E
||-----------------|----------------|----------------|------------------||
||o----------------|----------------|----------------|-----------------o||
||-----------------|----------------|----------------|-4-4-4------------||
||--2-2-2-6-7--7-6-|-2-2-2-6-7--7-6-|-2-2-2-6-7--7-6-|-4-4-4-6-7--7-6---||
||o-2-2-2-6-7--7-6-|-2-2-2-6-7--7-6-|-2-2-2-6-7--7-6-|-2-2-2-6-7--7-6--o||
||--0-0-0-4-5--5-4-|-0-0-0-4-5--5-4-|-0-0-0-4-5--5-4-|-------4-5--5-4---||


 Verse
  Gtr I
  PM|   PM--|   PM----|   PM--|   PM----|   PM--|   PM----|   PM--|   PM
  E E E E E E E E   E E E E E E E E   E E E E E E E E   E E E E E E E E
|-----------------|-----------------|-----------------|-----------------|
|-----------------|-----------------|-----------------|-----------------|
|-----------------|-----------------|-----------------|-----------------|
|-----2-------6---|-----7-------9---|-----2-------6---|-----7-------9---|
|-----2-------6---|-----7-------9---|-----2-------6---|-----7-------9---|
|-0-0-0-0-4-4-4-4-|-5-5-5-5-7-7-7-7-|-0-0-0-0-4-4-4-4-|-5-5-5-5-7-7-7-7-|


  PM|   PM--|   PM----|   PM--|   PM----|   PM--|   PM
  E E E E E E E E   E E E E E E E E   E E E E E E E E   E E E E E E E E
|-----------------|-----------------|-----------------|-----------------|
|-----------------|-----------------|-----------------|-----------------|
|-----------------|-----6-------4---|-----------------|-----------------|
|-----2-------6---|-----6-------4---|-----2-------6---|-----------------|
|-----2-------6---|-4-4-4-4-6-6-6-6-|-----2-------6---|---------4-4-6-6-|
|-0-0-0-0-4-4-4-4-|-----------------|-0-0-0-0-4-4-4-4-|-5-5-7-7---------|


 Chorus
  Gtrs I, II
  q  q  q  E E   q  q  q  q    q  q  q  E E   q  q  q  q
|--------------|-------------|--------------|-------------|
|--------------|-------------|--------------|-------------|
|-9--9--9--9-9-|-9--9--9--9--|--------------|-------------|
|-9--9--9--9-9-|-9--9--9--9--|-9--9--9--9-9-|-9--9--9--9--|
|-7--7--7--7-7-|-7--7--7--7--|-9--9--9--9-9-|-9--9--9--9--|
|--------------|-------------|-7--7--7--7-7-|-7--7--7--7--|


  q  q  q  E E   q  q  q  q    q  q  q  E E   q  q  q  E E
|--------------|-------------|--------------|--------------|
|--------------|-------------|--------------|--------------|
|-9--9--9--9-9-|-9--9--9--9--|--------------|--------------|
|-9--9--9--9-9-|-9--9--9--9--|-7--7--7--7-7-|-9--9--9--9-9-|
|-7--7--7--7-7-|-7--7--7--7--|-7--7--7--7-7-|-9--9--9--9-9-|
|--------------|-------------|-5--5--5--5-5-|-7--7--7--7-7-|


                   D.S.
  W          E E E E H
|----------|--------------|
|----------|--------------|
|----------|--------------|
|-7--------|-9-9-9-9-9----|
|-7--------|-9-9-9-9-9----|
|-5--------|-7-7-7-7-7----|


 Pre-Bridge
  Q  Q  E E E E   +E  E E E E E Q    Q  Q  E E E E   +E  E E E E E Q
|---------------|------------------|---------------|------------------|
|---------------|------------------|---------------|------------------|
|-------4-4-4---|------------------|-------4-4-4---|------------------|
|-2--2--4-4-4-7-|-(7)-7-7-7-7-7-7--|-2--2--4-4-4-7-|-(7)-7-7-7-7-7-7--|
|-2--2--2-2-2-7-|-(7)-7-7-7-7-7-7--|-2--2--2-2-2-7-|-(7)-7-7-7-7-7-7--|
|-0--0--------5-|-(5)-5-5-5-5-5-5--|-0--0--------5-|-(5)-5-5-5-5-5-5--|


  Q  Q  E E E E   +E  E E E E E Q    E E E E E E E E   E E E E E E E E
|---------------|------------------|-----------------|-----------------|
|---------------|------------------|-----------------|-----------------|
|-------4-4-4---|------------------|-----------------|-2-2-2-2-2-2-2-2-|
|-2--2--4-4-4-7-|-(7)-7-7-7-7-7-7--|-4-4-4-4-4-4-4-4-|-2-2-2-2-2-2-2-2-|
|-2--2--2-2-2-7-|-(7)-7-7-7-7-7-7--|-4-4-4-4-4-4-4-4-|-0-0-0-0-0-0-0-0-|
|-0--0--------5-|-(5)-5-5-5-5-5-5--|-2-2-2-2-2-2-2-2-|-----------------|


  Gtr I
  E E E  E E E E E   Q  E E Q  E E     E E E E E E E E   Q  E E Q  E E  3x
|------------------|---------------||------------------|----------------||
|------------------|---------------||o-----------------|---------------o||
|------------------|-2--2-4-4--4-4-||------------------|-2--2-4-4--4-4--||
|-2-2--------------|-2--2-4-4--4-4-||--2-2-------------|-2--2-4-4--4-4--||
|-2-2-5--4-2-0-----|-0--0-2-2--2-2-||o-2-2-5-4-2-0-----|-0--0-2-2--2-2-o||
|-0-0----------4-0-|---------------||--0-0---------4-0-|----------------||
|
| Gtr II
| E E H.             W                 E E E E E E E E   Q  E E Q  E E  3x
|------------------|---------------||------------------|----------------||
|------------------|---------------||o-----------------|---------------o||
|------------------|---------------||------------------|-2--2-4-4--4-4--||
|-2-2--------------|---------------||--2-2-------------|-2--2-4-4--4-4--||
|-2-2--------------|---------------||o-2-2-5-4-2-0-----|-0--0-2-2--2-2-o||
|-0-0--------------|---------------||--0-0---------4-0-|----------------||


 Bridge
   Q.   Q.   Q     Q.   Q.   Q     Q.   Q.   Q     Q.   Q.   Q
|--0----0----0--|--0----0----0--|--0----0----0--|--0----0----0--|
|-/5----4----2--|-/5----4----2--|-/7----5----4--|-/5----4----2--|
|---------------|---------------|---------------|---------------|
|---------------|---------------|---------------|---------------|
|---------------|---------------|---------------|---------------|
|---------------|---------------|---------------|---------------|
|
|  W              +W               W              +W
|---------------|---------------|---------------|---------------|
|---------------|---------------|---------------|---------------|
|--6------------|-(6)-----------|--4------------|-(4)-----------|
|--6------------|-(6)-----------|--4------------|-(4)-----------|
|--4------------|-(4)-----------|--2------------|-(2)-----------|
|---------------|---------------|---------------|---------------|


   Q.   Q.   Q     Q.   Q.   Q     Q.   Q.   Q
|--0----0----0--|--0----0----0--|--0----0----0--|
|-/5----4----2--|-/5----4----2--|-/4----2----0--|
|---------------|---------------|---------------|
|---------------|---------------|---------------|
|---------------|---------------|---------------|
|---------------|---------------|---------------|
|
|  H.        Q     W               W
|---------------|---------------|--0------------|
|---------------|---------------|--0------------|
|--9---------9--|---------------|--6------------|
|--9---------9--|--9------------|--7------------|
|--7---------7--|--9------------|--7------------|
|---------------|--7------------|--5------------|


  Q  Q  Q  Q    Q  Q  E E E E
|-0--0--0--0--|-0--0--0-0-0-0-|
|-5--4--5--4--|-5--4--7-5-4-5-|
|-------------|---------------|
|-------------|---------------|
|-------------|---------------|
|-------------|---------------|
|
| H     H       Q  Q  Q   Q
|-------------|---------------|
|-------------|---------------|
|-------------|---------------|
|-9-----9-----|-9--9--9---9---|
|-9-----9-----|-9--9--9---9---|
|-7-----7-----|-7--7--7---7---|


 Post-Bridge
  E H..             W
|-0---------------|---------------|
|-5---------------|---------------|
|-----------------|---------------|
|-----------------|---------------|
|-----------------|---------------|
|-----------------|---------------|
|
| E E   Q  E E Q    E E Q  E E Q
|-----------------|---------------|
|-----------------|---------------|
|----------4-4----|--------2-2----|
|-2-2------4-4----|-4-4----2-2----|
|-2-2------2-2----|-4-4----0-0----|
|-0-0-------------|-2-2-----------|


  Gtr II
  E E Q  E E Q    E E Q  E E Q
|---------------|---------------|
|---------------|---------------|
|--------4-4----|--------2-2----|
|-2-2----4-4----|-4-4----2-2----|
|-2-2----2-2----|-4-4----0-0----|
|-0-0-----------|-2-2-----------|


    Gtr I
     PM--------------------------------------------------|
     q     q    q     E   E     q     E   E   E   E   E   E   4x
||---------------------------|--------------------------------||
||o-(9)---(9)--(9)---(9)-(7)-|-(9)---(9)-(7)-(9)-(7)-(9)-(7)-o||
||---9-----9----9-----9---8--|--9-----9---8---9---8---9---8---||
||---------------------------|--------------------------------||
||o--------------------------|-------------------------------o||
||---------------------------|--------------------------------||
|
|   Gtr II
|    E  E  Q    E  E  Q         E  E  Q       E   E   Q       4x
||---------------------------|--------------------------------||
||o--------------------------|-------------------------------o||
||--------------4--4---------|----------------2---2-----------||
||---2--2-------4--4---------|--4--4----------2---2-----------||
||o--2--2-------2--2---------|--4--4----------0---0----------o||
||---0--0--------------------|--2--2--------------------------||


     q     q    q     E   E     q     E   E   E   E   E   E
||---------------------------|--------------------------------||
||o-(9)---(9)--(9)---(9)-(9)-|-(9)---(9)-(9)-(9)-(9)-(9)-(9)-o||
||---9-----9----9-----9---8--|--9-----9---8---9---8---9---8---||
||---------------------------|--------------------------------||
||o--------------------------|-------------------------------o||
||---------------------------|--------------------------------||
|
|    E  E  Q    E  E  Q         E  E  Q       E   E   Q
||---------------------------|--------------------------------||
||o--------------------------|-------------------------------o||
||--------------4--4---------|----------------2---2-----------||
||---2--2-------4--4---------|--4--4----------2---2-----------||
||o--2--2-------2--2---------|--4--4----------0---0----------o||
||---0--0--------------------|--2--2--------------------------||


 Chorus
  Gtrs I, II
  Q  E E Q  E E   Q  E E Q  E E   Q  E E Q  E E   Q  E E Q  E E
|---------------|---------------|---------------|---------------|
|---------------|---------------|---------------|---------------|
|------4-4--4---|------2-2--2---|-------------2-|-2--2-4-4--4---|
|-2--2-4-4--4-4-|-4--4-2-2--2-2-|-2--2-4-4--4-2-|-2--2-4-4--4-2-|
|-2--2-2-2--2-4-|-4--4-0-0--0-2-|-2--2-4-4--4-0-|-0--0-2-2--2-2-|
|-0--0--------2-|-2--2--------0-|-0--0-2-2--2---|-------------0-|


  Q  E E Q  E E   Q  E E Q  E E   Q  Q  Q  Q    E E E E E E E E
|---------------|---------------|-------------|-----------------|
|---------------|---------------|-------------|-----------------|
|------4-4--4---|------2-2--2---|-------------|-----------------|
|-2--2-4-4--4-4-|-4--4-2-2--2-2-|-7--7--7--7--|-9-9-9-9-9-9-9-9-|
|-2--2-2-2--2-4-|-4--4-0-0--0-2-|-7--7--7--7--|-9-9-9-9-9-9-9-9-|
|-0--0--------2-|-2--2--------0-|-5--5--5--5--|-7-7-7-7-7-7-7-7-|


   Outro
    E E E E Q  E E   E E E E Q  E E   E E E E Q  E E   E E E E Q  E E
||-----------------|----------------|----------------|------------------||
||o----------------|----------------|----------------|-----------------o||
||-----------------|----------------|----------------|-4-4-4------------||
||--2-2-2-6-7--7-6-|-2-2-2-6-7--7-6-|-2-2-2-6-7--7-6-|-4-4-4-6-7--7-6---||
||o-2-2-2-6-7--7-6-|-2-2-2-6-7--7-6-|-2-2-2-6-7--7-6-|-2-2-2-6-7--7-6--o||
||--0-0-0-4-5--5-4-|-0-0-0-4-5--5-4-|-0-0-0-4-5--5-4-|-------4-5--5-4---||


  E H..
|----------*|
|----------*|
|----------*|
|-2--------*|
|-2--------*|
|-0--------*|

-------------------------------------------------------------------------------
                                 IN TOO DEEP
                              As recorded by Sum 41
                   (From the 2001 Album ALL KILLER NO FILLER)

Words and Music by Deryk Whibley, Dave Baksh, and Cone Mcaslin

Gtr I (E A D G B E) - 'Untitled'
Gtr II (E A D G B E) - 'Untitled'
Gtr III (E A D G B E) - 'Untitled'
Gtr IV (E A D G B E) - 'Untitled'
Gtr V (E A D G B E) - 'Untitled'

   Intro/1st Verse
   4/4
      Gtr I
      PM--------------|     PM------------|
    E S S E E E   E E E   E S S E E E E E E
||----------------------|-------------------|
||o-----------------9---|-------------------|
||------------9---------|-------------------|
||----9-9-9-9-----9---9-|---9-9-9-9-7-6-7-9-|
||o---------------------|-------------------|
||----------------------|-------------------|
|
|   Gtr II
|             PM|           PM----------|
|   E E E E S S E   E E   E S S E E E E E E
||----------------------|-------------------|
||o---------------------|-------------------|
||----------------------|-------------------|
||------------6-7---9-7-|-----------------6-|
||o---7-----7-----------|---0-0-0-0-6-7-9---|
||--0-----0-------------|-------------------|


    PM--------------|     PM------------|
  E S S E E E   E E E   E S S E E E E E E   3x
|---------------------|---------------------||
|-----------------9---|--------------------o||
|-----------9---------|---------------------||
|---9-9-9-9-----9---9-|---9-9-9-9-7-6-7-9---||
|---------------------|--------------------o||
|---------------------|---------------------||
|
|           PM|           PM----------|
| E E E E S S E E E     E S S E E E E E E   3x
|---------------------|---------------------||
|---------------------|--------------------o||
|---------------------|---------------------||
|-----------6-7-9-7---|-----------------6---||
|---7-----7-----------|---0-0-0-0-6-7-9----o||
|-0-----0-------------|---------------------||


 Pre Chorus
       E/B              G#/C                E/B           A5
  Gtr III
                                                          <
                                                          PM----|
  Q  Q E E E E E    Q   E E E  E E  E   Q   E E E E E E   E E E E E E E E
|-----------------|-------------------|-----------------|------------------||
|----9-----9---9--|-----5-----10---10-|-----9-----9---9-|------------------||
|----9-----9---9--|-----6------9----9-|-----9-----9---9-|------------------||
|----9-----9---9--|-----7-----11---11-|-----9-----9---9-|-2-2-2-2-2-2-2-2--||
|-----------------|-------------------|-----------------|-4-4-2-2-0-0-0-0--||
|-----------------|-------------------|-----------------|------------------||


 Chorus
  E5      A5        E5      A5        E5      A5        E5     A5
  Gtr III
  Q  E. S E E E E   Q  E. S E E E E   Q  E. S E E E E   Q  E.  S E E Q
|-----------------|-----------------|-----------------|----------------|
|-----------------|-----------------|-----------------|----------------|
|-----------------|-----------------|-----------------|----------------|
|-------0-2-2-2-2-|-------0-2-2-2-2-|-------0-2-2-2-2-|----------2-2---|
|-2--2--0-0-0-0-0-|-2--2--0-0-0-0-0-|-2--2--0-0-0-0-0-|-2--2---0-0-0---|
|-0--0------------|-0--0------------|-0--0------------|-0--0-----------|


  E5      A5        E5      A5        E5      A5
  Q  E. S E E E E   Q  E. S E E E E   Q  E. S E E E E
|-----------------|-----------------|-----------------|
|-----------------|-----------------|-----------------|
|-----------------|-----------------|-----------------|
|-------0-2-2-2-2-|-------0-2-2-2-2-|-------0-2-2-2-2-|
|-2--2--0-0-0-0-0-|-2--2--0-0-0-0-0-|-2--2--0-0-0-0-0-|
|-0--0------------|-0--0------------|-0--0------------|


  E5    D5        A5
  Q  Q  E E E E   E E E E S S S S S S S S
|---------------|---------------------------|
|---------------|---------------------------|
|-----------7---|---------------------------|
|-9--9--7-7-7---|-2-2-2-2-------------------|
|-7--7--5-5-5-0-|-0-0-0-0-x-x-x-x-x-x-x-x---|
|-0--0----------|---------x-x-x-x-x-x-x-x---|


 Pre Verse
  E5       A5  G5A5  E5       A5  G5A5  E5        A5  G5A5  E5        A5G5F#G5
  Gtr III
  E E E. S E E E E   E E E. E E E E E   E E  E. S E E E E   E E  E. E E E E E
|------------------|------------------|-------------------|-------------------|
|------------------|------------------|-------------------|-------------------|
|-----9--------2---|-----9--------2---|-----13--------2---|-----13------------|
|-----x--0-2-2-2-2-|-----x--0-2-2-2-2-|------x--0-2-2-2-2-|------x------------|
|-2-2-7--0-0-0-x-0-|-2-2-7--0-0-0-x-0-|-2-2-11--0-0-0-x-0-|-2-2-11----7-6-4-6-|
|-0-0----------4---|-0-0----------4---|-0-0-----------4---|-0-0-----5-5-4-2-4-|
|
| Gtr IV
| W                  W                  E E  E. S E E E E   E E  E. S E E E E
|------------------|------------------|-------------------|-------------------|
|------------------|------------------|-------------------|-------------------|
|------------------|------------------|------9--------2---|------9------------|
|------------------|------------------|------x--0-2-2-2-2-|------x----2-------|
|------------------|------------------|-2-2--7--0-0-0-x-0-|-2-2--7--0-0-6-4-6-|
|------------------|------------------|-0-0-----------4---|-0-0---------4-2-4-|


   2nd Verse
    E5       G5   A5            E5       G5   A5    G5A5
    E E H    Q    E E H    Q    E E H    Q    E E E E E E E E
||--------------|-------------|-------------|-------------------||
||o-------------|-------------|-------------|------------------o||
||--------------|-------------|-------------|-------------------||
||--2-2------6--|-7-7------7--|-2-2------6--|-7-7---6-7-7---7---||
||o-2-2------6--|-7-7------7--|-2-2------6--|-7-7---6-7-7---7--o||
||--0-0------4--|-5-5------5--|-0-0------4--|-5-5---4-5-5---5---||


 Pre Chorus
  E5                A5                E5                A5
  Gtrs III, IV
    PM----------|     PM----------|     PM----------------|
  E E E E E E E E   E E E E E E E E   E E E E E E E E   E E E E E E E E
|-----------------|-----------------|-----------------|-----------------|
|-----------------|-----------------|-----------------|-----------------|
|-----------------|-----------------|-----------------|-----------------|
|-2-2-2-2-2-2-2-2-|-7-7-7-7-7-7-7-7-|-2-2-2-2-2-2-2-2-|-7-7-7-7-7-7-7-7-|
|-2-2-2-2-2-2-2-2-|-7-7-7-7-7-7-7-7-|-2-2-2-2-2-2-2-2-|-7-7-7-7-7-7-7-7-|
|-0-0-0-0-0-0-0-0-|-5-5-5-5-5-5-5-5-|-0-0-0-0-0-0-0-0-|-5-5-5-5-5-5-5-5-|


 Chorus
  E5    A5       E5    A5       E5    A5       E5    A5
  Q  Q  E E Q    Q  Q  E E Q    Q  Q  E E Q    Q  Q  E E Q
|--------------|--------------|--------------|--------------|
|--------------|--------------|--------------|--------------|
|--------------|--------------|--------------|--------------|
|-2--2--7-7-7--|-2--2--7-7-7--|-2--2--7-7-7--|-2--2--7-7----|
|-2--2--7-7-7--|-2--2--7-7-7--|-2--2--7-7-7--|-2--2--7-7----|
|-0--0--5-5-5--|-0--0--5-5-5--|-0--0--5-5-5--|-0--0--5-5----|


  E5    A5       E5    A5       E5    A5
  Q  Q  E E Q    Q  Q  E E Q    Q  Q  E E Q
|--------------|--------------|--------------|
|--------------|--------------|--------------|
|--------------|--------------|--------------|
|-2--2--7-7-7--|-2--2--7-7-7--|-2--2--7-7-7--|
|-2--2--7-7-7--|-2--2--7-7-7--|-2--2--7-7-7--|
|-0--0--5-5-5--|-0--0--5-5-5--|-0--0--5-5-5--|


  E5      D5        A5
  E E E E E E E E   E E E E E E E E
|-----------------|-----------------|
|-----------------|-----------------|
|-9-9-9-9-7-7-7-7-|-----------------|
|-9-9-9-9-7-7-7-7-|-7-7-7-7-7-7-7-7-|
|-7-7-7-7-5-5-5-5-|-7-7-7-7-7-7-7-7-|
|-----------------|-5-5-5-5-5-5-5-5-|


  E5      D5        A5
  E E E E E E E E   E E E E S S S S S S S S
|-----------------|-------------------------|
|-----------------|-------------------------|
|-9-9-9-9-7-7-7-7-|-------------------------|
|-9-9-9-9-7-7-7-7-|-7-7-7-7-x-x-x-x-x-x-x-x-|
|-7-7-7-7-5-5-5-5-|-7-7-7-7-x-x-x-x-x-x-x-x-|
|-----------------|-5-5-5-5-x-x-x-x-x-x-x-x-|


 Pre Solo
  Gtr III
  S S S S Q  S S S S Q    S S S S Q  S S S S S S S S
|-----------------------|-----------------------------|
|-----------------------|-----------------------------|
|---------9----------9--|---------9-------------------|
|---------x----------x--|---------x------x-x-x-x-x-x--|
|---------7----------7--|---------7------x-x-x-x-x-x--|
|-0-0-0-0----0-0-0-0----|-0-0-0-0----0-0-x-x-x-x-x-x--|


 Guitar Solo
  E5                             F#5
  Gtr III
  S   S   S   S   S   E.         S S S S S  E.
|------------------------------------------------|
|------------------------------------------------|
|------------------------------------------------|
|-2---2---2---2---2--------------4-4-4-4-4-------|
|-2---2---2---2---2--------------4-4-4-4-4-------|
|-0---0---0---0---0--------------2-2-2-2-2-------|
|
| Gtr IV
| T       T       T        T
| |--3--| |--3--| |--3---| |-3-|
| S S   S S S   S S S    S S S S S S S S E.    S
|-5p4p==0-5p4p==0-7p5p===0-7p5p0-----------------|
|--------------------------------4h5p4h5s7-----0-|
|------------------------------------------------|
|------------------------------------------------|
|------------------------------------------------|
|------------------------------------------------|
|
| Gtr V
| H                              S S S S E.    S
|--------------------------------2h4p2h4s5-------|
|------------------------------------------------|
|------------------------------------------------|
|------------------------------------------------|
|------------------------------------------------|
|------------------------------------------------|


  D5                         A5                 G5
   S S    S S    S E.         S S    S S   E     E
|-----------------------------------------------------|
|-----------------------------------------------------|
|--7-7----7-7----7------------------------------------|
|--7-7----7-7----7------------7-7----7-7---7-----6----|
|--5-5----5-5----5------------7-7----7-7---7-----6----|
|-----------------------------5-5----5-5---5-----4----|
|
|  S S    S S    S S    S S   S S    S S   S S   S S
|-----------------------------------------------------|
|-h9-0p-h10-0p-h12-0p-h10-0p-h9-0p-h10-0p-h7-0p-h9-0p-|
|-----------------------------------------------------|
|-----------------------------------------------------|
|-----------------------------------------------------|
|-----------------------------------------------------|
|
|  W
|-----------------------------------------------------|
|-----------------------------------------------------|
|-----------------------------------------------------|
|-----------------------------------------------------|
|-----------------------------------------------------|
|-----------------------------------------------------|


  E5                             F#5
  S   S   S   S   S   E.         S S S S S  E.
|------------------------------------------------|
|------------------------------------------------|
|------------------------------------------------|
|-2---2---2---2---2--------------4-4-4-4-4-------|
|-2---2---2---2---2--------------4-4-4-4-4-------|
|-0---0---0---0---0--------------2-2-2-2-2-------|
|
| T       T       T        T
| |--3--| |--3--| |--3---| |-3-|
| S S   S S S   S S S    S S S S S S S S E.    S
|-5p4p==0-5p4p==0-7p5p===0-7p5p0-----------------|
|--------------------------------4h5p4h5s7-----0-|
|------------------------------------------------|
|------------------------------------------------|
|------------------------------------------------|
|------------------------------------------------|
|
| H                              S S S S E.    S
|--------------------------------2h4p2h4s5-------|
|------------------------------------------------|
|------------------------------------------------|
|------------------------------------------------|
|------------------------------------------------|
|------------------------------------------------|


  D5                         A5              G5
   S S    S S    S E.         S S    S S   E   E
|-----------------------------------------------------|
|-----------------------------------------------------|
|--7-7----7-7----7------------------------------------|
|--7-7----7-7----7------------7-7----7-7---7---6------|
|--5-5----5-5----5------------7-7----7-7---7---6------|
|-----------------------------5-5----5-5---5---4------|
|
|  S S    S S    S S    S S   S S    S S   E  +E
|-----------------------------------------12-(12)b14r=|
|-h9-0p-h10-0p-h12-0p-h10-0p-h9-0p-h10-0p-------------|
|-----------------------------------------------------|
|-----------------------------------------------------|
|-----------------------------------------------------|
|-----------------------------------------------------|
|
|  W
|-----------------------------------------------------|
|-----------------------------------------------------|
|-----------------------------------------------------|
|-----------------------------------------------------|
|-----------------------------------------------------|
|-----------------------------------------------------|


 3rd Verse
  E5        F#5      A5        B5       E5     F#5      A5     B5
    E  E Q  E E Q      E  E Q  E E Q    E E Q  E E Q    E E Q  E E Q
|------------------|------------------|---------------|---------------|
|------------------|------------------|---------------|---------------|
|------------------|------------------|---------------|---------------|
|---2--2----4-4----|---7--7----9-9----|-2-2----4-4----|-7-7----9-9----|
|---2--2----4-4----|---7--7----9-9----|-2-2----4-4----|-7-7----9-9----|
|---0--0----2-2----|---5--5----7-7----|-0-0----2-2----|-5-5----7-7----|
|
|                      >
|  +W                 +W                W               W
|-(12)-------------|-(12)-------------|---------------|---------------|
|------------------|------------------|---------------|---------------|
|------------------|------------------|---------------|---------------|
|------------------|------------------|---------------|---------------|
|------------------|------------------|---------------|---------------|
|------------------|------------------|---------------|---------------|


  E5       F#5        A5       B5
  E E Q    E E Q      E E Q    E E Q
|-------------------|-------------------|
|-------------------|-------------------|
|-------------------|-------------------|
|-2-2------4-4------|-7-7------9-9------|
|-2-2------4-4------|-7-7------9-9------|
|-0-0------2-2------|-5-5------7-7------|
|
| Q   S E. Q   S E.   Q   S E. Q   S E.
|-------------------|-------------------|
|-------------------|-------------------|
|-----8s9------8s9--|-----8s9------8s9--|
|-----x--------x----|-----x--------x----|
|-----6s7------6s7--|-----6s7------6s7--|
|-------------------|-------------------|


  E5       F#5        A5       B5
  E E Q    E E Q      E E Q    E E Q
|-------------------|-------------------|
|-------------------|-------------------|
|-------------------|-------------------|
|-2-2------4-4------|-7-7------9-9------|
|-2-2------4-4------|-7-7------9-9-7\---|
|-0-0------2-2------|-5-5------7-7------|
|
| Q   S E. Q   S E.   Q   S E. Q   S E.
|-------------------|-------------------|
|-------------------|-------------------|
|-----8s9------8s9--|-----8s9------8s9--|
|-----x--------x----|-----x--------x----|
|-----6s7------6s7--|-----6s7------6s7--|
|-------------------|-------------------|


  E5         F#5          A5         B5
  E Q.       E Q.         E Q.       E Q.
|-----------------------|-----------------------|
|-----------------------|-----------------------|
|-----------------------|-----------------------|
|-2-2--------4-4--------|-7-7--------9-9--------|
|-2-2--------4-4--------|-7-7--------9-9--------|
|-0-0--------2-2--------|-5-5--------7-7--------|
|
| Q    S  E. Q    S  E.   Q    S  E. Q    S  E.
|-----------------------|-----------------------|
|-----------------------|-----------------------|
|-----------------------|-----------------------|
|-----------------------|-----------------------|
|------9h11-------9h11--|------9h11-------9h11--|
|-----------------------|-----------------------|


  E5         F#5          A5
  E Q.       E Q.         E Q.   S S S S S S S S
|-----------------------|------------------------|
|-----------------------|------------------------|
|-----------------------|------------------------|
|-2-2--------4-4--------|-7------x-x-x-x-x-x-x-x-|
|-2-2--------4-4--------|-7------x-x-x-x-x-x-x-x-|
|-0-0--------2-2--------|-5------x-x-x-x-x-x-x-x-|
|
| Q    S  E. Q    S  E.   E Q.   S S S S S S S S
|-----------------------|------------------------|
|-----------------------|------------------------|
|-----------------------|------------------------|
|-----------------------|-7------x-x-x-x-x-x-x-x-|
|------9h11-------9h11--|-7------x-x-x-x-x-x-x-x-|
|-----------------------|-5------x-x-x-x-x-x-x-x-|


 Chorus
  E5      A5  G5A5    E5      A5  G5A5
  Gtrs III, IV
  E E  Q  E E E E     E E  Q  E E E E
|-------------------|-------------------|
|-------------------|-------------------|
|-----/9------------|-----/9------------|
|-2-2--x--7-7-6-7---|-2-2--x--7-7-6-7---|
|-2-2-/7--7-7-6-7---|-2-2-/7--7-7-6-7---|
|-0-0-----5-5-4-5---|-0-0-----5-5-4-5---|


  E5      A5  G5A5    E5      A5G5F#G5
  E E  Q  E E E E     E E  Q  E E E E
|-------------------|--------------------|
|-------------------|--------------------|
|-----/9------------|-----/9-------------|
|-2-2--x--7-7-6-7---|-2-2--x--7-6-4-6----|
|-2-2-/7--7-7-6-7---|-2-2-/7--7-6-4-6----|
|-0-0-----5-5-4-5---|-0-0-----5-4-2-4----|


  E5       A5  G5A5  E5       A5  G5A5  E5       A5  G5A5
  Gtr III
  E E   Q  E E E E   E E   Q  E E E E   E E   Q  E E E E
|------------------|------------------|---------------------|
|------------------|------------------|---------------------|
|------/9----------|------/9----------|------/9-------------|
|-2-2---x--7-7-6-7-|-2-2---x--7-7-6-7-|-2-2---x--7-7-6-7----|
|-2-2--/7--7-7-6-7-|-2-2--/7--7-7-6-7-|-2-2--/7--7-7-6-7----|
|-0-0------5-5-4-5-|-0-0------5-5-4-5-|-0-0------5-5-4-5----|
|
| Gtr IV
| E E   Q  E E E E   E E   Q  E E E E   E E   Q  E E E E
|------------------|------------------|---------------------|
|------------------|------------------|---------------------|
|-----/13----------|-----/13----------|-----/13-------------|
|-2-2---x--7-7-6-7-|-2-2---x--7-7-6-7-|-2-2---x--7-7-6-7----|
|-2-2-/11--7-7-6-7-|-2-2-/11--7-7-6-7-|-2-2-/11--7-7-6-7----|
|-0-0------5-5-4-5-|-0-0------5-5-4-5-|-0-0------5-5-4-5----|


 Post Chorus
  E5      D5        A5                E5      D5        A5      C5
  Gtr III
  E E E E E E E E   E E E E E E E E   E E E E E E E E   E E E E  E  E  E  E
|-----------------|-----------------|-----------------|---------------------|
|-----------------|-----------------|-----------------|---------------------|
|-9-9-9-9-7-7-7-7-|-----------------|-9-9-9-9-7-7-7-7-|---------------------|
|-9-9-9-9-7-7-7-7-|-7-7-7-7-7-7-7-7-|-9-9-9-9-7-7-7-7-|-7-7-7-7-10-10-10-10-|
|-7-7-7-7-5-5-5-5-|-7-7-7-7-7-7-7-7-|-7-7-7-7-5-5-5-5-|-7-7-7-7-10-10-10-10-|
|-----------------|-5-5-5-5-5-5-5-5-|-----------------|-5-5-5-5--8--8--8--8-|


 Outro
  E5      D5        A5                E5      D5        A5      C5
  Gtr III
  E E E E E E E E   E E E E E E E E   E E E E E E E E   E E E E  E  E  E  E
|-----------------|-----------------|-----------------|---------------------|
|-----------------|-----------------|-----------------|---------------------|
|-9-9-9-9-7-7-7-7-|-----------------|-9-9-9-9-7-7-7-7-|---------------------|
|-9-9-9-9-7-7-7-7-|-7-7-7-7-7-7-7-7-|-9-9-9-9-7-7-7-7-|-7-7-7-7-10-10-10-10-|
|-7-7-7-7-5-5-5-5-|-7-7-7-7-7-7-7-7-|-7-7-7-7-5-5-5-5-|-7-7-7-7-10-10-10-10-|
|-----------------|-5-5-5-5-5-5-5-5-|-----------------|-5-5-5-5--8--8--8--8-|


  E5      D5        A5      C5
  E E E E E E E E   E E E E  E  E  E  E
|-----------------|---------------------|
|-----------------|---------------------|
|-9-9-9-9-7-7-7-7-|---------------------|
|-9-9-9-9-7-7-7-7-|-7-7-7-7-10-10-10-10-|
|-7-7-7-7-5-5-5-5-|-7-7-7-7-10-10-10-10-|
|-----------------|-5-5-5-5--8--8--8--8-|
|
| Gtr IV
| W                 W
|-----------------|---------------------|
|-----------------|---------------------|
|-----------------|---------------------|
|-----------------|---------------------|
|-----------------|---------------------|
|-----------------|---------------------|


  E5        D5           A5        C5
  E  E E  E  E  E E  E   E  E E  E  E  E  E  E
|----------------------|-----------------------|
|----------------------|-----------------------|
|-9--9-9--9--7--7-7--7-|-----------------------|
|-9--9-9--9--7--7-7--7-|-7--7-7--7-10-10-10-10-|
|-7--7-7--7--5--5-5--5-|-7--7-7--7-10-10-10-10-|
|----------------------|-5--5-5--5--8--8--8--8-|
|
| E  E E  E  E  E E  E   E  E E  E  E  E  E  E
|----------------------|-----------------------|
|-9-10-9-10-12-10-9-10-|-9-10-9-10--9----------|
|-9--9-9--9--9--9-9--9-|-9--9-9--9--9-11--9-11-|
|----------------------|--------------11--9-11-|
|----------------------|-----------------------|
|----------------------|-----------------------|


  E5        D5           A5        C5            E5        D5
  E  E E  E  E  E E  E   E  E E  E  E  E  E  E   E  E E  E  E  E E  E
|----------------------|-----------------------|----------------------|
|----------------------|-----------------------|----------------------|
|-9--9-9--9--7--7-7--7-|-----------------------|-9--9-9--9--7--7-7--7-|
|-9--9-9--9--7--7-7--7-|-7--7-7--7-10-10-10-10-|-9--9-9--9--7--7-7--7-|
|-7--7-7--7--5--5-5--5-|-7--7-7--7-10-10-10-10-|-7--7-7--7--5--5-5--5-|
|----------------------|-5--5-5--5--8--8--8--8-|----------------------|
|
| E  E E  E  E  E E  E   E  E E  E  E  E  E  E   E  E E  E  E  E E  E
|----------------------|-----------------------|----------------------|
|-9-10-9-10-12-10-9-10-|-9-10-9-10--9----------|-9-10-9-10-12-10-9-10-|
|-9--9-9--9--9--9-9--9-|-9--9-9--9--9-11--9-11-|-9--9-9--9--9--9-9--9-|
|----------------------|--------------11--9-11-|----------------------|
|----------------------|-----------------------|----------------------|
|----------------------|-----------------------|----------------------|


  A5        C5            E5        D5           A5        C5
  E  E E  E  E  E  E  E   E  E E  E  E  E E  E   E  E E  E  E  E  E  E
|-----------------------|----------------------|-----------------------|
|-----------------------|----------------------|-----------------------|
|-----------------------|-9--9-9--9--7--7-7--7-|-----------------------|
|-7--7-7--7-10-10-10-10-|-9--9-9--9--7--7-7--7-|-7--7-7--7-10-10-10-10-|
|-7--7-7--7-10-10-10-10-|-7--7-7--7--5--5-5--5-|-7--7-7--7-10-10-10-10-|
|-5--5-5--5--8--8--8--8-|----------------------|-5--5-5--5--8--8--8--8-|
|
| E  E E  E  E  E  E  E   E  E E  E  E  E E  E   E  E E  E  E  E  E  E
|-----------------------|----------------------|-----------------------|
|-9-10-9-10--9----------|-9-10-9-10-12-10-9-10-|-9-10-9-10--9----------|
|-9--9-9--9--9-11--9-11-|-9--9-9--9--9--9-9--9-|-9--9-9--9--9-11--9-11-|
|--------------11--9-11-|----------------------|--------------11--9-11-|
|-----------------------|----------------------|-----------------------|
|-----------------------|----------------------|-----------------------|


  E  E E  E  E  E E  E   E  E E  E E  E E  E
|----------------------|---------------------|
|-9-10-9-10-12-10-9-10-|-9-10-9-10-9---------|
|-9--9-9--9--9--9-9--9-|-9--9-9--9-9-11-9-11-|
|----------------------|-------------11-9-11-|
|----------------------|---------------------|
|----------------------|---------------------|


  E  E E  E  E  E E  E   E  E E  E E  E E  E   E H..
|----------------------|---------------------|----------*|
|-9-10-9-10-12-10-9-10-|-9-10-9-10-9---------|----------*|
|-9--9-9--9--9--9-9--9-|-9--9-9--9-9-11-9-11-|-9--------*|
|----------------------|-------------11-9-11-|-9--------*|
|----------------------|---------------------|----------*|
|----------------------|---------------------|----------*|

-------------------------------------------------------------------------------

                                     SUMMER
                              As recorded by Sum 41
                   (From the 2001 Album ALL KILLER NO FILLER)

Words and Music by Sum 41

Gtr I (D A D G B E) - 'Untitled'
Gtr II (D A D G B E) - 'Untitled'
Gtr III (D A D G B E) - 'Untitled'

 Intro
  Fast Rock Q=230
  D5        Dsus4    D        DsuD4   D5        Dsus4    D        DsuD4
 4/4
  Gtr I
   E  Q   E E Q  E   E Q  E a Q  Q     E  Q   E E Q  E   E Q  E a Q  Q
|------------------|----------------|------------------|----------------|
|-10-10--10-8-8----|-7-7--7-7h8--7--|-10-10--10-8-8----|-7-7--7-7h8--7--|
|--7--7---7-7-7--7-|-7-7--7-7----7--|--7--7---7-7-7--7-|-7-7--7-7----7--|
|------------------|----------------|------------------|----------------|
|------------------|----------------|------------------|----------------|
|------------------|----------------|------------------|----------------|


  D5                                    B5
  Gtr I
   E  Q   E E Q  E    E  Q  E a Q  Q     E  Q   E E Q  E    E  Q  E a Q  Q
|------------------|------------------|------------------|-------------------|
|-10-10--10-8-8----|--7--7--7-7h8--7--|-10-10--10-8-8----|--7--7--7-7h8--7---|
|--7--7---7-7-7--7-|--7--7--7-7----7--|--7--7---7-7-7--7-|--7--7--7-7----7---|
|------------------|------------------|------------------|-------------------|
|------------------|------------------|------------------|-------------------|
|------------------|------------------|------------------|-------------------|
|
| Gtr II
|  W                 +W                  W                 +W
|------------------|------------------|------------------|-------------------|
|------------------|------------------|------------------|-------------------|
|------------------|------------------|--4---------------|-(4)---------------|
|--0---------------|-(0)--------------|--4---------------|-(4)---------------|
|--0---------------|-(0)--------------|--2---------------|-(2)---------------|
|--0---------------|-(0)--------------|------------------|-------------------|


  G5                                    A5
   E  Q   E E Q  E    E  Q  E a Q  Q     E  Q   E E Q  E    E  Q  E a Q  Q
|------------------|------------------|------------------|-------------------|
|-10-10--10-8-8----|--7--7--7-7h8--7--|-10-10--10-8-8----|--7--7--7-7h8--7---|
|--7--7---7-7-7--7-|--7--7--7-7----7--|--7--7---7-7-7--7-|--7--7--7-7----7---|
|------------------|------------------|------------------|-------------------|
|------------------|------------------|------------------|-------------------|
|------------------|------------------|------------------|-------------------|
|
|  W                 +W                  W                 +W
|------------------|------------------|------------------|-------------------|
|------------------|------------------|------------------|-------------------|
|------------------|------------------|------------------|-------------------|
|--5---------------|-(5)--------------|--7---------------|-(7)---------------|
|--5---------------|-(5)--------------|--7---------------|-(7)---------------|
|--5---------------|-(5)--------------|--7---------------|-(7)---------------|


    D5
    Gtr III
    Q  E E Q  E  E    Q   E  E  E  E E E
||-----------------|---------------------|
||o----------------|---------------------|
||--7--x-9-9--x-11-|-11--11-12----11---7-|
||--x--x-x-x--x--x-|--x---x--x-----x---x-|
||o-5--x-7-7--x--9-|--9---9-10-----9---5-|
||-----------------|---------------------|
|
|   Gtr II
|   Q  E E Q  E  E    Q   E  E  E  E E E
||-----------------|---------------------|
||o----------------|---------------------|
||-----------------|---------------------|
||--7--x-7-7--x--7-|--7---x--7-----7---4-|
||o-5--x-5-5--x--5-|--5---x--5-----5---2-|
||-----------------|---------------------|


  B5
  Q  E E Q  E  E    Q   E  E  E  E E E
|----------------|---------------------|
|----------------|---------------------|
|-7--x-9-9--x-11-|-11--11-12----14---7-|
|-x--x-x-x--x--x-|--x---x--x-----x---x-|
|-5--x-7-7--x--9-|--9---9-10----12---5-|
|----------------|---------------------|
|
| Q  E E Q  E  E    Q   E  E  E  E E E
|----------------|---------------------|
|----------------|---------------------|
|----------------|---------------------|
|-4--x-4-4--x--4-|--4---x--4-----4-----|
|-2--x-2-2--x--2-|--2---x--2-----2---5-|
|----------------|-------------------5-|


  G5
  Q  E E Q  E  E    Q   E  E  E  E E E
|----------------|---------------------|
|----------------|---------------------|
|-7--x-9-9--x-11-|-11--11-12----11---7-|
|-x--x-x-x--x--x-|--x---x--x-----x---x-|
|-5--x-7-7--x--9-|--9---9-10-----9---5-|
|----------------|---------------------|
|
| Q  E E Q  E  E    Q   E  E  E  E E E
|----------------|---------------------|
|----------------|---------------------|
|----------------|---------------------|
|----------------|---------------------|
|-5--x-5-5--x--5-|--5---x--5-----5---7-|
|-5--x-5-5--x--5-|--5---x--5-----5---7-|


  A5
  Q  E E Q  E  E    Q   E E  +E  E E E
|----------------|----------------------||
|----------------|----------------------||
|-7--x-9-9--x-11-|-11--11-9--(9)-9-9S7--||
|-x--x-x-x--x--x-|--x---x-x------x-x----||
|-5--x-7-7--x--9-|--9---9-7--(7)-7-7S5--||
|----------------|----------------------||
|
| Q  E E Q  E  E    Q   E E  +E  E E E
|----------------|----------------------||
|----------------|----------------------||
|----------------|----------------------||
|----------------|----------------------||
|-7--x-7-7--x--7-|--7---7-7--(7)-7-7-7--||
|-7--x-7-7--x--7-|--7---7-7--(7)-7-7-7--||


 Verse
  D5
  Gtr III
                      >
  W                  +W
|------------------|--------------------|
|------------------|--------------------|
|-7----------------|-(7)----------------|
|-x----------------|--------------------|
|-5----------------|-(5)----------------|
|------------------|--------------------|
|
| Gtr II
| Q  E E +E  E E E    Q   E E +E  E E E
|------------------|--------------------|
|------------------|--------------------|
|------------------|--------------------|
|-7--7-7-(7)-7-7-7-|--7---7-7-(7)-7-7-7-|
|-5--5-5-(5)-5-5-5-|--5---5-5-(5)-5-5-5-|
|------------------|--------------------|


  B5
  +W                   +W
|--------------------|---------------------|
|--------------------|---------------------|
|-(7)----------------|-(7)-----------------|
|--------------------|---------------------|
|-(5)----------------|-(5)-----------------|
|--------------------|---------------------|
|
|  Q   E E +E  E E E    Q   E E +E  E E E
|--------------------|---------------------|
|--------------------|---------------------|
|--------------------|---------------------|
|--4---4-4-(4)-4-4-4-|--4---4-4-(4)-4-4-4--|
|--2---2-2-(2)-2-2-2-|--2---2-2-(2)-2-2-2--|
|--------------------|---------------------|


  E5                                    G5
  Gtr II
  Q  E E +E  E E E   Q  E E +E  E E E   Q  E E +E  E E E   Q  E E +E  E E E
|------------------|------------------|------------------|-------------------|
|------------------|------------------|------------------|-------------------|
|------------------|------------------|------------------|-------------------|
|------------------|------------------|------------------|-------------------|
|-2--2-2-(2)-2-2-2-|-2--2-2-(2)-2-2-2-|-5--5-5-(5)-5-5-5-|-5--5-5-(5)-5-5-5--|
|-2--2-2-(2)-2-2-2-|-2--2-2-(2)-2-2-2-|-5--5-5-(5)-5-5-5-|-5--5-5-(5)-5-5-5--|


  D5                                    B5
  Q  E E +E  E E E   Q  E E +E  E E E   Q  E E +E  E E E   Q  E E +E  E E E
|------------------|------------------|------------------|-------------------|
|------------------|------------------|------------------|-------------------|
|------------------|------------------|------------------|-------------------|
|-7--7-7-(7)-7-7-7-|-7--7-7-(7)-7-7-7-|-4--4-4-(4)-4-4-4-|-4--4-4-(4)-4-4-4--|
|-5--5-5-(5)-5-5-5-|-5--5-5-(5)-5-5-5-|-2--2-2-(2)-2-2-2-|-2--2-2-(2)-2-2-2--|
|------------------|------------------|------------------|-------------------|


                                       1.
  E5                                    G5
  Gtr II
  Q  E E +E  E E E   Q  E E +E  E E E   Q  E E +E  E E E   Q  E E +E  E E E
|------------------|------------------|------------------|--------------------||
|------------------|------------------|------------------|-------------------o||
|------------------|------------------|------------------|--------------------||
|------------------|------------------|------------------|--------------------||
|-2--2-2-(2)-2-2-2-|-2--2-2-(2)-2-2-2-|-5--5-5-(5)-5-5-5-|-5--5-5-(5)-5-5-5--o||
|-2--2-2-(2)-2-2-2-|-2--2-2-(2)-2-2-2-|-5--5-5-(5)-5-5-5-|-5--5-5-(5)-5-5-5---||


  2.
  G5
  Q  E E +E  E E E   Q  E E +E  E E E
|------------------|------------------||
|------------------|------------------||
|------------------|------------------||
|------------------|------------------||
|-5--5-5-(5)-5-5-5-|-5--5-5-(5)-5-5-5-||
|-5--5-5-(5)-5-5-5-|-5--5-5-(5)-5-5-5-||
|
| Gtr III
| W                  H       H
|------------------|------------------||
|------------------|------------------||
|------------------|------------------||
|------------------|------------------||
|------------------|------------------||
|------------------|--------12\-------||
|
| Gtr II
| W                  W
|------------------|------------------||
|------------------|------------------||
|------------------|------------------||
|------------------|------------------||
|------------------|------------------||
|------------------|------------------||


 Pre-Chorus
  E5                      G5
  W           W           W           W
|----------|------------|----------|---------------|
|----------|------------|----------|---------------|
|----------|------------|----------|---------------|
|----------|------------|----------|---------------|
|----------|------------|----------|---------------|
|----------|------------|----------|---------------|
|
| W          +W           W          +W
|----------|------------|----------|---------------|
|----------|------------|----------|---------------|
|----------|------------|----------|---------------|
|----------|------------|----------|---------------|
|-2--------|-(2)--------|-5--------|-(5)-----------|
|-2--------|-(2)--------|-5--------|-(5)-----------|
|
| W          +W           W          +H.      E E
|----------|------------|----------|---------------|
|----------|------------|----------|----------0-0--|
|----------|------------|----------|----------0-0--|
|----------|------------|----------|---------------|
|-2--------|-(2)--------|-5--------|-(5)-----------|
|-2--------|-(2)--------|-5--------|-(5)-----------|


  D5                 B5                 G5
  Gtr III
  Q  E E +E  E Q     Q  E E +E  E Q     Q  E E +E  E E E   Q  E E +E  E E E
|------------------|------------------|------------------|-------------------|
|------------------|------------------|------------------|-------------------|
|-7--7-7-(7)-7-6---|-7--7-7-(7)-7-6---|-7--7-7-(7)-7-7-7-|-7--7-7-(7)-7-7-7--|
|-x--x-x-----x-x---|-x--x-x-----x-x---|-x--x-x-----x-x-x-|-x--x-x-----x-x-x--|
|-5--5-5-(5)-5-4---|-5--5-5-(5)-5-4---|-5--5-5-(5)-5-5-5-|-5--5-5-(5)-5-5-5--|
|------------------|------------------|------------------|-------------------|
|
| Gtr II
| Q  E E +E  E E E   Q  E E +E  E E E   Q  E E +E  E E E   Q  E E +E  E E E
|------------------|------------------|------------------|-------------------|
|------------------|------------------|------------------|-------------------|
|------------------|------------------|------------------|-------------------|
|-7--7-7-(7)-7-7-7-|-4--4-4-(4)-4-4-4-|------------------|-------------------|
|-5--5-5-(5)-5-5-5-|-2--2-2-(2)-2-2-2-|-5--5-5-(5)-5-5-5-|-5--5-5-(5)-5------|
|------------------|------------------|-5--5-5-(5)-5-5-5-|-5--5-5-(5)-5-0-0--|


  E5                      G5
  Gtrs II, III
  W          +W           W          W
|----------|------------|----------|-------|
|----------|------------|----------|-------|
|----------|------------|----------|-------|
|----------|------------|----------|-------|
|-2--------|-(2)--------|-5--------|-------|
|-2--------|-(2)--------|-5--------|-x\----|


  D5                 B5                 G5
  Gtr III
  Q  E E +E  E Q     Q  E E +E  E Q     Q  E E +E  E E E   Q  E E +E  E Q
|------------------|------------------|------------------|-------------------|
|------------------|------------------|------------------|-------------------|
|-7--7-7-(7)-7-6---|-7--7-7-(7)-7-6---|-7--7-7-(7)-7-7-7-|-7--7-7-(7)-7-6----|
|-x--x-x-----x-x---|-x--x-x-----x-x---|-x--x-x-----x-x-x-|-x--x-x-----x-x----|
|-5--5-5-(5)-5-4---|-5--5-5-(5)-5-4---|-5--5-5-(5)-5-5-5-|-5--5-5-(5)-5-4----|
|------------------|------------------|------------------|-------------------|
|
| Gtr II
| Q  E E +E  E E E   Q  E E +E  E E E   Q  E E +E  E E E   Q  E E +E  E E E
|------------------|------------------|------------------|-------------------|
|------------------|------------------|------------------|-------------------|
|------------------|------------------|------------------|-------------------|
|-7--7-7-(7)-7-7-7-|-4--4-4-(4)-4-4-4-|------------------|-------------------|
|-5--5-5-(5)-5-5-5-|-2--2-2-(2)-2-2-2-|-5--5-5-(5)-5-5-5-|-5--5-5-(5)-5-5-5--|
|------------------|------------------|-5--5-5-(5)-5-5-5-|-5--5-5-(5)-5-5-5--|


  D5                 B5           G5
  Q  E E +E  E Q     q  Q  H      W          +W
|------------------|------------|----------|---------------||
|------------------|------------|----------|---------------||
|-7--7-7-(7)-7-6---|-7----------|----------|---------------||
|-x--x-x-----x-x---|-x----------|----------|---------------||
|-5--5-5-(5)-5-4---|-5----------|-5--------|-(5)-----------||
|------------------|------------|-5--------|-(5)-----------||
|
| Q  E E +E  E E E   q  Q  H      W          +H.      E E
|------------------|------------|----------|---------------||
|------------------|------------|----------|---------------||
|------------------|-4----------|----------|----------0-0--||
|-7--7-7-(7)-7-7-7-|-4----------|----------|----------0-0--||
|-5--5-5-(5)-5-5-5-|-2----------|-5--------|-(5)------0-0--||
|------------------|------------|-5--------|-(5)------0-0--||


   Chorus
    $
    D5              B5              G5              A5
    Q  Q  E E E E   Q  Q  E E E E   Q  Q  E E E E    Q   Q   E  E  E  E
||----------------|---------------|---------------|----------------------||
||o---------------|---------------|---------------|-10--10--10-10-10-10-o||
||--7--7--7-7-7-7-|-4--4--4-4-4-4-|---------------|--9---9---9--9--9--9--||
||--x--x--x-x-x-x-|-x--x--x-x-x-x-|-5--5--5-5-5-5-|--7---7---7--7--7--7--||
||o-5--5--5-5-5-5-|-2--2--2-2-2-2-|-x--x--x-x-x-x-|--7---7---7--7--7--7-o||
||----------------|---------------|-5--5--5-5-5-5-|----------------------||
|
|   Q  Q  E E E E   Q  Q  E E E E   Q  Q  E E E E    Q   Q   E  E  E  E
||----------------|---------------|---------------|----------------------||
||o---------------|---------------|---------------|---------------------o||
||----------------|---------------|---------------|----------------------||
||--7--7--7-7-7-7-|-4--4--4-4-4-4-|---------------|----------------------||
||o-5--5--5-5-5-5-|-2--2--2-2-2-2-|-5--5--5-5-5-5-|--7---7---7--7--7--7-o||
||----------------|---------------|-5--5--5-5-5-5-|--7---7---7--7--7--7--||


  D5              B5              G5              A5
  Q  Q  E E E E   Q  Q  E E E E   Q  Q  E E E E    Q   Q   E  E  E  E
|---------------|---------------|---------------|----------------------|
|---------------|---------------|---------------|-10--10--10-10-10-10--|
|-7--7--7-7-7-7-|-4--4--4-4-4-4-|---------------|--9---9---9--9--9--9--|
|-x--x--x-x-x-x-|-x--x--x-x-x-x-|-5--5--5-5-5-5-|--7---7---7--7--7--7--|
|-5--5--5-5-5-5-|-2--2--2-2-2-2-|-x--x--x-x-x-x-|--7---7---7--7--7--7--|
|---------------|---------------|-5--5--5-5-5-5-|----------------------|
|
| Q  Q  E E E E   Q  Q  E E E E   Q  Q  E E E E    Q   Q   E  E  E  E
|---------------|---------------|---------------|----------------------|
|---------------|---------------|---------------|----------------------|
|---------------|---------------|---------------|----------------------|
|-7--7--7-7-7-7-|-4--4--4-4-4-4-|---------------|----------------------|
|-5--5--5-5-5-5-|-2--2--2-2-2-2-|-5--5--5-5-5-5-|--7---7---7--7--7--7--|
|---------------|---------------|-5--5--5-5-5-5-|--7---7---7--7--7--7--|


                                                       To Coda
  D5              B5              G5              A5
  Q  Q  E E E E   Q  Q  E E E E   Q  Q  E E E E   Q  Q  E E E E
|---------------|---------------|---------------|----------------||
|---------------|---------------|---------------|----------------||
|-7--7--7-7-7-7-|-4--4--4-4-4-4-|---------------|----------------||
|-x--x--x-x-x-x-|-x--x--x-x-x-x-|-5--5--5-5-5-5-|----------------||
|-5--5--5-5-5-5-|-2--2--2-2-2-2-|-x--x--x-x-x-x-|-7--7--7-7-7-7--||
|---------------|---------------|-5--5--5-5-5-5-|-7--7--7-7-7-7--||
|
| Q  Q  E E E E   Q  Q  E E E E   Q  Q  E E E E   Q  Q  E E E E
|---------------|---------------|---------------|----------------||
|---------------|---------------|---------------|----------------||
|---------------|---------------|---------------|----------------||
|-7--7--7-7-7-7-|-4--4--4-4-4-4-|---------------|----------------||
|-5--5--5-5-5-5-|-2--2--2-2-2-2-|-5--5--5-5-5-5-|-7--7--7-7-7-7--||
|---------------|---------------|-5--5--5-5-5-5-|-7--7--7-7-7-7--||


 Interlude
  D5                                    B5
  Gtr III
  Q  E E Q  E  E    Q   E  E E  E E E   Q  E E Q  E  E    Q   E  E E  E E E
|----------------|--------------------|----------------|---------------------|
|----------------|--------------------|----------------|---------------------|
|-7--x-9-9--x-11-|-11--11-12---11---7-|-7--x-9-9--x-11-|-11--11-12---14---7--|
|-x--x-x-x--x--x-|--x---x--x----x---x-|-x--x-x-x--x--x-|--x---x--x----x---x--|
|-5--x-7-7--x--9-|--9---9-10----9---5-|-5--x-7-7--x--9-|--9---9-10---12---5--|
|----------------|--------------------|----------------|---------------------|
|
| Q  E E Q  E  E    Q   E  E E  E E E   Q  E E Q  E  E    Q   E  E E  E E E
|----------------|--------------------|----------------|---------------------|
|----------------|--------------------|----------------|---------------------|
|----------------|--------------------|----------------|---------------------|
|-7--x-7-7--x--7-|--7---x--7----7---4-|-4--x-4-4--x--4-|--4---x--4----4------|
|-5--x-5-5--x--5-|--5---x--5----5---2-|-2--x-2-2--x--2-|--2---x--2----2---5--|
|----------------|--------------------|----------------|------------------5--|


  G5                                    A5
  Q  E E Q  E  E    Q   E  E E  E E E   Q  E E Q  E  E    Q   E E +E   E Q
|----------------|--------------------|----------------|----------------------|
|----------------|--------------------|----------------|----------------------|
|-7--x-9-9--x-11-|-11--11-12---11---7-|-7--x-9-9--x-11-|-11--11-9-(9)S11-9----|
|-x--x-x-x--x--x-|--x---x--x----x---x-|-x--x-x-x--x--x-|--x---x-x--------x----|
|-5--x-7-7--x--9-|--9---9-10----9---5-|-5--x-7-7--x--9-|--9---9-7-(7)S=9-7----|
|----------------|--------------------|----------------|----------------------|
|
| Q  E E Q  E  E    Q   E  E E  E E E   Q  E E Q  E  E    Q   E E +E   E E E
|----------------|--------------------|----------------|----------------------|
|----------------|--------------------|----------------|----------------------|
|----------------|--------------------|----------------|----------------------|
|----------------|--------------------|----------------|----------------------|
|-5--x-5-5--x--5-|--5---x--5----5---7-|-7--x-7-7--x--7-|--7---7-7-(7)--7-7-7--|
|-5--x-5-5--x--5-|--5---x--5----5---7-|-7--x-7-7--x--7-|--7---7-7-(7)--7-7-7--|


  D5                                    B5
  Gtr III
  Q  E E Q  E  E    Q   E  E E  E E E   Q  E E Q  E  E    Q   E  E E  E E E
|----------------|--------------------|----------------|---------------------|
|----------------|--------------------|----------------|---------------------|
|-7--x-9-9--x-11-|-11--11-12---11---7-|-7--x-9-9--x-11-|-11--11-12---14---7--|
|-x--x-x-x--x--x-|--x---x--x----x---x-|-x--x-x-x--x--x-|--x---x--x----x---x--|
|-5--x-7-7--x--9-|--9---9-10----9---5-|-5--x-7-7--x--9-|--9---9-10---12---5--|
|----------------|--------------------|----------------|---------------------|
|
| Gtr II
| Q  E E Q  E  E    Q   E  E E  E E E   Q  E E Q  E  E    Q   E  E E  E E E
|----------------|--------------------|----------------|---------------------|
|----------------|--------------------|----------------|---------------------|
|----------------|--------------------|----------------|---------------------|
|-7--x-7-7--x--7-|--7---x--7----7---4-|-4--x-4-4--x--4-|--4---x--4----4------|
|-5--x-5-5--x--5-|--5---x--5----5---2-|-2--x-2-2--x--2-|--2---x--2----2---5--|
|----------------|--------------------|----------------|------------------5--|


  G5                                    A5
  Q  E E Q  E  E    Q   E  E E  E E E   Q  E E Q  E  E    Q   E E +E  E E E
|----------------|--------------------|----------------|---------------------||
|----------------|--------------------|----------------|---------------------||
|-7--x-9-9--x-11-|-11--11-12---11---7-|-7--x-9-9--x-11-|-11--11-9-(9)-9-9S7--||
|-x--x-x-x--x--x-|--x---x--x----x---x-|-x--x-x-x--x--x-|--x---x-x-----x-x----||
|-5--x-7-7--x--9-|--9---9-10----9---5-|-5--x-7-7--x--9-|--9---9-7-(7)-7-7S5--||
|----------------|--------------------|----------------|---------------------||
|
| Q  E E Q  E  E    Q   E  E E  E E E   Q  E E Q  E  E    Q   E E +E  E E E
|----------------|--------------------|----------------|---------------------||
|----------------|--------------------|----------------|---------------------||
|----------------|--------------------|----------------|---------------------||
|----------------|--------------------|----------------|---------------------||
|-5--x-5-5--x--5-|--5---x--5----5---7-|-7--x-7-7--x--7-|--7---7-7-(7)-7-7-7--||
|-5--x-5-5--x--5-|--5---x--5----5---7-|-7--x-7-7--x--7-|--7---7-7-(7)-7-7-7--||


 Verse
  D5                                  B5
  Gtr III
  H.          Q     W                 W                W
|-----------------|-----------------|----------------|------------------|
|-----------------|-----------------|----------------|------------------|
|-7\--------------|-----------------|----------------|------------------|
|-x---------------|-----------------|----------------|------------------|
|-5\--------------|-----------------|----------------|------------------|
|-----------------|-----------------|----------------|------------------|
|
|     PM--------------------------|      PM--------------------------|
| Q   E E E E E E   E E E E E E E E   Q  E E E E E E   E E E E E E E E
|-----------------|-----------------|----------------|------------------|
|-----------------|-----------------|----------------|------------------|
|-----------------|-----------------|----------------|------------------|
|-7---7-7-7-7-7-7-|-7-7-7-7-7-7-7-7-|-4--4-4-4-4-4-4-|-4-4-4-4-4-4-4-4--|
|-5---5-5-7-5-5-5-|-5-5-5-5-5-5-5-5-|-2--2-2-2-2-2-2-|-2-2-2-2-2-2-2-2--|
|-----------------|-----------------|----------------|------------------|


  E5                                 G5
     PM--------------------------|      PM--------------------------|
  Q  E E E E E E   E E E E E E E E   Q  E E E E E E   E E E E E E E E
|----------------|-----------------|----------------|------------------|
|----------------|-----------------|----------------|------------------|
|----------------|-----------------|----------------|------------------|
|----------------|-----------------|----------------|------------------|
|-2--2-2-2-2-2-2-|-2-2-2-2-2-2-2-2-|-5--5-5-5-5-5-5-|-5-5-5-5-5-5-5-5--|
|-2--2-2-2-2-2-2-|-2-2-2-2-2-2-2-2-|-5--5-5-5-5-5-5-|-5-5-5-5-5-5-5-5--|


  D5                                 B5
     PM--------------------------|      PM--------------------------|
  Q  E E E E E E   E E E E E E E E   Q  E E E E E E   E E E E E E E E
|----------------|-----------------|----------------|------------------|
|----------------|-----------------|----------------|------------------|
|----------------|-----------------|----------------|------------------|
|-7--7-7-7-7-7-7-|-7-7-7-7-7-7-7-7-|-4--4-4-4-4-4-4-|-4-4-4-4-4-4-4-4--|
|-5--5-5-5-5-5-5-|-5-5-5-5-5-5-5-5-|-2--2-2-2-2-2-2-|-2-2-2-2-2-2-2-2--|
|----------------|-----------------|----------------|------------------|


  E5                                 G5
  Q  E E E E E E   E E E E E E E E   E E E E E E E E   E E E E E E E E
|----------------|-----------------|-----------------|------------------||
|----------------|-----------------|-----------------|------------------||
|----------------|-----------------|-----------------|------------------||
|----------------|-----------------|-----------------|------------------||
|-2--2-2-2-2-2-2-|-2-2-2-2-2-2-2-2-|-5-5-5-5-5-5-5-5-|-5-5-5-5-5-5-5-5--||
|-2--2-2-2-2-2-2-|-2-2-2-2-2-2-2-2-|-5-5-5-5-5-5-5-5-|-5-5-5-5-5-5-5-5--||


  D5                 B5                 G5
  Gtr III
  Q  E E +E  E Q     Q  E E +E  E Q     Q  E E +E  E E E   Q  E E +E  E Q
|------------------|------------------|------------------|-------------------|
|------------------|------------------|------------------|-------------------|
|-7--7-7-(7)-7-6---|-7--7-7-(7)-7-6---|-7--7-7-(7)-7-7-7-|-7--7-7-(7)-7-6----|
|-x--x-x-----x-x---|-x--x-x-----x-x---|-x--x-x-----x-x-x-|-x--x-x-----x-x----|
|-5--5-5-(5)-5-4---|-5--5-5-(5)-5-4---|-5--5-5-(5)-5-5-5-|-5--5-5-(5)-5-4----|
|------------------|------------------|------------------|-------------------|
|
| Gtr II
| Q  E E +E  E E E   Q  E E +E  E E E   Q  E E +E  E E E   Q  E E +E  E E E
|------------------|------------------|------------------|-------------------|
|------------------|------------------|------------------|-------------------|
|------------------|------------------|------------------|-------------------|
|-7--7-7-(7)-7-7-7-|-4--4-4-(4)-4-4-4-|------------------|-------------------|
|-5--5-5-(5)-5-5-5-|-2--2-2-(2)-2-2-2-|-5--5-5-(5)-5-5-5-|-5--5-5-(5)-5-5-5--|
|------------------|------------------|-5--5-5-(5)-5-5-5-|-5--5-5-(5)-5-5-5--|


                                                               D.S. al Coda
  D5                 B5                 G5
  Q  E E +E  E Q     Q  E E +E  E Q     Q  E E +E  E E E   E E E E  E  E E E
|------------------|------------------|------------------|--------------------||
|------------------|------------------|------------------|--------------------||
|-7--7-7-(7)-7-6---|-7--7-7-(7)-7-6---|-7--7-7-(7)-7-7-7-|-7-7-7-7--7--7-7-7--||
|-x--x-x-----x-x---|-x--x-x-----x-x---|-x--x-x-----x-x-x-|-x-x-x-x--x--x-x-x--||
|-5--5-5-(5)-5-4---|-5--5-5-(5)-5-4---|-5--5-5-(5)-5-5-5-|-5-5-5-5--5--5-5-5--||
|------------------|------------------|------------------|--------------------||
|
| Q  E E +E  E E E   Q  E E +E  E E E   Q  E E +E  E E E   Q   E E +E  E E E
|------------------|------------------|------------------|--------------------||
|------------------|------------------|------------------|--------------------|
|------------------|------------------|------------------|--------------------|
|-7--7-7-(7)-7-7-7-|-4--4-4-(4)-4-4-4-|------------------|--------------------|
|-5--5-5-(5)-5-5-5-|-2--2-2-(2)-2-2-2-|-5--5-5-(5)-5-5-5-|-5---5-5-(5)-5-5-5--|
|------------------|------------------|-5--5-5-(5)-5-5-5-|-5---5-5-(5)-5-5-5--|


  &
  D5
  Gtrs II, III
  W          +W           +W
|----------|------------|--------*|
|----------|------------|--------*|
|----------|------------|--------*|
|----------|------------|--------*|
|-0--------|-(0)--------|-(0)----*|
|-0--------|-(0)--------|-(0)----*|

-------------------------------------------------------------------------------

                                   HANDLE THIS
                              As recorded by Sum 41
                   (From the 2001 Album ALL KILLER NO FILLER)

Words and Music by Sum 41

Gtr I (D A D G B E) - 'Untitled'
Gtr II (D A D G B E) - 'Untitled'
Gtr III (D A D G B E) - 'Untitled'

   Intro
    Moderately Slow Rock Q=82
    D5           A5                    G5
   4/4
    Gtr III
    Q    S  S  E  +E  S S  S  S  S S   +S  S e e   e   e e  S  S  E
||-----------------------------------|---------------------------------||
||o----------------------------------|--------------------------------o||
||------11-12-14-(14)-x-x-11S12-11-9-|-(9)S7-7-7---7---7-7-11S12-11----||
||-------x--x--x------x-x--x-----x-x-|-------x-x---x---x-x--x-----x----||
||o------9-10-12-(12)-x-x--9S10--9-7-|-(7)S5-5-5---5---5-5--9S10--9---o||
||-----------------------------------|---------------------------------||
|
|   Gtrs I, II
|   E E  Q         E  E    Q            E    E S S S S E E  S  S  S S
||-----------------------------------|---------------------------------||
||o----------------------------------|--------------------------------o||
||-----------------------------------|---------------------------------||
||-----------------------------------|---------------------------------||
||o-0-0------------7--7--------------|--5----5-x-x-x-x-5-5--x--x--x-x-o||
||--0-0------------7--7--------------|--5----5-x-x-x-x-5-5--x--x--x-x--||


 Verse
  D5          A5           G5
               >
  W           +W           +H     H
|-----------|------------|-------------|
|-----------|------------|-------------|
|-7---------|-(7)--------|-(7)---------|
|-x---------|------------|-------------|
|-5---------|-(5)--------|-(5)---------|
|-----------|------------|-------------|
|
| >
| H    H       W            W
|-----------|------------|-------------|
|-----------|------------|-------------|
|-----------|------------|-------------|
|-----------|------------|-------------|
|-0---------|------------|-------------|
|-0---------|------------|-------------|


  D5                                A5
  Gtrs I, II
  PM--------------------------------------------------------------|
  S S S S S S S S S S S S S S S S   S S S S S S S S S S S S S S S S
|---------------------------------|---------------------------------|
|---------------------------------|---------------------------------|
|---------------------------------|---------------------------------|
|-7-7-7-7-7-7-7-7-7-7-7-7-7-7-7---|-2-2-2-2-2-2-2-2-2-2-2-2-2-2-2-2-|
|-5-5-5-5-5-5-5-5-5-5-5-5-5-5-5-0-|-0-0-0-0-0-0-0-0-0-0-0-0-0-0-0-0-|
|---------------------------------|---------------------------------|


  B5                                G5
  PM----------------------------|
  S S S S S S S S S S S S S S S S   S S S S S S S S S S S S S S S S
|---------------------------------|---------------------------------||
|---------------------------------|---------------------------------||
|---------------------------------|---------------------------------||
|-4-4-4-4-4-4-4-4-4-4-4-4-4-4-4---|---------------------------------||
|-2-2-2-2-2-2-2-2-2-2-2-2-2-2-2-0-|-5-5-5-5-5-5-5-5-5-5-5-5-5-5-5-5-||
|---------------------------------|-5-5-5-5-5-5-5-5-5-5-5-5-5-5-5-5-||


 Chorus
  B5        G5          D5        A5          E5        G5
  E E E S S E E E S S   E E E S S E E E S S   E E E S S E E E S S
|---------------------|---------------------|----------------------|
|---------------------|---------------------|----------------------|
|---------------------|-7-7-7-7-------------|----------------------|
|-4-4-4-4-------------|-7-7-7-7---2-2-2-2-2-|----------------------|
|-2-2-2-2p0-5-5-5-5---|-5-5-5-5p0-0-0-0-0-0-|-2-2-2-2-2-5-5-5-5-5--|
|-----------5-5-5-5p0-|---------------------|-2-2-2-2-2-5-5-5-5-5--|


  D5        A5          E5        G5
  E E E S S E E E S S   E E E S S S S S S S S S S
|---------------------|---------------------------||
|---------------------|---------------------------||
|---------------------|---------------------------||
|-7-7-7-7---2-2-2-2-2-|---------------------------||
|-5-5-5-5p0-0-0-0-0-0-|-2-2-2-2-2-5-5-5-5-5-5-5-5-||
|-0-0-0-0-------------|-2-2-2-2-2-5-5-5-5-5-5-5-5-||


   Interlude
    D5           A5                    G5
   4/4
    Gtr III
    Q    S  S  E  +E  S S  S  S  S S   +S  S e e   e   e e  S  S  E
||-----------------------------------|---------------------------------||
||o----------------------------------|--------------------------------o||
||------11-12-14-(14)-x-x-11S12-11-9-|-(9)S7-7-7---7---7-7-11S12-11----||
||-------x--x--x------x-x--x-----x-x-|-------x-x---x---x-x--x-----x----||
||o------9-10-12-(12)-x-x--9S10--9-7-|-(7)S5-5-5---5---5-5--9S10--9---o||
||-----------------------------------|---------------------------------||
|
|   Gtrs I, II
|   E E  Q         E  E    Q            E    E S S S S E E  S  S  S S
||-----------------------------------|---------------------------------||
||o----------------------------------|--------------------------------o||
||-----------------------------------|---------------------------------||
||-----------------------------------|---------------------------------||
||o-0-0------------7--7--------------|--5----5-x-x-x-x-5-5--x--x--x-x-o||
||--0-0------------7--7--------------|--5----5-x-x-x-x-5-5--x--x--x-x--||


 Verse
  D5          A5           G5
               >
  W           +W           +H     H
|-----------|------------|-------------|
|-----------|------------|-------------|
|-7---------|-(7)--------|-(7)---------|
|-x---------|------------|-------------|
|-5---------|-(5)--------|-(5)---------|
|-----------|------------|-------------|
|
| >
| H    H       W            W
|-----------|------------|-------------|
|-----------|------------|-------------|
|-----------|------------|-------------|
|-----------|------------|-------------|
|-0---------|------------|-------------|
|-0---------|------------|-------------|


  A5                                B5
  Gtr III
  PM----|   PM    PM----|   PM      PM----|   PM    PM----|   PM
  S S S S S S E   S S S S S S E     S S S S S S E   S S S S S S E
|---------------------------------|----------------------------------|
|---------------------------------|----------------------------------|
|---------6---7-----------6---7---|---------6---7-----------6---7\---|
|-7-7-7-7---7-----7-7-7-7---7-----|-7-7-7-7---7-----7-7-7-7---7------|
|---------------------------------|----------------------------------|
|---------------------------------|----------------------------------|
|
| PM---------------------------------------------------------------|
| S S S S S S S S S S S S S S S S   S S S S S S S S S S S S S S S  S
|---------------------------------|----------------------------------|
|---------------------------------|----------------------------------|
|---------------------------------|----------------------------------|
|-2-2-2-2-2-2-2-2-2-2-2-2-2-2-2-2-|-4-4-4-4-4-4-4-4-4-4-4-4-4-4-4--4-|
|-0-0-0-0-0-0-0-0-0-0-0-0-0-0-0-0-|-2-2-2-2-2-2-2-2-2-2-2-2-2-2-2--2-|
|---------------------------------|----------------------------------|


  G5
  Gtr II
  S S S S S S S S S S S S S S S S
|---------------------------------|
|---------------------------------|
|---------------------------------|
|---------------------------------|
|-5-5-5-5-5-5-5-5-5-5-5-5-5-5-5-5-|
|-5-5-5-5-5-5-5-5-5-5-5-5-5-5-5-5-|
|
| S S S S S S S S S S S S S S S S
|---------------------------------|
|---------------------------------|
|---------------------------------|
|---------------------------------|
|-5-5-5-5-5-5-5-5-5-5-5-5-5-5-5-5-|
|-5-5-5-5-5-5-5-5-5-5-5-5-5-5-5-5-|


   S  S  S  S  S  S  S  S  S  S  S  S S S S  S
|----------------------------------------------||
|----------------------------------------------||
|-11-11-11-11-12-12-12-12-11-11-11-11----------||
|--x--x--x--x--x--x--x--x--x--x--x--x----------||
|--9--9--9--9-10-10-10-10--9--9--9--9----------||
|-------------------------------------2-2-2--0-||
|
|  S  S  S  S  S  S  S  S  S  S  S  S S S E
|----------------------------------------------||
|----------------------------------------------||
|--7--7--7--7--9--9--9--9-11-11-11-11-9-9-9\---||
|--x--x--x--x--x--x--x--x--x--x--x--x-x-x-x----||
|--5--5--5--5--7--7--7--7--9--9--9--9-7-7-7\---||
|----------------------------------------------||


 Chorus
  $
  B5        G5          D5        A5          E5        G5
  Gtrs I, II
  E E E S S E E E S S   E E E S S E E E S S   E E E S S E E E S S
|---------------------|---------------------|----------------------|
|---------------------|---------------------|----------------------|
|---------------------|-7-7-7---------------|----------------------|
|-4-4-4-4-------------|-7-7-7-7---2-2-2-2-2-|----------------------|
|-2-2-2-2p0-5-5-5-5---|-5-5-5-5p0-0-0-0-0-0-|-2-2-2-2-2-5-5-5-5-5--|
|-----------5-5-5-5p0-|---------------------|-2-2-2-2-2-5-5-5-5-5--|


                                         To Coda
  D5        A5          E5        G5
  E E E S S E E E S S   E E E S S S S S S S S S S
|---------------------|---------------------------||
|---------------------|---------------------------||
|---------------------|---------------------------||
|-7-7-7-7---2-2-2-2-2-|---------------------------||
|-5-5-5-5p0-0-0-0-0-0-|-2-2-2-2-2-5-5-5-5-5-5-5-5-||
|-0-0-0-0-------------|-2-2-2-2-2-5-5-5-5-5-5-5-5-||


 Guitar Solo
  D5             A5
  Gtr III
    E  E  E  E    S  s  S      +S   +E   E
|----------------14----14b15==(14)r(14)------|
|--------17-15--------------------------15---|
|-----14------------14-----------------------|
|-/16----------------------------------------|
|--------------------------------------------|
|--------------------------------------------|
|
| Gtrs I, II
|   E  E  E  S S  E     E            E   S S
|--------------------------------------------|
|--------------------------------------------|
|--------------------------------------------|
|---7--7--7--7-7-----------------------------|
|---5--5--5--5-5--7-----7------------7---7-7-|
|-----------------7-----7------------7---7-7-|


  E5                    G5
   +E     E  S  S  S  S  E    S      S  E  E
|-----------10-12-10-12S14---14b15==14r14------|
|-(15)\-/12-------------------------------15---|
|----------------------------------------------|
|----------------------------------------------|
|----------------------------------------------|
|----------------------------------------------|
|
|   E     E  E     S  S  S S  E         E  S S
|----------------------------------------------|
|----------------------------------------------|
|----------------------------------------------|
|----------------------------------------------|
|---2-----2--2-----2--2--5-5--5---------5--5-5-|
|---2-----2--2-----2--2--5-5--5---------5--5-5-|


  D5                A5
  Gtr III
    E     E  E  E    S  S  E  E  S  S
|-------------------------------------|
|-(15)\-/12-10------------------------|
|--------------12---11-12S14-14-11-12-|
|-------------------------------------|
|-------------------------------------|
|-------------------------------------|
|
| Gtrs I, II
|   E     E  E  S S  E     E  E  S  S
|-------------------------------------|
|-------------------------------------|
|-------------------------------------|
|---7-----7--7--7-7-------------------|
|---5-----5--5--5-5--7-----7--7--7--7-|
|--------------------7-----7--7--7--7-|


  E5               G5                     D5            A5
   e  e  S  S  E    S  S  E  S  S  S  S    E  E  E  E    E  S  S  E  E
|---------------------------------------|-10-12-14-12---10-14h15-14-12----|
|---------------------------------------|-10-10-10-10---10-10----10-10----|
|-14-14-14S16-14---12-11----12-11-------|---------------------------------|
|------------------------14-------12-12-|---------------------------------|
|---------------------------------------|---------------------------------|
|---------------------------------------|---------------------------------|
|
|  E  E  E     S S  S  S  E  E     S  S    E  E  E  S S  E  E     E  S S
|---------------------------------------|---------------------------------|
|---------------------------------------|---------------------------------|
|---------------------------------------|---------------------------------|
|---------------------------------------|--7--7--7--7-7-------------------|
|--2--2--2-----2-2--5--5--5--5-----5--5-|--5--5--5--5-5--7--7-----7--7-7--|
|--2--2--2-----2-2--5--5--5--5-----5--5-|----------------7--7-----7--7-7--|


  E5
  Gtr III
   S  S  S  S  S  S  S  S  S  S  S  S  S  S  E
|-12p10----12p10----12p10----12p10----12p10----||
|-10----10-10----10-10----10-10----10-------10-||
|----------------------------------------------||
|----------------------------------------------||
|----------------------------------------------||
|----------------------------------------------||
|
| Gtrs I, II
|  E     E     E     S  S  E     E     S  S  E
|----------------------------------------------||
|----------------------------------------------||
|----------------------------------------------||
|----------------------------------------------||
|--2-----2-----2-----2--2--2-----2-----2--2--2-||
|--2-----2-----2-----2--2--2-----2-----2--2--2-||


 Bridge
  G5
   W                    +W
|-10-----------------|------------------------|
|-10-----------------|-(10)-------------------|
|--------------------|------------------------|
|--------------------|------------------------|
|--------------------|------------------------|
|--------------------|------------------------|
|
|  E E E E E E E S S     S  S E E E E E E S S
|--------------------|------------------------|
|--------------------|------------------------|
|--------------------|------------------------|
|--------------------|------------------------|
|--5-5-5-5-5-5-5-5-5-|---5--5-5-5-5-5-5-5-5-5-|
|--5-5-5-5-5-5-5-5-5-|---5--5-5-5-5-5-5-5-5-5-|


  D5
  Gtr III
  W
|-----------------------------|
|-----------------------------|
|-----------------------------|
|-----------------------------|
|-----------------------------|
|-----------------------------|
|
| Gtr II
|          ~~~~~~~~~~~~~~
| Q   S S  E  +Q.    +S   +S
|-----------------------------|
|-----------------------------|
|-----7-9S11-(11)---(11)-(11)-|
|-----------------------------|
|-----------------------------|
|-----------------------------|
|
| Gtr I
| E E Q        H
|-----------------------------|
|-----------------------------|
|-----------------------------|
|-7-7-------------------------|
|-5-5-------------------------|
|-----------------------------|


                                     A5
             ~~~~~~~
  Q    S  S  E  +H                   W
|----------------------------------|-----------------|
|----------------------------------|-----------------|
|-----11-12S14-(14)----------------|-----------------|
|----------------------------------|-----------------|
|----------------------------------|-----------------|
|----------------------------------|-----------------|
|
|                ~~~~~~~~~~~~~
| Q    S  S  E  +Q.       +S   +S    W
|----------------------------------|-----------------|
|----------------------------------|-----------------|
|------7--9S11-(11)------(11)-(11)-|-----------------|
|----------------------------------|-----------------|
|----------------------------------|-----------------|
|----------------------------------|-----------------|
|
| E E  Q         Q   S S   S    S    E E E E E E E E
|----------------------------------|-----------------|
|----------------------------------|-----------------|
|----------------------------------|-----------------|
|----------------------------------|-----------------|
|-0-0----------------x-x---x----x--|-7-7-7-7-7-7-7-7-|
|-0-0----------------x-x---x----x--|-7-7-7-7-7-7-7-7-|


  E5                  G5
  Gtrs I, II
  E E E E E E E S S   E E E E E E E E   S S S S S S S S S S S S S S S S
|-------------------|-----------------|----------------------------------||
|-------------------|-----------------|----------------------------------||
|-------------------|-----------------|----------------------------------||
|-------------------|-----------------|----------------------------------||
|-2-2-2-2-2-2-2-2---|-5-5-5-5-5-5-5-5-|-5-5-5-5-5-5-5-5-5-5-5-5-5-5-5-5--||
|-2-2-2-2-2-2-2-2p0-|-5-5-5-5-5-5-5-5-|-5-5-5-5-5-5-5-5-5-5-5-5-5-5-5-5--||


 Chorus
                                                    D.S. al Coda
  B5        G5          D5        A5          E5        G5
  E E E S S E E E S S   E E E S S E E E S S   E E E S S E E E S S
|---------------------|---------------------|----------------------|
|---------------------|---------------------|----------------------|
|---------------------|-7-7-7---------------|----------------------|
|-4-4-4-4-------------|-7-7-7-7---2-2-2-2-2-|----------------------|
|-2-2-2-2p0-5-5-5-5---|-5-5-5-5p0-0-0-0-0-0-|-2-2-2-2-2-5-5-5-5-5--|
|-----------5-5-5-5p0-|---------------------|-2-2-2-2-2-5-5-5-5-5--|


  &
  D5                        A5
  E S S E E S S S S E S S   E S S E E S S S S E S S
|-------------------------|-------------------------|
|-------------------------|-------------------------|
|-7-7-7-7-7-7-7-7-7-7-7---|-------------------------|
|-7-7-7-7-7-7-7-7-7-7-7---|-------------------------|
|-5-5-5-5-5-5-5-5-5-5-5p0-|-7-7-7-7-7-7-7-7-7-7-7---|
|-------------------------|-7-7-7-7-7-7-7-7-7-7-7-0-|


  G5
  E E  S   S  E +E  E E S S
|---------------------------|
|-------------8-(8)---------|
|-------------7-(7)---------|
|-----<5>-<5>-5-(5)---------|
|-5-5---------5-(5)-5-5-5-5-|
|-5-5---------5-(5)-5-5-5-5-|


  D5        A5                D5
                              Gtr I
  E S S S S E +E  E S S S S   E S S E E S S S S E S S
|---------------------------|-------------------------|
|---------------------------|-------------------------|
|-7-7-7-7-------------------|-7-7-7-7-7-7-7-7-7-7-7---|
|-7-7-7-7-0-----------------|-7-7-7-7-7-7-7-7-7-7-7---|
|-5-5-5-5-0-7-(7)-7-7-7-7-7-|-5-5-5-5-5-5-5-5-5-5-5p0-|
|-----------7-(7)-7-7-7-7-7-|-------------------------|


  A5                        G5
  E S S E E S S S S E S S   E E  S   S  E +E  E E S S
|-------------------------|---------------------------|
|-------------------------|-------------8-(8)---------|
|-------------------------|-------------7-(7)---------|
|-------------------------|-----<5>-<5>-5-(5)---------|
|-7-7-7-7-7-7-7-7-7-7-7---|-5-5---------5-(5)-5-5-5-5-|
|-7-7-7-7-7-7-7-7-7-7-7-0-|-5-5---------5-(5)-5-5-5-5-|


  D5        A5
  E S S S S E +E  E S S S S
|---------------------------|
|---------------------------|
|-7-7-7-7-------------------|
|-7-7-7-7-0-----------------|
|-5-5-5-5-0-7-(7)-7-7-7-7-7-|
|-----------7-(7)-7-7-7-7-7-|


  D5
  Gtr I
  E  S S  E  E    S S  S  S  E    S S
|-------------------------------------|
|-------------------------------------|
|-7--7-7--7--7----7-7--7--7--7----7---|
|-7--7-7--7--7----7-7--7--7--7----7---|
|-5--5-5--5--5----5-5--5--5--5----5p0-|
|-------------------------------------|
|
| Gtr II
| E  S S  E.   S  S S  S  S  S S  E
|-------------------------------------|
|-------------------------------------|
|---11-9-11----9-11-9-11-12-11-9------|
|--------------------------------12---|
|-------------------------------------|
|-------------------------------------|
|
| Gtr III
| E  S S  E.   S  S S  S  S  S S  E
|-------------------------------------|
|-------------------------------------|
|-------------------------------------|
|-------------------------------------|
|----9-7--9----7--9-7--9-10--9-7--5---|
|-------------------------------------|


  A5
    E      S S  E  E    S S  S  S  E    S S
|-------------------------------------------|
|-------------------------------------------|
|-------------------------------------------|
|-------------------------------------------|
|---7------7-7--7--7----7-7--7--7--7----7---|
|---7------7-7--7--7----7-7--7--7--7----7-0-|
|
|  +S   S  S S  E.   S  S S  S  S  S S  E
|-------------------------------------------|
|-------------------------------------------|
|------11-11-9-11----9-11-9-11-12-11-9------|
|-(12)---------------------------------12---|
|-------------------------------------------|
|-------------------------------------------|
|
|  +S   S  S S  E.   S  S S  S  S  S S  E
|-------------------------------------------|
|-------------------------------------------|
|-------------------------------------------|
|-------------------------------------------|
|--(5)--9--9-7--9----7--9-7--9-10--9-7--5---|
|-------------------------------------------|


  G5                                D5             A5
  E E  S   S   E  +E   E  E  S  S    E  S S   S  S E +E  E S S S S
|---------------------------------|--------------------------------|
|--------------8--(8)-------------|--------------------------------|
|--------------7--(7)-------------|--7--7-7---7--------------------|
|-----<5>-<5>--5--(5)-------------|--7--7-7---7--0-----------------|
|-5-5----------5--(5)--5--5--5--5-|--5--5-5---5--0-7-(7)-7-7-7-7-7-|
|-5-5----------5--(5)--5--5--5--5-|----------------7-(7)-7-7-7-7-7-|
|
| Q    E       E  +E   E  E  S  S    E  E    +S  S E +E  E S S S S
|---------------------------------|--------------------------------|
|---------------------------------|--------------------------------|
|-9---11--------------12-12-12S11-|-11-11---(11)S9-9-(9)-9-9-9-9-9-|
|-------------12-(12)-------------|--------------------------------|
|---------------------------------|--------------------------------|
|---------------------------------|--------------------------------|
|
| Q    E       E  +E   E  E  S  S    E  E    +S  S E +E  E S S S S
|---------------------------------|--------------------------------|
|---------------------------------|--------------------------------|
|---------------------------------|--------------------------------|
|---------------------------------|--------------------------------|
|-7----9-------5--(5)-10-10-10S=9-|--9--9----(9)S7-7-(7)-7-7-7-7-7-|
|---------------------------------|--------------------------------|


  D5
  E  S S  E  E    S S  S  S  E    S S
|-------------------------------------|
|-------------------------------------|
|-7--7-7--7--7----7-7--7--7--7----7---|
|-7--7-7--7--7----7-7--7--7--7----7---|
|-5--5-5--5--5----5-5--5--5--5----5p0-|
|-------------------------------------|
|
| E  S S  E.   S  S S  S  S  S S  E
|-------------------------------------|
|-------------------------------------|
|---11-9-11----9-11-9-11-12-11-9------|
|--------------------------------12---|
|-------------------------------------|
|-------------------------------------|
|
| E  S S  E.   S  S S  S  S  S S  E
|-------------------------------------|
|-------------------------------------|
|-------------------------------------|
|-------------------------------------|
|----9-7--9----7--9-7--9-10--9-7--5---|
|-------------------------------------|


  A5
    E      S S  E  E    S S  S  S  E    S S
|-------------------------------------------|
|-------------------------------------------|
|-------------------------------------------|
|-------------------------------------------|
|---7------7-7--7--7----7-7--7--7--7----7---|
|---7------7-7--7--7----7-7--7--7--7----7-0-|
|
|  +S   S  S S  E.   S  S S  S  S  S S  E
|-------------------------------------------|
|-------------------------------------------|
|------11-11-9-11----9-11-9-11-12-11-9------|
|-(12)---------------------------------12---|
|-------------------------------------------|
|-------------------------------------------|
|
|  +S   S  S S  E.   S  S S  S  S  S S  E
|-------------------------------------------|
|-------------------------------------------|
|-------------------------------------------|
|-------------------------------------------|
|--(5)--9--9-7--9----7--9-7--9-10--9-7--5---|
|-------------------------------------------|


  G5                                D5         A5
  E E  S   S   E  +E   E  E  S  S    E  E  S S E +H       +H     +H
|---------------------------------|---------------------|---------------*|
|--------------8--(8)-------------|---------------------|---------------*|
|-----<5>-<5>--7--(7)-------------|--7--7---------------|---------------*|
|--------------5--(5)-------------|--7--7---------------|---------------*|
|-5-5----------5--(5)--5--5--5--5-|--5--5--5p0-7-(7)----|-(7)----(7)----*|
|-5-5----------5--(5)--5--5--5--5-|------------7-(7)----|-(7)----(7)----*|
|
| Q    E       E  +E   E  E  S  S    E  E  S S E +H       +H     +H
|---------------------------------|---------------------|---------------*|
|---------------------------------|---------------------|---------------*|
|-9---11--------------12-12-12S11-|-11-11-11S9-9-(9)----|-(9)----(9)----*|
|-------------12-(12)-------------|---------------------|---------------*|
|---------------------------------|---------------------|---------------*|
|---------------------------------|---------------------|---------------*|
|
| Q    E       E  +E   E  E  S  S    E  E  S S E +H       +H     +H
|---------------------------------|---------------------|---------------*|
|---------------------------------|---------------------|---------------*|
|---------------------------------|---------------------|---------------*|
|---------------------------------|---------------------|---------------*|
|-7----9-------5--(5)-10-10-10S=9-|--9--9--9S7-7-(7)----|-(7)----(7)----*|
|---------------------------------|---------------------|---------------*|

-------------------------------------------------------------------------------

                              CRAZY AMANDA BUNKFACE
                              As recorded by Sum 41
                   (From the 2001 Album ALL KILLER NO FILLER)

Words and Music by Sum 41

Gtr I (D A D G B E) - 'Untitled'
Gtr II (D A D G B E) - 'Untitled'
Gtr III (D A D G B E) - 'Untitled'

 Verse
  Fast Rock Q=187
  G5                A5                B5                C5
 4/4
  Gtr I
  PM-------------------------------------------------------------------------|
  E E E E E E E E   E E E E E E E E   E E E E E E E E    E  E  E  E  E  E  E E
|-----------------|-----------------|-----------------|------------------------|
|-----------------|-----------------|-----------------|------------------------|
|-----------------|-----------------|-----------------|------------------------|
|-----------------|-----------------|-----------------|------------------------|
|-5-5-5-5-5-5-5-5S|=7-7-7-7-7-7-7-7-|-9-9-9-9-9-9-9---|-10-10-10-10-10-10-10-0-|
|-5-5-5-5-5-5-5-5S|=7-7-7-7-7-7-7-7-|-9-9-9-9-9-9-9-0-|-10-10-10-10-10-10-10---|


  G5                A5                B5                C5
  PM-------------------------------------------------------------------------|
  E E E E E E E E   E E E E E E E E   E E E E E E E E    E  E  E  E  E  E  E E
|-----------------|-----------------|-----------------|------------------------|
|-----------------|-----------------|-----------------|------------------------|
|-----------------|-----------------|-----------------|------------------------|
|-----------------|-----------------|-----------------|------------------------|
|-5-5-5-5-5-5-5-5S|=7-7-7-7-7-7-7-7-|-9-9-9-9-9-9-9---|-10-10-10-10-10-10-10-0-|
|-5-5-5-5-5-5-5-5S|=7-7-7-7-7-7-7-7-|-9-9-9-9-9-9-9-0-|-10-10-10-10-10-10-10---|


  G5                D/F#              F5                C5
  PM|   PM--|   PM----|   PM--|   PM----|   PM--|   PM
  E E E E E E E E   E E E E E E E E   E E E E E E E E   E E E E E E E E
|-----------------|-----------------|-----------------|-----------------|
|-----------------|-----------------|-----------------|-----------------|
|-----------------|-----------------|-----------------|-----------------|
|-----5-------5---|-----5-------5---|-----3-------3---|-5-5-5-5-5-5-5---|
|-5-5-5-5-5-5-5---|-5-5-5-5-5-5-5---|-3-3-3-3-3-3-3---|-3-3-3-3-3-3-3---|
|-5-5-5-5-5-5-5-0-|-4-4-4-4-4-4-4-0-|-3-3-3-3-3-3-3-0-|---------------0-|


  G5                D/F#              F5
  PM|   PM--|   PM----|   PM--|   PM----------------|
  E E E E E E E E   E E E E E E E E   E E E E E E E E   E E Q  H
|-----------------|-----------------|-----------------|-------------||
|-----------------|-----------------|-----------------|-------------||
|-----------------|-----------------|-----------------|-------------||
|-----5-------5---|-----5-------5---|-----------------|-------------||
|-5-5-5-5-5-5-5---|-5-5-5-5-5-5-5---|-3-3-3-3-3-3-3-3-|-3-----------||
|-5-5-5-5-5-5-5-0-|-4-4-4-4-4-4-4-0-|-3-3-3-3-3-3-3-3-|-3-----------||


 Chorus
  C5   G5     D5               C5       G5     D5               C5
  Gtrs I, II
  Q  E E Q  E E   Q  E E E E E E   Q  E E Q  E E   Q  E E E E E E
|---------------|----------------|---------------|----------------|
|---------------|----------------|---------------|----------------|
|-5---------x-7-|-7--7-7-7-7-7-5-|-5---------x-7-|-7--7-7-7-7-7-5-|
|-5---------x-7-|-7--7-7-7-7-7-5-|-5---------x-7-|-7--7-7-7-7-7-5-|
|-3--x-5-5--x-5-|-5--5-5-5-5-5-3-|-3--x-5-5--x-5-|-5--5-5-5-5-5-3-|
|----x-5-5------|----------------|----x-5-5------|----------------|


  C5   G5     D5               C5       G5     D5
  Q  E E Q  E E   Q  E E E E E E   Q  E E Q  E E   Q  E E E E E E
|---------------|----------------|---------------|----------------||
|---------------|----------------|---------------|----------------||
|-5---------x-7-|-7--7-7-7-7-7-5-|-5---------x-7-|-7--7-7-7-7-7---||
|-5---------x-7-|-7--7-7-7-7-7-5-|-5---------x-7-|-7--7-7-7-7-7---||
|-3--x-5-5--x-5-|-5--5-5-5-5-5-3-|-3--x-5-5--x-5-|-5--5-5-5-5-5-0-||
|----x-5-5------|----------------|----x-5-5------|----------------||


 Interlude
  G5        D/G5                     C5                           D5
  Q  Q  E E E E   +E  E Q  E E E E   Q  E E E E E E   +E  E E E E E E E
|---------------|------------------|----------------|-------------------|
|---------------|------------------|----------------|-------------------|
|---------------|----------------0-|-5--5-5-5-5-5-5-|-(5)-5-5-5-5-7-7-7-|
|---------------|----------------0-|-5--5-5-5-5-5-5-|-(5)-5-5-5-5-7-7-7-|
|-5--5--5---5-5-|-(5)-5-5--5-5-5---|-3--3-3-3-3-3-3-|-(3)-3-3-3-3-5-5-5-|
|-5--5--5-4-4-5-|-(5)-5-5--5-5-5---|----------------|-------------------|


  G5        D/G5                     C5                           D5
  Q  Q  E E E E   +E  E Q  E E E E   Q  E E E E E E   +E  E E E E E E E
|---------------|------------------|----------------|-------------------||
|---------------|------------------|----------------|-------------------||
|---------------|----------------0-|-5--5-5-5-5-5-5-|-(5)-5-5-5-5-7-7-7-||
|---------------|----------------0-|-5--5-5-5-5-5-5-|-(5)-5-5-5-5-7-7-7-||
|-5--5--5---5-5-|-(5)-5-5--5-5-5---|-3--3-3-3-3-3-3-|-(3)-3-3-3-3-5-5-5-||
|-5--5--5-4-4-5-|-(5)-5-5--5-5-5---|----------------|-------------------||


 Verse
  G5                A5                B5                C5
  Gtrs I, II
  H       H         W                 W                 W
|-----------------|-----------------|-----------------|-----------------|
|-----------------|-----------------|-----------------|-----------------|
|-----------------|-----------------|-----------------|-----------------|
|-----------------|-----------------|-----------------|-----------------|
|-5---------------|-----------------|-----------------|-----------------|
|-5---------------|-----------------|-----------------|-----------------|
|
| Gtr III
| E E E E E E E E   E E E E E E E E   E E E E E E E E   E E E E E E E E
|-----------------|-----------------|-----------------|-----------------|
|-----------------|-----------------|-----------------|-----------------|
|-----------------|-----------------|-----------------|-----------------|
|-----------------|-----------------|-----------------|-----------------|
|-----------------|-----------------|-2-2-2-2-2-2-2-2-|-3-3-3-3-3-3-3-3-|
|-5-5-5-5-5-5-5-5-|-7-7-7-7-7-7-7-7-|-----------------|-----------------|


  G5                A5                B5                C5
  Gtr II
  E E E E E E E E   E E E E E E E E   E E E E E E E E   E E E E E E E E
|-----------------|-----------------|-----------------|-----------------|
|-----------------|-----------------|-----------------|-----------------|
|-----------------|-----------------|-----------------|-----------------|
|-0-0-0-0-0-0-0-0-|-5-5-5-5-5-5-5-5-|-4-4-4-4-4-4-4-4-|-5-5-5-5-5-5-5-5-|
|-----------------|-----------------|-----------------|-----------------|
|-----------------|-----------------|-----------------|-----------------|
|
| Gtr III
| E E E E E E E E   E E E E E E E E   E E E E E E E E   E E E E E E E E
|-----------------|-----------------|-----------------|-----------------|
|-----------------|-----------------|-----------------|-----------------|
|-----------------|-----------------|-----------------|-----------------|
|-----------------|-----------------|-----------------|-----------------|
|-----------------|-----------------|-2-2-2-2-2-2-2-2-|-3-3-3-3-3-3-3-3-|
|-5-5-5-5-5-5-5-5-|-7-7-7-7-7-7-7-7-|-----------------|-----------------|


  G5              D/F#            F5              C5
  Gtrs I, II
  Q  Q  E E E E   Q  Q  E E E E   Q  Q  E E E E   Q  Q  E E E E
|---------------|---------------|---------------|---------------|
|---------------|---------------|---------------|---------------|
|---------------|---------------|---------------|---------------|
|---------------|---------------|---------------|-5--5--5-5-5-5-|
|-5--5--5-5-5-5-|-5--5--5-5-5-5-|-3--3--3-3-3-3-|-3--3--3-3-3-3-|
|-5--5--5-5-5-5-|-4--4--4-4-4-4-|-3--3--3-3-3-3-|---------------|


  G5              D/F#            F5
  Q  Q  E E E E   Q  Q  E E E E   Q  E E Q  E E   Q  Q  H
|---------------|---------------|---------------|------------||
|---------------|---------------|---------------|------------||
|---------------|---------------|---------------|------------||
|---------------|---------------|---------------|------------||
|-5--5--5-5-5-5-|-5--5--5-5-5-5-|-3----3-3----3-|-3----------||
|-5--5--5-5-5-5-|-4--4--4-4-4-4-|-3----3-3----3-|-3----------||


 Chorus
  C5   G5     D5                      C5
  Gtrs I, II
  Q  E E Q  E  E    Q   E  E  E  E  E E
|----------------|----------------------|
|----------------|----------------------|
|-5---------x--7-|--7---7--7--7--7--7-5-|
|-5---------x--7-|--7---7--7--7--7--7-5-|
|-3--x-5-5--x--5-|--5---5--5--5--5--5-3-|
|----x-5-5-------|----------------------|
|
| Gtr III
| Q  E E Q  E  E    Q   E  E  E  E  E E
|----------------|----------------------|
|----------------|----------------------|
|-9----7-7----11-|-11--11-11-11-11-11-9-|
|-x----x-x-----x-|--x---x--x--x--x--x-x-|
|-7----5-5-----9-|--9---9--9--9--9--9-7-|
|----------------|----------------------|


       G5     D5                      C5
  Q  E E Q  E  E    Q   E  E  E  E  E E
|----------------|----------------------|
|----------------|----------------------|
|-5---------x--7-|--7---7--7--7--7--7-5-|
|-5---------x--7-|--7---7--7--7--7--7-5-|
|-3--x-5-5--x--5-|--5---5--5--5--5--5-3-|
|----x-5-5-------|----------------------|
|
| Q  E E Q  E  E    Q   E  E  E  E  E E
|----------------|----------------------|
|----------------|----------------------|
|-9----7-7----11-|-11--11-11-11-11-11-9-|
|-x----x-x-----x-|--x---x--x--x--x--x-x-|
|-7----5-5-----9-|--9---9--9--9--9--9-7-|
|----------------|----------------------|


  C5   G5     D5                      C5
  Q  E E Q  E  E    Q   E  E  E  E  E E
|----------------|----------------------|
|----------------|----------------------|
|-5---------x--7-|--7---7--7--7--7--7-5-|
|-5---------x--7-|--7---7--7--7--7--7-5-|
|-3--x-5-5--x--5-|--5---5--5--5--5--5-3-|
|----x-5-5-------|----------------------|
|
| Q  E E Q  E  E    Q   E  E  E  E  E E
|----------------|----------------------|
|----------------|----------------------|
|-9----7-7----11-|-11--11-11-11-11-11-9-|
|-x----x-x-----x-|--x---x--x--x--x--x-x-|
|-7----5-5-----9-|--9---9--9--9--9--9-7-|
|----------------|----------------------|


       G5     D5
  Q  E E Q  E  E    Q   E  E  E  E  E E
|----------------|-----------------------||
|----------------|-----------------------||
|-5---------x--7-|--7---7--7--7--7--7----||
|-5---------x--7-|--7---7--7--7--7--7----||
|-3--x-5-5--x--5-|--5---5--5--5--5--5-0--||
|----x-5-5-------|-----------------------||
|
| Q  E E Q  E  E    Q   E  E  E  E  E E
|----------------|-----------------------||
|----------------|-----------------------||
|-9----7-7----11-|-11--11-11-11-11-11-9\-||
|-x----x-x-----x-|--x---x--x--x--x--x-x--||
|-7----5-5-----9-|--9---9--9--9--9--9-7\-||
|----------------|-----------------------||


 Interlude
  D5E5D5 E5     D5E5D5 E5     D5E5D5 E5     D5E5D5 F#5G5
  Gtrs I, II
  PM--|         PM--|         PM--|         PM--|
  E E Q  H      E E Q  H      E E Q  H      E E Q  Q  Q
|-------------|-------------|-------------|--------------|
|-------------|-------------|-------------|--------------|
|-------------|-------------|-------------|--------------|
|-------------|-------------|-------------|--------------|
|-0-2-0--2----|-0-2-0--2----|-0-2-0--2----|-0-2-0--4--5--|
|-0-2-0--2----|-0-2-0--2----|-0-2-0--2----|-0-2-0--4--5--|


  D5E5D5 E5     D5E5D5 E5     D5E5D5 E5     D5E5D5 F#5G5
  Gtrs I, II
  PM--|         PM--|         PM--|         PM--|
  E E Q  H      E E Q  H      E E Q  H      E E Q  Q  Q
|-------------|-------------|-------------|--------------|
|-------------|-------------|-------------|--------------|
|-------------|-------------|-------------|--------------|
|-------------|-------------|-------------|--------------|
|-0-2-0--2----|-0-2-0--2----|-0-2-0--2----|-0-2-0--4--5--|
|-0-2-0--2----|-0-2-0--2----|-0-2-0--2----|-0-2-0--4--5--|


    D5E5D5 E5            D5E5D5 E5
    Gtrs I, II
    PM--|                PM--|
    E E Q   H            E E Q   H
||---------------------|--------------------|
||o--------------------|--------------------|
||---------------------|--------------------|
||---------------------|--------------------|
||o-0-2-0---2----------|-0-2-0---2----------|
||--0-2-0---2----------|-0-2-0---2----------|
|
|   Gtr III
|   H       Q.    +E     H       Q.    +E
||---------------------|--------------------|
||o--------------------|--------------------|
||---------12----(12)\-|--------12----(12)\-|
||----------x----------|---------x----------|
||o--------10----(10)\-|--------10----(10)\-|
||---------------------|--------------------|


                      1.
  D5E5D5 E5            D5E5D5 F#5G5
  PM--|                PM--|
  E E Q   H            E E Q  Q  Q
|--------------------|----------------||
|--------------------|---------------o||
|--------------------|----------------||
|--------------------|----------------||
|-0-2-0---2----------|-0-2-0--4--5---o||
|-0-2-0---2----------|-0-2-0--4--5----||
|
| H       Q.    +E     W
|--------------------|----------------||
|--------------------|---------------o||
|--------12----(12)\-|----------------||
|---------x----------|----------------||
|--------10----(10)\-|---------------o||
|--------------------|----------------||


  2.
  D5      F#5G5   D5      F#5G5   D5      F#5G5
  PM----|         PM----|         PM----|
  E E E E Q  Q    E E E E Q  Q    E E E E Q  Q    E E E E E E E E
|---------------|---------------|---------------|-----------------||
|---------------|---------------|---------------|-----------------||
|---------------|---------------|---------------|-7-7-7-7-7-7-7---||
|---------------|---------------|---------------|-x-x-x-x-x-x-x---||
|-0-0-0-0-4--5--|-0-0-0-0-4--5--|-0-0-0-0-4--5--|-5-5-5-5-5-5-5-0-||
|-0-0-0-0-4--5--|-0-0-0-0-4--5--|-0-0-0-0-4--5--|-5-5-5-5-5-5-5-0-||


   Bridge
                                                         1.,2.,3.
    D5              E5              G5                    A5
    Gtr III
    Q  Q  E E E E   Q  Q  E E E E    Q   Q   E  E  E  E    Q   E E E E E E
||----------------|---------------|---------------------|--------------------||
||o-7--7--7-7-7-7-|-8--8--8-8-8-8-|-12--12--12-12-12-12-|-10--10-8-8-8-8-8--o||
||--7--7--7-7-7-7-|-9--9--9-9-9-9-|-12--12--12-12-12-12-|-11--11-9-9-9-9-9---||
||----------------|---------------|---------------------|--------------------||
||o---------------|---------------|---------------------|-------------------o||
||----------------|---------------|---------------------|--------------------||
|
|   Gtrs I, II
|   Q  Q  E E E E   Q  Q  E E E E    Q   Q   E  E  E  E    Q   Q   E E E E
||----------------|---------------|---------------------|--------------------||
||o---------------|---------------|---------------------|-------------------o||
||----------------|---------------|---------------------|--------------------||
||----------------|---------------|---------------------|--------------------||
||o-0--0--0-0-0-0-|-2--2--2-2-2-2-|--5---5---5--5--5--5-|--7---7---7-7-7-7--o||
||--0--0--0-0-0-0-|-2--2--2-2-2-2-|--5---5---5--5--5--5-|--7---7---7-7-7-7---||


  4.
  A5
   Q  E E +Q    Q      Q  E E +Q    Q
|-------------------|-------------------|
|-10--x-8-(8)---7---|-10--x-8-(8)---7---|
|-11--x-9-(9)---7---|-11--x-9-(9)---7---|
|-------------------|-------------------|
|-------------------|-------------------|
|-------------------|-------------------|
|
|  Q  E E +E  E Q      Q  E E +E  E Q
|-------------------|-------------------|
|-------------------|-------------------|
|-------------------|-------------------|
|-------------------|-------------------|
|--7--x-7-(7)-7-7\--|--7--x-7-(7)-7-7\--|
|--7--x-7-(7)-7-7\--|--7--x-7-(7)-7-7\--|


   Q  E E +Q    E  E   E E E E E E E E
|--------------------|-----------------||
|-10--x-8-(8)---7--7-|-8-8-8-8-8-8-8-8-||
|-11--x-9-(9)---7--7-|-9-9-9-9-9-9-9-9-||
|--------------------|-----------------||
|--------------------|-----------------||
|--------------------|-----------------||
|
|  Q  E E +E  E Q      E E E E E E E E
|--------------------|-----------------||
|--------------------|-----------------||
|--------------------|-----------------||
|--------------------|-----------------||
|--7--x-7-(7)-7-7\---|-7-7-7-7-7-7-7-7-||
|--7--x-7-(7)-7-7\---|-7-7-7-7-7-7-7-7-||


 Outro-Chorus
  D5    A5     E5                      D5
  Gtr III
   Q  E E Q  E  E    Q   E  E  E  E  E  E
|-----------------|-----------------------|
|-----------------|-----------------------|
|-11----9-9----13-|-13--13-13-13-13-13-11-|
|--x----x-x-----x-|--x---x--x--x--x--x--x-|
|--9----7-7----11-|-11--11-11-11-11-11--9-|
|-----------------|-----------------------|
|
| Gtrs I, II
|  Q  E E Q  E  E    Q   E  E  E  E  E  E
|-----------------|-----------------------|
|-----------------|-----------------------|
|--7--x------x--9-|--9---9--9--9--9--9--7-|
|--7--x------x--9-|--9---9--9--9--9--9--7-|
|--5--x-7-7--x--7-|--7---7--7--7--7--7--5-|
|-------7-7-------|-----------------------|


        A5     E5                      D5
   Q  E E Q  E  E    Q   E  E  E  E  E  E
|-----------------|------------------------|
|-----------------|------------------------|
|-11----9-9----13-|-13--13-13-13-13-13-11--|
|--x----x-x-----x-|--x---x--x--x--x--x--x--|
|--9----7-7----11-|-11--11-11-11-11-11--9--|
|-----------------|------------------------|
|
|  Q  E E Q  E  E    Q   E  E  E  E  E  E
|-----------------|------------------------|
|-----------------|------------------------|
|--7--x------x--9-|--9---9--9--9--9--9--7--|
|--7--x------x--9-|--9---9--9--9--9--9--7--|
|--5--x-7-7--x--7-|--7---7--7--7--7--7--5--|
|-------7-7-------|------------------------|


  D5    A5     E5                      D5
  Gtr III
   Q  E E Q  E  E    Q   E  E  E  E  E  E
|-----------------|-----------------------|
|-----------------|-----------------------|
|-11----9-9----13-|-13--13-13-13-13-13-11-|
|--x----x-x-----x-|--x---x--x--x--x--x--x-|
|--9----7-7----11-|-11--11-11-11-11-11--9-|
|-----------------|-----------------------|
|
| Gtrs I, II
|  Q  E E Q  E  E    Q   E  E  E  E  E  E
|-----------------|-----------------------|
|-----------------|-----------------------|
|--7--x------x--9-|--9---9--9--9--9--9--7-|
|--7--x------x--9-|--9---9--9--9--9--9--7-|
|--5--x-7-7--x--7-|--7---7--7--7--7--7--5-|
|-------7-7-------|-----------------------|


        A5     E5                      A5
   Q  E E Q  E  E    Q   E  E  E  E  E E   H     H
|-----------------|----------------------|------------*|
|-----------------|----------------------|------------*|
|-11----9-9----13-|-13--13-13-13-13-13---|------------*|
|--x----x-x-----x-|--x---x--x--x--x--x---|------------*|
|--9----7-7----11-|-11--11-11-11-11-11---|-7\---------*|
|-----------------|--------------------7-|-7\---------*|
|
|  Q  E E Q  E  E    Q   E  E  E  E  E E   H     H
|-----------------|----------------------|------------*|
|-----------------|----------------------|------------*|
|--7--x------x--9-|--9---9--9--9--9--9---|------------*|
|--7--x------x--9-|--9---9--9--9--9--9---|------------*|
|--5--x-7-7--x--7-|--7---7--7--7--7--7-7-|-7\---------*|
|-------7-7-------|--------------------7-|-7\---------*|

-------------------------------------------------------------------------------
No tab for All shes Got(in process of tabbing)
-------------------------------------------------------------------------------

                                  HEART ATTACK
                              As recorded by Sum 41
                   (From the 2001 Album ALL KILLER NO FILLER)

Words and Music by Sum 41

Gtr I (E A D G B E) - 'Clean Electric I'
Gtr II (E A D G B E) - 'Guitar I'
Gtr III (E A D G B E) - 'Guitar II'
Gtr IV (E A D G B E) - 'Clean Electric II'
Gtr V (E A D G B E) - 'Guitar III'

 Intro
  Moderately Fast Rock Q=170
  N.C.(F#5)         N.C.(C#add11)     N.C.(Badd9)
 4/4
  Gtr I
  <
  E E E E E E E E   E E E E E E E E   E E E E E E E E   E E E E E E E E
|-------2---------|-------2---------|-------2---------|-------2----------|
|---2-------2---2-|---2-------2---2-|---2-------2---2-|---2-------2---2--|
|-----------------|-----------------|-----------------|------------------|
|-4---4---4---4---|-3---3---3---3---|-----------------|------------------|
|-----------------|-----------------|-2---2---2---2---|-2---2---2---4----|
|-----------------|-----------------|-----------------|------------------|


  N.C.(F#5)         N.C.(C#add11)     N.C.(Badd9)
  E E E E E E E E   E E E E E E E E   E E E E E E E E   E E E E E E E E
|-------2---------|-------2---------|-------2---------|-------2---------||
|---2-------2---2-|---2-------2---2-|---2-------2---2-|---2-------2---2-||
|-----------------|-----------------|-----------------|-----------------||
|-4---4---4---4---|-3---3---3---3---|-----------------|-----------------||
|-----------------|-----------------|-2---2---2---2---|-2---2---2---4---||
|-----------------|-----------------|-----------------|-----------------||


 First Verse
  N.C.(F#5)         N.C.(C#add11)     N.C.(Badd9)
  E E E E E E E E   E E E E E E E E   E E E E E E E E   E E E E E E E E
|-------2---------|-------2---------|-------2---------|-------2---------|
|---2-------2---2-|---2-------2---2-|---2-------2---2-|---2-------2---2-|
|-----------------|-----------------|-----------------|-----------------|
|-4---4---4---4---|-3---3---3---3---|-----------------|-----------------|
|-----------------|-----------------|-2---2---2---2---|-2---2---2---4---|
|-----------------|-----------------|-----------------|-----------------|


  N.C.(F#5)         N.C.(C#add11)     N.C.(Badd9)
  E E E E E E E E   E E E E E E E E   E E E E E E E E   E E E E E E E E
|-------2---------|-------2---------|-------2---------|-------2---------|
|---2-------2---2-|---2-------2---2-|---2-------2---2-|---2-------2---2-|
|-----------------|-----------------|-----------------|-----------------|
|-4---4---4---4---|-3---3---3---3---|-----------------|-----------------|
|-----------------|-----------------|-2---2---2---2---|-2---2---2---4---|
|-----------------|-----------------|-----------------|-----------------|


  N.C.(F#5)         N.C.(C#add11)     N.C.(Badd9)
  Gtr I
  E E E E E E E E   E E E E E E E E   E E E E E E E E   E E E E E E E E
|-------2---------|-------2---------|-------2---------|-------2---------|
|---2-------2---2-|---2-------2---2-|---2-------2---2-|---2-------2---2-|
|-----------------|-----------------|-----------------|-----------------|
|-4---4---4---4---|-3---3---3---3---|-----------------|-----------------|
|-----------------|-----------------|-2---2---2---2---|-2---2---2---4---|
|-----------------|-----------------|-----------------|-----------------|
|
| Gtr II
| PM------------------------------------------------------------------|
| E E E E E E E E   E E E E E E E E   E E E E E E E E   E E E E E E E E
|-----------------|-----------------|-----------------|-----------------|
|-----------------|-----------------|-----------------|-----------------|
|-----------------|-----------------|-----------------|-----------------|
|-----------------|-----------------|-----------------|-----------------|
|-9-9-9-9-9-9-9-9-|-8-8-8-8-8-8-8-8-|-6-6-6-6-6-6-6-6-|-6-6-6-6-6-6-6-6-|
|-----------------|-----------------|-----------------|-----------------|


  N.C.(F#5)         N.C.(C#add11)     N.C.(Badd9)       C#5
                                                        Gtr III
  E E E E E E E E   E E E E E E E E   E E E E E E E E   E. S E. S E. S E. S
|-------2---------|-------2---------|-------2---------|---------------------||
|---2-------2---2-|---2-------2---2-|---2-------2---2-|---------------------||
|-----------------|-----------------|-----------------|-6----6----6----6----||
|-4---4---4---4---|-3---3---3---3---|-----------------|-6----6----6----6----||
|-----------------|-----------------|-2---2---2---2---|-4----4----4----4----||
|-----------------|-----------------|-----------------|---------------------||
|
| PM------------------------------------------------|
| E E E E E E E E   E E E E E E E E   E E E E E E E E   E. S E. S E. S E. S
|-----------------|-----------------|-----------------|---------------------||
|-----------------|-----------------|-----------------|---------------------||
|-----------------|-----------------|-----------------|-6----6----6----6----||
|-----------------|-----------------|-----------------|-6----6----6----6----||
|-9-9-9-9-9-9-9-9-|-8-8-8-8-8-8-8-8-|-6-6-6-6-6-6-6-6-|-4----4----4----4----||
|-----------------|-----------------|-----------------|---------------------||


 Chorus
  $
  $$
  F#                        E           B5
  Gtr III
   E. S  E. S  E. S  E. S    E. S  E. S  E. S  E. S
|-------------------------|-------------------------|
|-------------------------|-------------------------|
|-15----15----15----15----|-13----13----11----11----|
|-------------------------|-------------------------|
|-13----13----13----13----|-11----11-----9-----9----|
|-------------------------|-------------------------|
|
| Gtr II
|  E. S  E. S  E. S  E. S    E. S  E. S  E. S  E. S
|-------------------------|-------------------------|
|-------------------------|-------------------------|
|-------------------------|--------------4-----4----|
|--4-----4-----4-----4----|--2-----2-----4-----4----|
|--4-----4-----4-----4----|--2-----2-----2-----2----|
|--2-----2-----2-----2----|--0-----0----------------|


  F#                        E           B5
   E. S  E. S  E. S  E. S    E. S  E. S  E. S  E. S
|-------------------------|-------------------------|
|-------------------------|-------------------------|
|-15----15----15----15----|-13----13----11----11----|
|-------------------------|-------------------------|
|-13----13----13----13----|-11----11-----9-----9----|
|-------------------------|-------------------------|
|
|  E. S  E. S  E. S  E. S    E. S  E. S  E. S  E. S
|-------------------------|-------------------------|
|-------------------------|-------------------------|
|-------------------------|--------------4-----4----|
|--4-----4-----4-----4----|--2-----2-----4-----4----|
|--4-----4-----4-----4----|--2-----2-----2-----2----|
|--2-----2-----2-----2----|--0-----0----------------|


  F#                        E           B5
   E. S  E. S  E. S  E. S    E. S  E. S  E. S  E. S
|-------------------------|-------------------------|
|-------------------------|-------------------------|
|-15----15----15----15----|-13----13----11----11----|
|-------------------------|-------------------------|
|-13----13----13----13----|-11----11-----9-----9----|
|-------------------------|-------------------------|
|
|  E. S  E. S  E. S  E. S    E. S  E. S  E. S  E. S
|-------------------------|-------------------------|
|-------------------------|-------------------------|
|-------------------------|--------------4-----4----|
|--4-----4-----4-----4----|--2-----2-----4-----4----|
|--4-----4-----4-----4----|--2-----2-----2-----2----|
|--2-----2-----2-----2----|--0-----0----------------|


                                     To Coda
                                     To Coda
  F#                        C#5   B5
   E. S  E. S  E. S  E. S    Q  E  E  Q   Q
|-------------------------|------------------||
|-------------------------|------------------||
|-15----15----15----15----|-13----11-11--11--||
|-------------------------|------------------||
|-13----13----13----13----|-11-----9--9---9--||
|-------------------------|------------------||
|
|  E. S  E. S  E. S  E. S    Q  E  E  Q   Q
|-------------------------|------------------||
|-------------------------|------------------||
|-------------------------|--6-----4--4---4--||
|--4-----4-----4-----4----|--6-----4--4---4--||
|--4-----4-----4-----4----|--4-----2--2---2--||
|--2-----2-----2-----2----|------------------||


  F#5                     C#/F                    D#5               N.C.
                                                                   2/4
  Gtrs II, III
   E E  E E  E  E  E  E    E E  E E  E  E  E  E   E E E E E E E E   E E E E
|-----------------------|-----------------------|-----------------|----------|
|-----------------------|-----------------------|-----------------|----------|
|-11---11---11-11-11-11-|-----------------------|-8---8---8-8-8-8-|----------|
|-11---11---11-11-11-11-|-11---11---11-11-11-11-|-8---8---8-8-8-8-|----------|
|--9----9----9--9--9--9-|--8----8----8--8--8--8-|-6---6---6-6-6-6-|-------8--|
|-----------------------|-----------------------|-----------------|-6-7-9----|


  F#5                     C#/F                    D#5
 4/4
   E E  E E  E  E  E  E    E E  E E  E  E  E  E   E E E E E E E E
|-----------------------|-----------------------|-----------------|
|-----------------------|-----------------------|-----------------|
|-11---11---11-11-11-11-|-----------------------|-8---8---8-8-8-8-|
|-11---11---11-11-11-11-|-11---11---11-11-11-11-|-8---8---8-8-8-8-|
|--9----9----9--9--9--9-|--8----8----8--8--8--8-|-6---6---6-6-6-6-|
|-----------------------|-----------------------|-----------------|


  N.C.
 2/4       4/4
  E E E E   W          +W
|---------|----------|--------||
|---------|----------|--------||
|---------|----------|--------||
|---------|----------|--------||
|---------|----------|--------||
|-6-7-6-7-|-9--------|-(9)----||


 Second Verse
  N.C.(F#5)         N.C.(C#add11)     N.C.(Badd9)
  Gtr I
  E E E E E E E E   E E E E E E E E   E E E E E E E E   E E E E E E E E
|-------2---------|-------2---------|-------2---------|-------2---------|
|---2-------2---2-|---2-------2---2-|---2-------2---2-|---2-------2---2-|
|-----------------|-----------------|-----------------|-----------------|
|-4---4---4---4---|-3---3---3---3---|-----------------|-----------------|
|-----------------|-----------------|-2---2---2---2---|-2---2---2---4---|
|-----------------|-----------------|-----------------|-----------------|


  N.C.(F#5)         N.C.(C#add11)     N.C.(Badd9)
  E E E E E E E E   E E E E E E E E   E E E E E E E E   E E E E E E E E
|-------2---------|-------2---------|-------2---------|-------2---------|
|---2-------2---2-|---2-------2---2-|---2-------2---2-|---2-------2---2-|
|-----------------|-----------------|-----------------|-----------------|
|-4---4---4---4---|-3---3---3---3---|-----------------|-----------------|
|-----------------|-----------------|-2---2---2---2---|-2---2---2---4---|
|-----------------|-----------------|-----------------|-----------------|


  N.C.F#N.C.  F#N.C.                  N.C.B5N.C.  B5N.C.    C#N.C.  C#N.C.
  Gtr III
  PM|   PM--|   PM----|   PM--|   PM----|   PM--|   PM----|   PM--|   PM
  E E E E E E E E   E E E E E E E E   E E E E E E E E   E E E E E E E E
|-----------------|-----------------|-----------------|-----------------|
|-----------------|-----6-------7---|-----------------|-----------------|
|-----------------|-6-6---6-6-6---6-|-----4-------4---|-----6-------6---|
|-----4-------4---|-----------------|-----4-------4---|-----6-------6---|
|-----4-------4---|-----------------|-2-2-2-2-2-2-2-2-|-4-4-4-4-4-4-4-4-|
|-2-2-2-2-2-2-2-2-|-----------------|-----------------|-----------------|


  N.C.F#N.C.  F#N.C.                  N.C.B5N.C.  B5N.C.
  PM|   PM--|   PM----|   PM--|   PM----|   PM--|   PM
  E E E E E E E E   E E E E E E E E   E E E E E E E E
|-----------------|-----------------|-----------------|
|-----------------|-----6-------7---|-----------------|
|-----------------|-6-6---6-6-6---6-|-----4-------4---|
|-----4-------4---|-----------------|-----4-------4---|
|-----4-------4---|-----------------|-2-2-2-2-2-2-2-2-|
|-2-2-2-2-2-2-2-2-|-----------------|-----------------|


                                     D.S. al Coda
  N.C.C#N.C.  C#N.C.B5         C#5
                    Gtrs II, III
  PM|   PM--|   PM
  E E E E E E E E   W          E. S E. S E. S E. S
|-----------------|----------|---------------------||
|-----------------|----------|---------------------||
|-----6-------6---|-4--------|-6----6----6----6----||
|-----6-------6---|-4--------|-6----6----6----6----||
|-4-4-4-4-4-4-4-4-|-2--------|-4----4----4----4----||
|-----------------|----------|---------------------||


 Interlude
  &
  F#5     N.C.
  Gtr III
   E  E E  E  E E  E  E   E  E  E E  E   E  E   E
|-----------------------|-------------------------|
|-----------------------|-------------------------|
|-11-11---11-11---11-11-|---11-11---11--11-11--11-|
|-----------------------|-------------------------|
|--9--9----9--9----9--9-|----9--9----9---9--9---9-|
|-----------------------|-------------------------|
|
| Gtr II
|  E  E Q     H           H          Q      Q
|-----------------------|-------------------------|
|-----------------------|-------------------------|
|-----------------------|-------------------------|
|--4--4-----------------|-------------------------|
|--4--4-----------------|-------------------------|
|--2--2-----------------|-----------/7\-----7\----|


  F#5       E5        B5          E5        N.C.
   E  E  E   E  E  E   E  E    E   E  E  E   E  E  E  E
|---------------------------|---------------------------|
|---------------------------|---------------------------|
|-11-11-----11-11-----11-11-|-----11-11-----11-11-11-11-|
|---------------------------|---------------------------|
|--9--9------9--9------9--9-|------9--9------9--9--9--9-|
|---------------------------|---------------------------|
|
|  E  E +E   E  E +E   E  E   +E   E  E +E   E  E  E  E
|---------------------------|---------------------------|
|---------------------------|---------------------------|
|----------------------4--4-|-(4)-----------------------|
|--4--4-(4)--2--2-(2)--4--4-|-(4)--2--2-(2)-------------|
|--4--4-(4)--2--2-(2)--2--2-|-(2)--2--2-(2)-------------|
|--2--2-(2)--0--0-(0)-------|------0--0-(0)--6--7--6--4-|


  F#5       E5        B5
   E  E  E   E  E  E   E  E
|---------------------------|
|---------------------------|
|-11-11-----11-11-----11-11-|
|---------------------------|
|--9--9------9--9------9--9-|
|---------------------------|
|
|  E  E +E   E  E +E   E  E
|---------------------------|
|---------------------------|
|----------------------4--4-|
|--4--4-(4)--2--2-(2)--4--4-|
|--4--4-(4)--2--2-(2)--2--2-|
|--2--2-(2)--0--0-(0)-------|


      E5        N.C.          F#5       E5        B5
   E   E  E  E   E  E  E  E    E  E  E   E  E  E   E  E
|---------------------------|---------------------------|
|---------------------------|---------------------------|
|-----11-11-----11-11-11-11-|-11-11-----11-11-----11-11-|
|---------------------------|---------------------------|
|------9--9------9--9--9--9-|--9--9------9--9------9--9-|
|---------------------------|---------------------------|
|
| +E   E  E +E   E  E  E  E    E  E +E   E  E +E   E  E
|---------------------------|---------------------------|
|---------------------------|---------------------------|
|-(4)-----------------------|----------------------4--4-|
|-(4)--2--2-(2)-------------|--4--4-(4)--2--2-(2)--4--4-|
|-(2)--2--2-(2)-------------|--4--4-(4)--2--2-(2)--2--2-|
|------0--0-(0)--6--7--6--4-|--2--2-(2)--0--0-(0)-------|


      E5        N.C.          F#        E5        B5
   E   E  E  E   E  E  E  E    E  E  E   E  E  E   E  E
|---------------------------|---------------------------|
|---------------------------|---------------------------|
|-----11-11-----11-11-11-11-|-11-11-----11-11-----11-11-|
|---------------------------|---------------------------|
|------9--9------9--9--9--9-|--9--9------9--9------9--9-|
|---------------------------|---------------------------|
|
| +E   E  E +E   E  E  E  E    E  E +E   E  E +E   E  E
|---------------------------|---------------------------|
|---------------------------|---------------------------|
|-(4)-----------------------|----------------------4--4-|
|-(4)--2--2-(2)-------------|--4--4-(4)--2--2-(2)--4--4-|
|-(2)--2--2-(2)-------------|--4--4-(4)--2--2-(2)--2--2-|
|------0--0-(0)--6--7--6--4-|--2--2-(2)--0--0-(0)-------|


      E5        N.C.
   E   E  E  E   E  E  E  E
|---------------------------||
|---------------------------||
|-----11-11-----11-11-11-11-||
|---------------------------||
|------9--9------9--9--9--9-||
|---------------------------||
|
| +E   E  E +E   E  E  E  E
|---------------------------||
|---------------------------||
|-(4)-----------------------||
|-(4)--2--2-(2)-------------||
|-(2)--2--2-(2)-------------||
|------0--0-(0)--6--7--6--4-||


 Third Verse
  F#5     N.C.(F#5) N.C.(C#add11)     N.C.(Badd9)
  Gtr I
  E E E E E E E E   E E E E E E E E   E E E E E E E E   E E E E E E E E
|-------2---------|-------2---------|-------2---------|-------2---------|
|---2-------2---2-|---2-------2---2-|---2-------2---2-|---2-------2---2-|
|-----------------|-----------------|-----------------|-----------------|
|-4---4---4---4---|-3---3---3---3---|-----------------|-----------------|
|-----------------|-----------------|-2---2---2---2---|-2---2---2---4---|
|-----------------|-----------------|-----------------|-----------------|
|
| Gtr II
| H       H         W                 W                 W
|-----------------|-----------------|-----------------|-----------------|
|-----------------|-----------------|-----------------|-----------------|
|-----------------|-----------------|-----------------|-----------------|
|-4---------------|-----------------|-----------------|-----------------|
|-4---------------|-----------------|-----------------|-----------------|
|-2---------------|-----------------|-----------------|-----------------|


  N.C.(F#5)         N.C.(C#add11)     N.C.(Badd9)
  Gtr I
  E E E E E E E E   E E E E E E E E   E E E E E E E E   E E E E E E E E
|-------2---------|-------2---------|-------2---------|-------2---------|
|---2-------2---2-|---2-------2---2-|---2-------2---2-|---2-------2---2-|
|-----------------|-----------------|-----------------|-----------------|
|-4---4---4---4---|-3---3---3---3---|-----------------|-----------------|
|-----------------|-----------------|-2---2---2---2---|-2---2---2---4---|
|-----------------|-----------------|-----------------|-----------------|


  N.C.(F#5)         N.C.(C#add11)     N.C.(Badd9)
  Gtr I
  E E E E E E E E   E E E E E E E E   E E E E E E E E   E E E E E E E E
|-------2---------|-------2---------|-------2---------|-------2---------|
|---2-------2---2-|---2-------2---2-|---2-------2---2-|---2-------2---2-|
|-----------------|-----------------|-----------------|-----------------|
|-4---4---4---4---|-3---3---3---3---|-----------------|-----------------|
|-----------------|-----------------|-2---2---2---2---|-2---2---2---4---|
|-----------------|-----------------|-----------------|-----------------|
|
| Gtr IV
| E E E E E E E E   E E E E E E E E   E E E E E E E E   E E E E E E E E
|-----------------|-----------------|-----------------|-----------------|
|-----------------|-----------------|-----------------|-----------------|
|-----------------|-----------------|-----------------|-----------------|
|-----------------|-----------------|-----------------|-----------------|
|-9-9-9-9-9-9-9-9-|-8-8-8-8-8-8-8-8-|-6-6-6-6-6-6-6-6-|-6-6-6-6-6-6-6-6-|
|-----------------|-----------------|-----------------|-----------------|


  N.C.(F#5)         N.C.(C#add11)     N.C.(Badd9)
  E E E E E E E E   E E E E E E E E   E E E E E E E E
|-------2---------|-------2---------|-------2---------|
|---2-------2---2-|---2-------2---2-|---2-------2---2-|
|-----------------|-----------------|-----------------|
|-4---4---4---4---|-3---3---3---3---|-----------------|
|-----------------|-----------------|-2---2---2---2---|
|-----------------|-----------------|-----------------|
|
|                                     Gtr II
|                                     PM------------|
| E E E E E E E E   E E E E E E E E   E E E E E E E E
|-----------------|-----------------|-----------------|
|-----------------|-----------------|-----------------|
|-----------------|-----------------|-----------------|
|-----------------|-----------------|-----------------|
|-9-9-9-9-9-9-9-9-|-8-8-8-8-8-8-8-8-|-2-2-2-2-2-2-2-2-|
|-----------------|-----------------|-----------------|


                                  D.S.S. al Dbl. Coda
  N.C.(C#sus4)      B          C#
                    Gtr III
  E E E E E E E E   W           E. S  E. S  E. S  E. S
|-------2---------|----------|-------------------------||
|---2-------2---2-|----------|-------------------------||
|-----------------|-8--------|-10----10----10----10----||
|-----------------|----------|-------------------------||
|-4---4---4---4---|-6--------|--8-----8-----8-----8----||
|-----------------|----------|-------------------------||
|
|                   Gtr II
| PM------------|
| E E E E E E E E   W           E. S  E. S  E. S  E. S
|-----------------|----------|-------------------------||
|-----------------|----------|-------------------------||
|-----------------|-4--------|--6-----6-----6-----6----||
|-----------------|-4--------|--6-----6-----6-----6----||
|-4-4-4-4-4-4-4-4-|-2--------|--4-----4-----4-----4----||
|-----------------|----------|-------------------------||


 Outro
  &&
  F#5        E5      B5           E5      N.C.
   E  E  +E  E E +E   E  E    +E  E E +E   E  E  E  E
|--------------------------|--------------------------|
|--------------------------|--------------------------|
|-11-11-(11)S9-9-(9)S16-16-|-(16)S9-9-(9)-15-16-15-13-|
|--------------------------|--------------------------|
|--9--9--(9)S7-7-(7)S14-14-|-(14)S7-7-(7)-13-14-13-11-|
|--------------------------|--------------------------|
|
|  E  E  +E  E E +E   E  E    +E  E E +E   E  E  E  E
|--------------------------|--------------------------|
|--------------------------|--------------------------|
|---------------------4--4-|--(4)---------------------|
|--4--4--(4)-2-2-(2)--4--4-|--(4)-2-2-(2)-------------|
|--4--4--(4)-2-2-(2)--2--2-|--(2)-2-2-(2)-------------|
|--2--2--(2)-0-0-(0)-------|------0-0-(0)--6--7--6--4-|


  F#5        E5      B5           E5      N.C.
   E  E  +E  E E +E   E  E    +E  E E +E   E  E  E  E
|--------------------------|--------------------------|
|--------------------------|--------------------------|
|-11-11-(11)S9-9-(9)S16-16-|-(16)S9-9-(9)-15-16-15-13-|
|--------------------------|--------------------------|
|--9--9--(9)S7-7-(7)S14-14-|-(14)S7-7-(7)-13-14-13-11-|
|--------------------------|--------------------------|
|
|  E  E  +E  E E +E   E  E    +E  E E +E   E  E  E  E
|--------------------------|--------------------------|
|--------------------------|--------------------------|
|---------------------4--4-|--(4)---------------------|
|--4--4--(4)-2-2-(2)--4--4-|--(4)-2-2-(2)-------------|
|--4--4--(4)-2-2-(2)--2--2-|--(2)-2-2-(2)-------------|
|--2--2--(2)-0-0-(0)-------|------0-0-(0)--6--7--6--4-|


  F#5        E5        B5           E5        N.C.
  Gtr V
   E  E   E   E  E  E   E  E     E   E  E  E   E  E  E  E
|----------------------------|----------------------------|
|----------------------------|----------------------------|
|-11-11------11-11-----11-11-|------11-11-----11-11-11-11-|
|----------------------------|----------------------------|
|--9--9-------9--9------9--9-|-------9--9------9--9--9--9-|
|----------------------------|----------------------------|
|
| Gtr III
|  E  E  +E   E  E +E   E  E    +E   E  E +E   E  E  E  E
|----------------------------|----------------------------|
|----------------------------|----------------------------|
|-11-11-(11)S=9--9-(9)S16-16-|-(16)S=9--9-(9)-15-16-15-13-|
|----------------------------|----------------------------|
|--9--9--(9)S=7--7-(7)S14-14-|-(14)S=7--7-(7)-13-14-13-11-|
|----------------------------|----------------------------|
|
| Gtr II
|  E  E  +E   E  E +E   E  E    +E   E  E +E   E  E  E  E
|----------------------------|----------------------------|
|----------------------------|----------------------------|
|-----------------------4--4-|--(4)-----------------------|
|--4--4--(4)--2--2-(2)--4--4-|--(4)--2--2-(2)-------------|
|--4--4--(4)--2--2-(2)--2--2-|--(2)--2--2-(2)-------------|
|--2--2--(2)--0--0-(0)-------|-------0--0-(0)--6--7--6--4-|


  F#5        E5        B5           E5        N.C.
   E  E   E   E  E  E   E  E     E   E  E  E   E  E  E  E
|----------------------------|----------------------------|
|----------------------------|----------------------------|
|-11-11------11-11-----11-11-|------11-11-----11-11-11-11-|
|----------------------------|----------------------------|
|--9--9-------9--9------9--9-|-------9--9------9--9--9--9-|
|----------------------------|----------------------------|
|
|  E  E  +E   E  E +E   E  E    +E   E  E +E   E  E  E  E
|----------------------------|----------------------------|
|----------------------------|----------------------------|
|-11-11-(11)S=9--9-(9)S16-16-|-(16)S=9--9-(9)-15-16-15-13-|
|----------------------------|----------------------------|
|--9--9--(9)S=7--7-(7)S14-14-|-(14)S=7--7-(7)-13-14-13-11-|
|----------------------------|----------------------------|
|
|  E  E  +E   E  E +E   E  E    +E   E  E +E   E  E  E  E
|----------------------------|----------------------------|
|----------------------------|----------------------------|
|-----------------------4--4-|--(4)-----------------------|
|--4--4--(4)--2--2-(2)--4--4-|--(4)--2--2-(2)-------------|
|--4--4--(4)--2--2-(2)--2--2-|--(2)--2--2-(2)-------------|
|--2--2--(2)--0--0-(0)-------|-------0--0-(0)--6--7--6--4-|


  F#5
  Gtrs III, V
   W           +W            +W            +W
|-----------|-------------|-------------|---------*|
|-----------|-------------|-------------|---------*|
|-11--------|-(11)--------|-(11)--------|-(11)----*|
|-----------|-------------|-------------|---------*|
|--9--------|--(9)--------|--(9)--------|--(9)----*|
|-----------|-------------|-------------|---------*|
|
| Gtr II
|  W           +W            +W            +W
|-----------|-------------|-------------|---------*|
|-----------|-------------|-------------|---------*|
|-----------|-------------|-------------|---------*|
|--4--------|--(4)--------|--(4)--------|--(4)----*|
|--4--------|--(4)--------|--(4)--------|--(4)----*|
|--2--------|--(2)--------|--(2)--------|--(2)----*|

-------------------------------------------------------------------------------
                                  PAIN FOR PLEASURE
                                As recorded by Sum 41
                          (From the Album All Killer No Filler)

Words and Music by Sum 41
Arranged by Sum 41
          Eb5                  C#5                  B5                   Bb5
      x 6 8 8 x x          x 4 6 6 x x          x 2 4 4 x x          x 1 3 3 x x

      Eb5(type 2)          C#5(type 2)              F#5
      x 6 8 x x x          x 4 6 x x x         x 9 11 11 x x

Gtr I (E A D G B E) - '-'
Gtr II (E A D G B E) - '-'

   Intro
    Moderately Fast Rock Q=160
    N.C.
   4/4
    Gtrs I, II
    PM--------------------------------------------------|
    E S S E S S E S S S S S S   E S S E S S E S S S S S S  8x
||----------------------------|----------------------------||
||o---------------------------|---------------------------o||
||----------------------------|----------------------------||
||----------------------------|----------------------------||
||o-6-6-6-6-6-6-6-6-6-6-6-6-6-|-6-6-6-6-6-6-6-6-6-6-6-6-6-o||
||----------------------------|----------------------------||


  Gtr I
  PM-----------------------------------------------------------
  E  S S E S S E S S S S  S  S   E  S S E S S E S S S S  S  S
|------------------------------|------------------------------|
|------------------------------|------------------------------|
|------------------------------|------------------------------|
|------------------------------|------------------------------|
|-6--6-6-6-6-6-6-6-6-6-6--6--6-|-6--6-6-6-6-6-6-6-6-6-6--6--6-|
|------------------------------|------------------------------|
|
| Gtr II
| H.                 E   +E      H.                 E   +E
|------------------------------|------------------------------|
|------------------------------|------------------------------|
|------------------------------|------------------------------|
|------------------------------|------------------------------|
|-6------------------6---(6)s==|=8------------------8---(8)s==|
|------------------------------|------------------------------|


 -----------------------------------------------------------|
  E  S S E S S E S S S S  S  S    E S S E S S  E S S  S S S S
|------------------------------|---------------------------------||
|------------------------------|---------------------------------||
|------------------------------|---------------------------------||
|------------------------------|---------------------------------||
|-6--6-6-6-6-6-6-6-6-6-6--6--6-|--6-6-6-6-6-6--6-6-6--6-6-6-6----||
|------------------------------|---------------------------------||
|
| H.                 E   +E       H            Q      Q
|------------------------------|---------------------------------||
|------------------------------|---------------------------------||
|------------------------------|---------------------------------||
|------------------------------|---------------------------------||
|-9------------------9---(9)s==|=11-----------11-----11----------||
|------------------------------|---------------------------------||


  Eb5   N.C.        C#5   N.C.        B5    N.C.        Bb5   N.C.
  Gtr II
  E E Q    H        E E Q    H        E E Q    H        E E Q    H
  | |               | |               | |               | |
  / /               / /               / /               / /

  Gtr I
  E E E  Q   E Q    E E E  Q   E Q    E E E  Q   E Q    E E E  Q   E Q
|-----------------|-----------------|-----------------|-----------------|
|-----------------|-----------------|-----------------|-----------------|
|-8-8-------------|-6-6-------------|-4-4-------------|-3-3-------------|
|-8-8-------------|-6-6-------------|-4-4-------------|-3-3-------------|
|-6-6---/9---8-6--|-4-4---/9---8-6--|-2-2---/9---8-6--|-1-1---/9---8-6--|
|-----------------|-----------------|-----------------|-----------------|


  Eb5   N.C.       C#5   N.C.       B5    N.C.
  Gtr I
  E E E  Q  E Q    E E E  Q  E Q    E E E  Q  E E E   +Q   Q  Q  E E
|----------------|----------------|-----------------|----------------||
|----------------|----------------|-----------------|----------------||
|-8-8------------|-6-6------------|-4-4-------------|----------------||
|-8-8------------|-6-6------------|-4-4-----------6-|-(6)------------||
|-6-6---/9--8-6--|-4-4---/9--8-6--|-2-2---/9--8-6---|------9--8----6-||
|----------------|----------------|-----------------|------------9---||
|
| Gtr II
| E E E  Q  E Q    E E E  Q  E Q    E E E  Q  E E E   +Q   Q  Q  E E
|----------------|----------------|-----------------|----------------||
|----------------|----------------|-----------------|----------------||
|-8-8------------|-6-6------------|-4-4-------------|----------------||
|-8-8---/8--6----|-6-6---/8--6----|-4-4---/8--6---9-|-(9)--8--6------||
|-6-6---------9--|-4-4---------9--|-2-2---------9---|------------8-9-||
|----------------|----------------|-----------------|----------------||


 Guitar Break
  Eb5                      C#5
  +Q    E  E  E  E  E  E    +Q    E  E  E  E  E E
|------------------------|------------------------|
|------------------------|------------------------|
|------11-10--8-10--8----|-------11-10--8-10--8---|
|---------------------11-|-(11)-----------------9-|
|-(6)--------------------|------------------------|
|------------------------|------------------------|
|
| +Q    E  E  E  E  E  E    +Q    E  E  E  E  E E
|------------------------|------------------------|
|------11--9-----9-------|-------11--9-----9------|
|------------11----11-10-|-(10)--------11----11-8-|
|------------------------|------------------------|
|-(9)--------------------|------------------------|
|------------------------|------------------------|


  B5                      Bb5              C#5
  +Q    E  E  E  E  E E   +Q    E  E  E  E  E  E
|-----------------------|------------------------|
|-----------------------|------------------------|
|------11-10--8-10--8---|------11-10--8-10-----8-|
|-(9)-----------------8-|-(8)--------------12----|
|-----------------------|------------------------|
|-----------------------|------------------------|
|
| +Q    E  E  E  E  E E   +Q    E  E  E  E  E  E
|-----------------------|------------------------|
|------11--9-----9------|------11--9-----9-------|
|-(8)--------11----11-7-|-(7)--------11----10-11-|
|-----------------------|------------------------|
|-----------------------|------------------------|
|-----------------------|------------------------|


  Bb5 Eb5                   C#5
   +Q    E  E  E  E  E  E    +Q    E  E  E  E  E E
|-------------------------|------------------------|
|-------------------------|------------------------|
|--(8)--11-10--8-10--8----|-------11-10--8-10--8---|
|----------------------11-|-(11)-----------------9-|
|-------------------------|------------------------|
|-------------------------|------------------------|
|
|  +Q    E  E  E  E  E  E    +Q    E  E  E  E  E E
|-------------------------|------------------------|
|-------11--9-----9-------|-------11--9-----9------|
|-(11)--------11----11-10-|-(10)--------11----11-8-|
|-------------------------|------------------------|
|-------------------------|------------------------|
|-------------------------|------------------------|


  B5                      Bb5              C#5
  +Q    E  E  E  E  E E   +Q    E  E  E  E  E  E
|-----------------------|-------------------------||
|-----------------------|-------------------------||
|------11-10--8-10--8---|------11-10--8-10-----8\-||
|-(9)-----------------8-|-(8)--------------12-----||
|-----------------------|-------------------------||
|-----------------------|-------------------------||
|
| +Q    E  E  E  E  E E   +Q    E  E  E  E  E  E
|-----------------------|-------------------------||
|------11--9-----9------|------11--9-----9--------||
|-(8)--------11----11-7-|-(7)--------11----10-11\-||
|-----------------------|-------------------------||
|-----------------------|-------------------------||
|-----------------------|-------------------------||


   Verse
    Eb5                       C#5
    Gtrs I, II
      PM------------------|     PM------------------|
    E S S E S S E S S E S S   E S S E S S E S S E S S
||--------------------------|--------------------------|
||o-------------------------|--------------------------|
||--------------------------|--------------------------|
||--8-----------------------|-6------------------------|
||o-6-6-6-6-6-6-6-6-6-6-6-6-|-4-4-4-4-4-4-4-4-4-4-4-4--|
||--------------------------|--------------------------|


  B5                        Bb5               C#5
    PM------------------|     PM------|   PM|   PM|
  E S S E S S E S S E S S   E S S E S S E S S E S S
|-------------------------|--------------------------||
|-------------------------|-------------------------o||
|-------------------------|--------------------------||
|-4-----------------------|-3-----------3-----6------||
|-2-2-2-2-2-2-2-2-2-2-2-2-|-1-1-1-1-1-1-1-1-1-4-4-4-o||
|-------------------------|--------------------------||


   Bridge
    Eb5                         C#5
    Gtr I
        PM------------------|        PM-------------------|
    E   S S E S S E S S E S S    E   S S E S S E S S E  S S
||----------------------------|------------------------------|
||o---------------------------|------------------------------|
||----------------------------|------------------------------|
||--8-------------------------|--6---------------------------|
||o-6---6-6-6-6-6-6-6-6-6-6-6-|--4---4-4-4-4-4-4-4-4-4--4-4--|
||----------------------------|------------------------------|
|
|   Gtr II
|   H..                   E      H..                    E
||----------------------------|------------------------------|
||o---------------------------|------------------------------|
||--8---------------------8s==|=10---------------------10----|
||----------------------------|------------------------------|
||o-6---------------------6s==|==8----------------------8----|
||----------------------------|------------------------------|


  B5                            Bb5                C#5
       PM-------------------|      PM------|   PM|   PM|
   E   S S E S S E S S E  S S    E S S E S S E S S E S S
|-----------------------------|---------------------------||
|-----------------------------|--------------------------o||
|-----------------------------|---------------------------||
|--4--------------------------|--3-----------3-----6------||
|--2---2-2-2-2-2-2-2-2-2--2-2-|--1-1-1-1-1-1-1-1-1-4-4-4-o||
|-----------------------------|---------------------------||
|
|  H..                    E      W
|-----------------------------|---------------------------||
|-----------------------------|--------------------------o||
|-11---------------------11s==|=15------------------------||
|-----------------------------|---------------------------||
|--9----------------------9s==|=13-----------------------o||
|-----------------------------|---------------------------||


   Chorus
    Eb5       F#5       Eb5                    B5     C#5
    Gtr I
    H.      E  E    +E  H..         W          Q  E E Q  E E
    |       |  |     |  |           |          |  | | |  | |
    /       /  /     /  /           /          /  / / /  / /

    Gtr II
    H.      E  E    +E  H..         W          Q  E E Q  E E
||---------------|----------------|----------|-----------------||
||o-7-------7-11-|-(11)-7---------|-7--------|-4--4-4-6--4-6--o||
||--8-------8-11-|-(11)-8---------|-8--------|-4--4-4-6--4-6---||
||---------------|----------------|----------|-----------------||
||o--------------|----------------|----------|----------------o||
||---------------|----------------|----------|-----------------||


 Ending
  B5     C#5      B5     C#5      Eb5           C#Eb5
  Q  E E Q  E E   Q  E E Q  E E   W          Q  E Q.   Q
  |  | | |  | |   |  | | |  | |   |          |  | |
  /  / / /  / /   /  / / /  / /   /          /  / /

  Q  E E Q  E E   Q  E E Q  E E   W          Q  E Q.   Q
|---------------|---------------|----------|--------------*|
|-4--4-4-6--4-6-|-4--4-4-6--4-6-|-7--------|-7--6-7\------*|
|-4--4-4-6--4-6-|-4--4-4-6--4-6-|-8--------|-8--6-8\------*|
|---------------|---------------|----------|--------------*|
|---------------|---------------|----------|--------------*|
|---------------|---------------|----------|--------------*|


Duration Legend
---------------
W - whole; H - half; Q - quarter; E - 8th; S - 16th; T - 32nd; X - 64th; a - acciaccatura
+ - note tied to previous; . - note dotted; .. - note double dotted
Uncapitalized letters represent notes that are staccato (1/2 duration)
Irregular groupings are notated above the duration line
Duration letters will always appear directly above the note/fret number it represents the
duration for.  Duration letters with no fret number below them represent rests.  Multi-
bar rests are notated in the form Wxn, where n is the number of bars to rest for.  Low
melody durations appear below the staff

Tablature Legend
----------------
 h   - hammer-on
 p   - pull-off
 b   - bend
 pb  - pre-bend
 r   - bend release (if no number after the r, then release immediately)
 /\  - slide into or out of (from/to "nowhere")
 s   - legato slide
 S   - shift slide
<n>  - natural harmonic
[n]  - artificial harmonic
n(n) - tapped harmonic
 ~   - vibrato
 tr  - trill
 T   - tap
 TP  - trem. picking
 PM  - palm muting
\n/  - tremolo bar dip; n = amount to dip
 \n  - tremolo bar down
 n/  - tremolo bar up
/n\  - tremolo bar inverted dip
 =   - hold bend; also acts as connecting device for hammers/pulls
 <>  - volume swell (louder/softer)
 x   - on rhythm slash represents muted slash
 o   - on rhythm slash represents single note slash

Misc Legend
-----------
 |  - bar
||  - double bar
||o - repeat start
o|| - repeat end
*|  - double bar (ending)
 :  - bar (freetime)
 $  - Segno
 &  - Coda
Tempo markers - <E/E./Q/Q./H/H.> = BPM(8/16=s8/s16), where s8 = swing 8ths, s16 = swing 16ths
comments
print report bad tab
4 comments total. Showing first comments.
0 reply
blindfold7 wrote on August 5 2003, 12:00 am

dude! you are the coolest!!! :cheers:
i cant believe you took all the time to tab from the
whole book!
alright! now i know where all the 100% correct songs for
this album is now! :cheers:

0 reply
gnrfan4life wrote on September 13 2005, 12:00 am

ever heard of repeat signs USE THEMMMMMM!!!!!!!!!!!!!!!!!!!!!!!!!!!!!!!!!!!!

0 reply
steppo wrote on March 16 2006, 08:24 am

The best tab ever seen.really!You're great!steppo

I want to post or [tab]
guest
You may want to rate the tab now too:
select rating
Please do not post tabs as comments. Select "correction" instead!