Oops, an error
Loading. Please wait.

All Killer No Filler Tab

ver2
ver2

Album

More versions @911Tabs.com
15,489 views 21 this week
7 commentsread comments
1 2 3 4 5
accurate
x 25
add to favorites launch autoscroll
font size
0
reset
Autoscroll
+/-
esc
set tempo
stop
Contributor
WARNING: You are trying to view
                                    content from Ultimate-Guitar.com
                                    in an unauthorized application,
                                    which is prohibited.

                                    Please use an official Ultimate
                                    Guitar Tabs application for iPhone,
                                    iPad or Android to access legitimate
                                    chords, guitar, bass, and drum tabs
                                    from Ultimate-Guitar.com database.

                                    Type "ultimate guitar tabs" in Apple
                                    App Store's or Android Market's
                                    search to find the application.
                              Nothing On My Back


Intro

Gtr 1 (dist)
e-------------------------------------|-------------------------------------|
B-------------------------------------|-------------------------------------|
G--------6--7--x---------6--7---7-----|--------6--7--x---------6--7---7-----|
D--7--x--6--7--x--5---x--6--7---7--0--|--7--x--6--7--x--5---x--6--7---7--0--|
A--7--x--4--5--x--5---x--4--5---5--0--|--7--x--4--5--x--5---x--4--5---5--0--|
E--5--x--4--5--x--3---x--4--5---5--0--|--5--x--4--5--x--3---x--4--5---5--0--|

Gtr 2,3 (dist)             play 3 times
e|-------------------------------------||----------------------------------------|
B|.-----------------------------------.||----------------------------------------|
G|--------6--7--x---------6--7---7-----||--------6--7--x---------6--7---7--7-----|
D|--7--x--6--7--x--5---x--6--7---7--0--||--7--x--6--7--x--5---x--6--7---7--7--0--|
A|.-7--x--4--5--x--5---x--4--5---5--0-.||--7--x--4--5--x--5---x--4--5---5--5--0--|
E|--5--x--4--5--x--3---x--4--5---5--0--||--5--x--4--5--x--3---x--4--5---5--5--0--|


Gtr 1
e----------------|-----------------|-----------------|-----------------|
B----------------|-----------------|-----------------|-----------------|
G----------------|-----------------|-----------------|-----------------|
D----------------|-----------------|-----------------|-----------------|
A----------------|-----------------|-----------------|-----------------|
E--5-5-5-5-5-5-5-|-5-5-5-5-5-5-5-5-|-5-5-5-5-5-5-5-5-|-5-5-5-5-5-5-5-5-|

Verse

e-----------------|---------------------|--------------|-----------|
B-----------------|---------------------|--------------|-----------|
G-----------------|---------------------|--------------|-----------|
D-----------------|------------4--4--5--|-7--7---------|-----------|
A-----------------|------------4--4--5--|-7--7---------|-----------|
E-5-5-5-5-5-5-5-5-|-5-5-5-5-5--2--2--3--|-5--5---------|-----------|

                                    p.m--|         p.m ------------|
e----------------|---------------|-----------------|------------------|
B----------------|---------------|-----------------|------------------|
G----------------|---------------|--6-6-6--6-6-6-6-|-6-6-6-6-6-6-6-6--|
D--5---4--5---4--|-4---2--2---2--|--7-7-7--7-7-7-7-|-7-7-7-7-7-7-7-7--|
A--5---4--5---4--|-4---2--2---2--|-----------------|------------------|
E--3---2--3---2--|-2---0--0---0--|-----------------|------------------|

p.m ---|           p.m ---------|
e-----------------|---------------|----------------|------------------------|
B-----------------|---------------|----------------|------------------------|
G-6-6-6---6-6-6-6-|-6-6-6-6-6-6-6-|----------------|-7--7--7--7--7--7--7--7-|
D-7-7-7---7-7-7-7-|-7-7-7-7-7-7-7-|-5----4--5---5--|-7--7--7--7--7--7--7--7-|
A-----------------|---------------|-5----4--5---5--|-5--5--5--5--5--5--5--5-|
E-----------------|---------------|-3----2--3---3--|------------------------|

                           Chorus
                           Gtr 2,3&5
e------------------------||----------------------|---------------------|
B------------------------||----------------------|---------------------|
G-9--9--9--9--9--9--9--9-||----------------------|-7---7--x------------|
D-9--9--9--9--9--9--9--9-||-7--7--7--6--5---5-x--|-7---7--x--2---2--x--|
A-7--7--7--7--7--7--7--7-||-7--7--7--6--5---5-x--|-5---5--x--2---2--x--|
E------------------------||-5--5--5--4--3---3-x--|-----------0---0--x--|

e------------------------|--------------------|----------------------|
B------------------------|--------------------|----------------------|
G------------------------|-7---7--x-----------|----------------------|
D--7--7--7--6--5---5--x--|-7---7--x--2---2--x-|--7--7--7--6--5---5-x-|
A--7--7--7--6--5---5--x--|-5---5--x--2---2--x-|--7--7--7--6--5---5-x-|
E--5--5--5--4--3---3--x--|-----------0---0--x-|--5--5--5--4--3---3-x-|

e---------------------|----------------------|-------------|-----------------||
B---------------------|----------------------|-------------|-----------------||
G--7---7--x-----------|----------------------|-7--7--7-----|-----------------||
D--7---7--x--2---2-x--|-7--7--7--6--5---5--x-|-7--7--7--2--|-----------------||
A--5---5--x--2---2-x--|-7--7--7--6--5---5--x-|-5--5--5--2--|-----------------||
E------------0---0-x--|-5--5--5--4--3---3--x-|----------0--|------------x\---||

Interlude
Gtr 2&3                           play 3 times  Bridge
p.m---|    p.m--|       p.m--|     p.m---|       p.m---|  p.m---|   p.m--|                         
e----------------------|-----------------------||----------------------|--------|
B.---------------------|----------------------.||----------------------|--------|
G----------------------|-------------------7---||----------------------|----7---|
D--------7---------5---|--------7----4--4--4---||--------7---------5---|-4--4---|
A.-4--4--4---2--2--2---|--4--4--4----5--5--5--.||--4--4--4---2--2--2---|-5--5---|
E--5--5--5-0-3--3--3-0-|--5--5--5-0----------0-||--5--5--5-0-3--3--3-0-|------0-|


p.m----|  p.m----|      p.m---|     p.m----|
e----------------------|-------------------------|-------------|------------|
B----------------------|-------------------------|-------------|------------|
G----------------------|-------------------------|-------------|------------|
D--------7---------5---|--------7----4--4--4--4--|-4-----------|--2---------|
A--4--4--4---2--2--2---|--4--4--4----5--5--5--5--|-5-----------|--2---------|
E--5--5--5-0-3--3--3-0-|--5--5--5-0--------------|-------------|--0---------|


     interlude (dim)
e--------||----------||-----------|------------|---------------|
B--------||.--------.||-----------|------------|---------------|
G--------||----------||-----------|--9---(9)---|---------------|
D-(2)----||----------||--(2)------|--x---( )---|---------------|
A-(2)----||.--------.||--(2)------|--7---(7)---|---------------|
E-(0)----||----------||--(0)------|------------|---------------|
          

Gtr 5                                 harm-------------------------
e----------------------|-------------|------------------|----------|
B----------------------|-------------|------------------|----------|
G----------------------|-------------|------------------|----------|
D----------------------|-------------|------------------|----------|
A----------------------|-------------|------------------|--7-------|
E----------------------|-------------|---4----5----7----|----------|

Gtr 2&3
e----------------------|-------------|----------------------------|
B----------------------|-------------|----------------------------|
G--7--7--7---------8---|--9----------|----------------------------|
D--7--7--7--7---x--x---|--x----------|----------------------------|
A--5--5--5--7---x--6---|--7----------|----------------------------|
E-----------5---x------|-------------|----------------------------|

Gtr 5
harm ------------------------------------------------------------------|
e-----------------|----------------|---12-------------------|----5------|
B-----------------|----------------|---------12---------5---|-----------|
G-----------------|----------------|------------------------|-----------|
D-----------------|----------------|------------------------|-----------|
A--(7)------------|----------------|------------------------|-----------|
E-----------------|----------------|------------------------|-----------|

Gtr 3
e------------------|-------------|---------------------|-----------|
B------------------|-------------|---------------------|-----------|
G--7--x--------11--|-13----------|--7---x---------11---|--13-------|
D--7--x--7---x--x--|--x----------|--7---x---7---x--x---|---x-------|
A--5--x--7---x--9--|-11----------|--5---x---7---x--9---|--11-------|
E--------5---x-----|-------------|----------5---x------|-----------|

Gtr 2
e------------------|-------------|---------------------|-----------|
B------------------|-------------|---------------------|-----------|
G--7--x---------8--|--9----------|--7---x----------8---|--9--------|
D--7--x--7---x--8--|--9----------|--7---x---7---x--8---|--9--------|
A--5--x--7---x--6--|--7----------|--5---x---7---x--6---|--7--------|
E--------5---x-----|--0----------|----------5---x------|--0--------|

Gtrs 2&3
e------------------|------------------|----------------------|
B------------------|------------------|----------------------|
G--7--x---------8--|--7--x---------8--|--7--x---------8------|
D--7--x--7---x--8--|--7--x--7---x--8--|--7--x--7---x--8------|
A--5--x--7---x--6--|--5--x--7---x--6--|--5--x--7---x--6------|
E--------5---x--6--|--------5---x--6--|--------5---x--6------|

p.m ---------------------------------------------|   Chorus
e------------------------|------------------------||---------------|
B------------------------|------------------------||---------------|
G------------------------|------------------------||---------------|
D-7--7--7--7--7--7--7--7-|-7--7--7--7--7--7--7--7-||--2------------|
A-7--7--7--7--7--7--7--7-|-7--7--7--7--7--7--7--7-||--2------------|
E-5--5--5--5--5--5--5--5-|-5--5--5--5--5--5--5--5-||--0------------|

Gtr 4 (clean)

p.m -------------------------------------------------------------------------
e-------------------------|--------------------------|-------------------------|
B-------------------------|--------------------------|-------------------------|
G-9--9--9--8--7--7--7--7--|--------------------------|-9--9--9--8--7--7--7--7--|
D-9--9--9--8--7--7--7--7--|--7--7--7--8--9--9--9--9--|-9--9--9--8--7--7--7--7--|
A-7--7--7--6--5--5--5--5--|--7--7--7--8--9--9--9--9--|-7--7--7--6--5--5--5--5--|
E-------------------------|--5--5--5--6--7--7--7--7--|-------------------------|

Gtr 2                      w/clean (let ring)
e-------------------------|-------0----------0-----|-------0---------0---------|
B-------------------------|----5-----0----3-----3--|----2-----2----4----4------|
G-------------------------|-4----------2-----------|-2----------4--------------|
D-------------------------|------------------------|---------------------------|
A-------------------------|------------------------|---------------------------|
E-------------------------|------------------------|---------------------------|

Gtr 4
p.m----------------------| p.m -|  p.m ----|        p.m--|   p.m ----|   p.m--
e-------------------------|------------------------|--------------------------|
B-------------------------|-------9-----------7----|--------------------------|
G-------------------------|-------9-----------7----|--------------------------|
D-7--7--7--8--9--9--9--9--|----9-----------7-------|-------7-----------9------|
A-7--7--7--8--9--9--9--9--|-7--------6--5--------5-|----7--7--------9--9------|
E-5--5--5--6--7--7--7--7--|------------------------|-5--------6--7--------7---|


e--------0-----------0-----|--------0-----------0-----|--------0-----------0-----|
B-----5-----0-----3-----3--|-----2-----2-----4-----4--|-----5-----0-----3-----3--|
G--4-----------2-----------|--2-----------4-----------|--4-----------2-----------|
D--------------------------|--------------------------|--------------------------|
A--------------------------|--------------------------|--------------------------|
E--------------------------|--------------------------|--------------------------|

p.m --|    p.m----|   p.m--------|    p.m----|    p.m--------|   p.m------|
e--------------------------|--------------------------|-------------------------|
B--------------------------|--------------------------|-------------------------|
G-------9-----------7------|--------------------------|--------9-----------7----|
D----9--9--------7--7------|--------7-----------9-----|-----9--9--------7--7----|
A-7--------6--5--------5---|-----7--7--------9--9-----|--7--------6--5--------5-|
E--------------------------|--5--------6--7--------7--|-------------------------|


Gtr 3      p.m-----|   p.m-------|    p.m-----|     w dist
e--------------------------|--------------------------|--------------------------|
B--------------------------|--------------------------|--------------------------|
G--------------------------|--------9-----------7-----|--------------------------|
D--------7-----------9-----|-----9--9--------7--7-----|--7--7--7--8--9--9--9--9--|
A-----7--7--------9--9-----|--7--------6--5--------5--|--7--7--7--8--9--9--9--9--|
E--5--------6--7--------7--|--------------------------|--5--5--5--6--7--7--7--7--|


Chorus
e------------------------|--------------------------|-----------------------|
B------------------------|--------------------------|-----------------------|
G--9--9--9--11--11--11-\-|--6--6--6--7--8--8--8--8--|-9--9--9--11--11--11-\-|
D--x--x--x---x---x---x-\-|--x--x--x--x--x--x--x--x--|-x--x--x---x---x---x-\-|
A--7--7--7---9---9---9-\-|--4--4--4--5--6--6--6--6--|-7--7--7---9---9---9-\-|
E------------------------|--------------------------|-----------------------|

e-------------------------|-------------------------|-------------------------|
B-------------------------|-------------------------|-------------------------|
G-6--6--6--7--8--8--8--8--|--9--9--9--11--11--11-\--|--6--6--6--7--8--8--8--8-|
D-x--x--x--x--x--x--x--x--|--x--x--x---x---x---x-\--|--x--x--x--x--x--x--x--x-|
A-4--4--4--5--6--6--6--6--|--7--7--7---9---9---9-\--|--4--4--4--5--6--6--6--6-|
E-------------------------|-------------------------|-------------------------|

e-------------------------------|----------------------|----------|
B-------------------------------|----------------------|----------|
G--9---9---9---11---11---11--\--|--6---6---7---8-------|----------|
D--x---x---x----x----x----x--\--|--x---x---x---x-------|----------|
A--7---7---7----9----9----9--\--|--4---4---5---6-------|----------|
E-------------------------------|----------------------|----------|



                                        Never Wake Up


Gtr 1&2 (dist)
e----------------------|---------------------|---------------------|--------------------|
B----------------------|---------------------|---------------------|--------------------|
G------------9--9---9--|-6--6---6------------|------------9--9---9-|-6--6---6-----------|
D--6--6---6--9--9---9--|-6--6---6--4--4---4--|--6--6---6--9--9---9-|-6--6---6--4--4---4-|
A--6--6---6--7--7---7--|-4--4---4--4--4---4--|--6--6---6--7--7---7-|-4--4---4--4--4---4-|
E--4--4---4--7--7---7--|-----------2--2---2--|--4--4---4--7--7---7-|-----------2--2---2-|

Gtr 3&4 (dist)
e---------------------------|-----------------------|--------------------------|-----------|
B---------------------------|-----------------------|--------------------------|-----------|
G--13--13---13--13--13---13-|-13--13---13-11-11--11-|-13--13---13--13--13---13-|-13--------|
D---x---x----x---x---x----x-|--x---x----x--x--x---x-|--x---x----x---x---x----x-|--x--------|
A--11--11---11--11--11---11-|-11--11---11--9--9---9-|-11--11---11--11--11---11-|-11--------|
E---------------------------|-----------------------|--------------------------|-----------|

Gtrs 1&2
e-------------------------|------------------------|----------------------|---------------------|
B-------------------------|------------------------|----------------------|---------------------|
G--4--4--4--4--4--4--4--4-|------------------------|----------------7-----|----------------7----|
D--4--4--4--4--4--4--4--4-|-4--4--4--4--4--4--4--4-|-2--2--2--2--2--5-----|-2--2--2--2--2--5----|
A--2--2--2--2--2--2--2--2-|-4--4--4--4--4--4--4--4-|-2--2--2--2--2--5-----|-2--2--2--2--2--5----|
E-------------------------|-2--2--2--2--2--2--2--2-|-0--0--0--0--0-----0--|-0--0--0--0--0-----0-|


Gtr 3
e------------|-------------------------|--------------------------|
B------------|-------------------------|--------------------------|
G------------|-8--8--8--8--8--8--8--8--|-6--6--6--6--6--6--6--6---|
D------------|-x--x--x--x--x--x--x--x--|-x--x--x--x--x--x--x--x---|
A------------|-6--6--6--6--6--6--6--6--|-4--4--4--4--4--4--4--4---|
E-------17\--|-------------------------|--------------------------|


e-----------------------|-----------------------|-----------------|-----------------|
B-----------------------|-----------------------|-----------------|-----------------|
G-9--9--9--9--9--7---x--|-9--9--9--9--9--7---x--|-8-8-8-8-8-8-8-8-|-6-6-6-6-6-6-6-6-|
D-x--x--x--x--x--7---x--|-x--x--x--x--x--7---x--|-x-x-x-x-x-x-x-x-|-x-x-x-x-x-x-x-x-|
A-7--7--7--7--7--5---x--|-7--7--7--7--7--5---x--|-6-6-6-6-6-6-6-6-|-4-4-4-4-4-4-4-4-|
E-----------------------|-----------------------|-----------------|-----------------|

                                                  steady gliss
e-----------------------|-----------------------|-----------|--------------|
B-----------------------|-----------------------|-----------|--------------|
G--9--9--9--9--9--7---x-|--9--9--9--9--9--7---x-|-----------|--------------|
D--x--x--x--x--x--7---x-|--x--x--x--x--x--7---x-|-----/-----|--------------|
A--7--7--7--7--7--5---x-|--7--7--7--7--7--5---x-|-=--/------|-----6--------|
E-----------------------|-----------------------|-4-/-------|-----0--------|



Dropped D Tuning                                 Fat Lip
D-A-D-G-B-E

Intro 
Gtr 1 (slight dist)                                        Gtr 2& 3 (dist)
 p.m ---|    p.m ----|     p.m ----|    p.m ----|          p.m ---|   p.m ----|
e-------------------------|-----------------------------||----------------------------|
B.------------------------|----------------------------.||----------------------------|
G----------1-----------4--|-----------1-----------------||----------1-----------------|
D-------------------------|-----------------------4--2--||----------------------4--2--|
A.0--1--2-----0--1--2-----|--0--1--2-----0--1--2-------.||-0--1--2-----0--1--2--------|
D-------------------------|-----------------------------||----------------------------|

Gtr 4 (dist)
e--------------------------------------------------|------------------------------||
B.-------------------------------------------------|-----------------------------.||
G----------1-----------4------------1-----------4--|----------1-------------------||
D--------------------------------------------------|-----------------------4--2---||
A.0--1--2-----0--1--2------0--1--2-----0--1--2-----|-0--1--2-----0--1--2---------.||
D--------------------------------------------------|------------------------------||

Verse
Gtr 2&3
e--------------------------|----------------------------------|
B.-------------------------|----------------------------------|
G-------------------4--4---|--2--2----------------------------|
D---2--2----2p1h2---4--4---|--2--2----2p1h2-------------------|
A.--2--2------------2--2---|--0--0------------0---------------|
D---2--2-------------------|----------------------6---4-------|


e--------------------------|-----------------------------------|
B--------------------------|-----------------------------------|
G-----------------4--4-----|--2--2-----------------------------|
D--2--2---6p4h6---4--4-----|--2--2---2p1h2---------------------|
A--2--2-----------2--2-----|--0--0-----------0-----------------|
D--2--2--------------------|--------------------6---4----------|


Pre-chorus
Gtr 2&3
P.m --|  p.m ----|   p.m ----|   p.m ----|   p.m -----|    p.m -----|  p.m ----|   p.m ----|   p.m-
e------------------------------------------------|-------------------------------------------------|
B------------------------------------------------|-------------------------------------------------|
G------------------------------------------------|-------6-----------6-----------2-----------2-----|
D-------2----------2-----------2-----------2-----|-------6-----------6-----------2-----------2-----|
A-------2----------2-----------2-----------2-----|-4--4--4--4--4--4--4--0--0--0--0--0--0--0--0-----|
D-2--2--2-2--2--2--2--2--2--2--2--2--2--2--2--2--|----------------------------------------------2--|

p.m ---|  p.m ----|   p.m ----|   p.m ----|  p.m ------|    p.m----|
e------------------------------------------------|-----------------------------------|
B------------------------------------------------|-----------------------------------|
G------------------------------------------------|-------6-----------6---------------|
D-------2-----------2-----------2-----------2----|-------6-----------6---------------|
A-------2-----------2-----------2-----------2----|-4--4--4--4--4--4--4---x-\\\\\\\\--|
D-2--2--2--2--2--2--2--2--2--2--2--2--2--2--2--2-|-----------------------x\\\\\\\\\--|


Gtr 4
p.m -|  p.m -|  p.m -|  p.m -|  p.m ---|  p.m |  
e---------------------------------|------------------------------|
B---------------------------------|------------------------------|
G---------------------------------|------------------------------|
D-----6-------6-------6-------6---|-----2-------2--11--9--7---6--|
A-7-7-7-7-7-7-7-7-7-7-7-7-7-7-7-7-|-4-4-4-4-4-4-4---x--x--x---x--|
D---------------------------------|----------------11--9--7---6--|

Chorus
Gtr 2&3
e------------------------|--------------------------|
B-------------5--5--5--5-|--------------------------|
G-9-x--4--x---6--6--6--6-|--------------------------|
D-9-x--4--x---6--6--6--6-|--6-x-7--x--6-x--7--------|
A-7-x--2--x---4--4--4--4-|--6-x-7--x--6-x--7--------|
D------------------------|--4-x-5--x--4-x--5--------|

Gtr 4
e-----------------------------------|---------------------------------------|
B-----------------------------------|---------------------------------------|
G--13--x--8--8---x--9--9---9--9---9-|-8---x--9--9--x--8--8--x--9--9--x--x---|
D---x--x--x--x---x--x--x---x--x---x-|-x---x--x--x--x--x--x--x--x--x--x--x---|
A--11--x--6--6---x--7--7---7--7---7-|-6---x--7--7--x--6--6--x--7--7--x--x---|
D-----------------------------------|---------------------------------------|

e-----------------------------------|---------------------------------------|
B-----------------------------------|---------------------------------------|
G--13--x--8--8---x--9--9---9--9---9-|-8---x--9--9--x--13-13--x--9--9----9\--|
D---x--x--x--x---x--x--x---x--x---x-|-x---x--x--x--x---x--x--x--x--x----x\--|
A--11--x--6--6---x--7--7---7--7---7-|-6---x--7--7--x--11-11--x--7--7----7\--|
D-----------------------------------|---------------------------------------|

                                 Interlude
e------------------------------||---------------------|---------------------------|
B------------------------------||---------------------|---------------------------|
G-8--x-9-9--x-13--13-x-9-9--9\-||---------------------|-------------------2-------|
D-x--x-9-9--x--x---x-x-9-9--x\-||-2-2--x--2-2--x-x--2-|-2-2--x--2-2--x-x--2-------|
A-6--x-7-7--x-11--11-x-7-7--7\-||-2-2--x--2-2--x-x--2-|-2-2--x--2-2--x-x--0-------|
D------------------------------||-2-2--x--2-2--x-x--2-|-2-2--x--2-2--x-x----------|

                                             let ring
e----------------------|------------------||-------------------------|
B----------------------|------------------||-------------------------|
G----------------------|------------------||-------9-----------9-----|
D-2-2--x--2-2--x-x--2--|-2-2-x-x-x--2-2---||----9-----9-----9-----9--|
A-2-2--x--2-2--x-x--2--|-2-2-x-x-x--2-2---||-7-----------6-----------|
D-2-2--x--2-2--x-x--2--|-2-2-x-x-x--2-2---||-------------------------|


e-----------------------|-----------------------------------------------|
B-------5---------------|-------------------------------5---------------|
G-----------------------|-------9-----------9---------------------------|
D----6-----6------2-----|----9-----9-----9-----9-----6-----6------2-----|
A-4------------0-----0--|-7-----------6-----------4------------0-----0--|
D-----------------------|-----------------------------------------------|

Gtr 6 (clean)
e-0-----0-----2-----2-----|-0-----0-------0------|-0-----0-----2-----2------|
B----0-----0-----0-----0--|----0-----0h2-----2p0-|----0-----0-----0-----0---|
G-------------------------|----------------------|--------------------------|
D-------------------------|----------------------|--------------------------|
A-------------------------|----------------------|--------------------------|
D-------------------------|----------------------|--------------------------|


e--0-----0-------0-------||-----------------------------------|
B-----0-----0h2-----2p0--||-----------------------------------|
G------------------------||-----------------------------------|
D------------------------||-0--2--2---2--0----2--/7-----------|
A------------------------||-0--2--2---2--0----2--/7-----------|
D------------------------||-0--2--2---2--0----2--/7-----------|


e--------------------------------|-------------------------------|
B--------------------------------|-------------------------------|
G--------------------------------|-------------------------------|
D-0--2---2--2--0--2---/7---(7)\--|----------------------x--x--x--|
A-0--2---2--2--0--2---/7---(7)\--|----------------------x--x--x--|
D-0--2---2--2--0--2---/7---(7)\--|----------------------x--x--x--|


e--------------------------------|-------------------------------|
B--------------------------------|-------------------------------|
G--------------------------------|-------------------------------|
D--0--2--2----2--0--2--/7--(7)\--|--0--2--2---2--0--2------------|
A--0--2--2----2--0--2--/7--(7)\--|--0--2--2---2--0--2------------|
D--0--2--2----2--0--2--/7--(7)\--|--0--2--2---2--0--2------------|


e-------------------------------|--------------------------------|
B-------------------------------|--------------------------------|
G-------------------------------|--------------------------------|
D-------------------------------|--------------------------------|
A-------------------------------|--------------------------------|
D-------------------------------|-------------------------12\----|

Gtr 2&3
p.m ------------------------------|
w/phaser ----------------------------------------------------------------|
e---------------------------------|-------------------------------------||
B---------------------------------|-------------------------------------||
G---------------------------------|-------------7-7-7-7-7-7-7-7-7-7-7---||
D---------------------------------|-------------7-7-7-7-7-7-7-7-7-7-7---||
A-0-0-0-0-0-0-0-0-0-0-0-0-0-0-0-0-|-5-5-5-5-5-5-5-5-5-5-5-5-5-5-5-5-5---||
D-0-0-0-0-0-0-0-0-0-0-0-0-0-0-0-0-|-0-0-0-0-0-0-0-0-0-0-0-0-0-0-0-0-0---||


Outro
Gtr 2&3
e--------------------------------|-------------------------------|
B--------------------------------|-------------------------------|
G--------------------------------|-------------------------------|
D--0--2--2---2--0---2-/7---(7)\--|-2--2------------2--2----------|
A--0--2--2---2--0---2-/7---(7)\--|-2--2------------2--2----------|
D--0--2--2---2--0---2-/7---(7)\--|-2--2------------2--2----------|


                                     Rhythms

Intro
Gtr 2 (dist)
e---------------------------|-----------------------|--------------------------|
B---------------------------|-----------------------|--------------------------|
G-13-13-13-11---11--11--11--|-13-13-13-9---9--9--9--|-13-13-13-11--11--11--11--|
D--x--x--x--x----x---x---x--|--x--x--x-x---x--x--x--|--x--x--x--x---x---x---x--|
A-11-11-11--9----9---9---9--|-11-11-11-7---7--7--7--|-11-11-11--9---9---9---9--|
E---------------------------|-----------------------|--------------------------|

Gtr (dist)
e---------------------------|-----------------------|--------------------------|
B---------------------------|-----------------------|--------------------------|
G-9--9--9--8---8--8--8------|-9--9--9-13---13-13-13-|-9--9--9--8---8--8--8-----|
D-x--x--x--x---x--x--x------|-x--x--x--x----x--x--x-|-x--x--x--x---x--x--x-----|
A-7--7--7--6---6--6--6------|-7--7--7-11---11-11-11-|-7--7--7--6---6--6--6-----|
E---------------------------|-----------------------|--------------------------|


e------------------------|--------------------------|-------------------------|
B------------------------|--------------------------|-------------------------|
G-13-13-13--9---9--9--9--|-13-13-13-11--11--11--11--|-13-13-13--9---9--9--9---|
D--x--x--x--x---x--x--x--|--x--x--x--x---x---x---x--|--x--x--x--x---x--x--x---|
A-11-11-11--7---7--7--7--|-11-11-11--9---9---9---9--|-11-11-11--7---7--7--7---|
E------------------------|--------------------------|-------------------------|



e--------------------------|-----------------------|--------------------------|
B--------------------------|-----------------------|--------------------------|
G-9--9--9--13----13-13-13--|-9--9--9--8---8--8--8--|-9--9--9--13---13--13--13-|
D-x--x--x---x-----x--x--x--|-x--x--x--x---x--x--x--|-x--x--x---x----x---x---x-|
A-7--7--7--11----11-11-11--|-7--7--7--6---6--6--6--|-7--7--7--11---11--11--11-|
E--------------------------|-----------------------|--------------------------|


e------------------------|------------------------||---------------|
B------------------------|------------------------||---------------|
G-13-13-13-11--11-11-11--|-13-13-13--9---9--9--9--||--13---13\-----|
D--x--x--x--x---x--x--x--|--x--x--x--x---x--x--x--||---x----x\-----|
A-11-11-11--9---9--9--9--|-11-11-11--7---7--7--7--||--11---11\-----|
E------------------------|------------------------||---------------|


e-----------------------|-------------------------||---------------|
B-----------------------|-------------------------||---------------|
G-9--9--9--8---8--8--8--|-9--9--9--13---13-13-13--||-9----9--------|
D-x--x--x--x---x--x--x--|-x--x--x---x----x--x--x--||-x----x--------|
A-7--7--7--6---6--6--6--|-7--7--7--11---11-11-11--||-7----7--------|
E-----------------------|-------------------------||---------------|


Gtr 1
e-----------------|----------------|-------------|-----------------|
B-----------------|----------------|-------------|-----------------|
G-----------------|----------------|-------------|-------12---13---|
D-----------------|----------------|-------------|--------x----x---|
A-----------------|----------------|-------------|-------10---11---|
E-----------------|----------------|-------------|----0------------|


Pre-chorus
Gtr 1&2
e----------------------|---------------------|--------------------------|
B----------------------|---------------------|--------------------------|
G----------------------|-6---6--6--6--6--6---|--------------------------|
D--2---2--2--2--2--2---|-6---6--6--6--6--6---|-7---7--7--7--7--7--7-----|
A--2---2--2--2--2--2---|-4---4--4--4--4--4---|-7---7--7--7--7--7--7-----|
E--0---0--0--0--0--0---|---------------------|-5---5--5--5--5--5--5-----|



e----------------------|--------------------|---------------------|
B----------------------|--------------------|---------------------|
G----------------------|--------------------|-6---6---6---6---6---|
D-7--7--7--7--7--7--7--|-2---2--2--2--2--2--|-6---6---6---6---6---|
A-7--7--7--7--7--7--7--|-2---2--2--2--2--2--|-4---4---4---4---4---|
E-5--5--5--5--5--5--5--|-0---0--0--0--0--0--|---------------------|

e--------------|----------------|------------------|-----------------|
B--------------|----------------|------------------|-----------------|
G--------------|----------------|------------------|-----------------|
D--7-----------|----------------|--2---------------|-----------------|
A--7-----------|----------------|--2---------------|-----------------|
E--5-----------|----------------|--0---------------|-----------------|



e---------------|---------------|------------------|---------------------|
B---------------|---------------|------------------|---------------------|
G--6------------|-----------6---|------------------|---------------------|
D--6------------|-----------6---|---7--------------|-9---9--9--9--9--9\--|
A--4------------|-----------4---|---7--------------|-9---9--9--9--9--9\--|
E--4------------|---------------|---5--------------|-7---7--7--7--7--7\--|


Chorus
e-------------------|-----------------|-------------------|----------------------|
B-------------------|-----------------|-------------------|----------------------|
G-------------------|-6--x--6--6---6--|-------------------|----------------------|
D--2---x--2--2---2--|-6--x--6--6---6--|--7-x--7--7---7-/--|-9--9--9--9--9--9--9--|
A--2---x--2--2---2--|-4--x--4--4---4--|--7-x--7--7---7-/--|-9--9--9--9--9--9--9--|
E--0---x--0--0---0--|-----------------|--5-x--5--5---5-/--|-7--7--7--7--7--7--7--|

Post Chorus
Gtr 1&2
e--------------------|---------------------|--------------------|------------------|
B--------------------|---------------------|--------------------|------------------|
G-9---9--9--9--9--9--|-9---9---9--9--9--9--|-6---6--6--6--6-----|------------------|
D-9---9--9--9--9--9--|-9---9---9--9--9--9--|-6---6--6--6--6-----|-7----9--9--9-----|
A-7---7--7--7--7--7--|-6---6---6--6--6--6--|-4---4--4--4--4-----|-7----9--9--9-----|
E--------------------|---------------------|-----------------0--|-5----7--7--7--0--|

Verse
Gtr 1&2
p.m ------------------------------------|   p.m-|  p.m  p.m -| p.m|  p.m
e-----------------|-----------------|------------------|-------------------|
B-----------------|-----------------|------------------|-------------------|
G-9--9-9-9-9-9-9--|-6-6-6-6-6-6-6-6-|------------------|-------------------|
D-9--9-9-9-9-9-9--|-6-6-6-6-6-6-6-6-|------7-----7---7-|-----7-----7---7---|
A-7--7-7-7-7-7-7--|-4-4-4-4-4-4-4-4-|------7-----7---7-|-----7-----7---7---|
E-----------------|-----------------|--5-5-5-5-5-5-5-5-|-5-5-5-5-5-5-5-5---|

e-----------------|-----------------|---------------------|-------------------||
B-----------------|-----------------|---------------------|-------------------||
G-9-9-9-9-9-9-9-9-|-6-6-6-6-6-6-6-6-|------5---------5----|-5-5-5-5-5-5-5-----||
D-9-9-9-9-9-9-9-9-|-6-6-6-6-6-6-6-6-|------5---------5----|-5-5-5-5-5-5-5-----||
A-7-7-7-7-7-7-7-7-|-4-4-4-4-4-4-4-4-|------7---------7----|-7-7-7-7-7-7-7-----||
E-----------------|-----------------|-5-5-----5-5-5-----5-|-5-5-5-5-5-5-5-0---||


Pre-chorus
Gtr 1&2 
e----------------------|---------------------|--------------------------|
B----------------------|---------------------|--------------------------|
G----------------------|-6---6--6--6--6--6---|--------------------------|
D--2---2--2--2--2--2---|-6---6--6--6--6--6---|-7---7--7--7--7--7--7-----|
A--2---2--2--2--2--2---|-4---4--4--4--4--4---|-7---7--7--7--7--7--7-----|
E--0---0--0--0--0--0---|---------------------|-5---5--5--5--5--5--5-----|


e---------------|-----------------|---------------|------------------||
B---------------|-----------------|---------------|------------------||
G---------------|-----------------|---------------|------------------||
D--7------------|-----------------|---2-----------|------------------||
A--7------------|-----------------|---2-----------|------------------||
E--5------------|-----------------|---0-----------|------------------||

Gtr 4 (clean)
e--0----------|----0-----------|--0--------------|---------------|
B--0----------|----0-----------|--0--------------|---------------|
G--6----------|----4-----------|--2--------------|---------------|
D--6----------|----4-----------|--2--------------|---------------|
A--4----------|----2-----------|--0--------------|---------------|
E-------------|----------------|-----------------|---------------|

Gtr 5 (elec)
e-------------|----------------|-----------------|---------------|
B-------------|----------------|-----------------|---------------|
G---6---------|--8-------------|-9---------------|---------------|
D---x---------|--x-------------|-x---------------|---------------|
A---4---------|--6-------------|-7---------------|---------------|
E-------------|----------------|-----------------|---------------|


e--------------|---0-----------|----------------|------------------|
B--------------|---0-----------|--2-------------|------------------|
G-9------------|---6-----------|--2-------------|------------------|
D-9------------|---6-----------|--2-------------|------------------|
A-7------------|---4-----------|----------------|------------------|
E--------------|---------------|----------------|------------------|

e--------------|---------------|---------------|-------------------|
B--------------|---------------|---------------|-------------------|
G--9-----------|--6------------|---------------|-------------------|
D--x-----------|--x------------|--7------------|-------------------|
A--7-----------|--4------------|--x------------|-------------------|
E--------------|---------------|--5------------|-------------------|

Gtrs 1&2
                 p.m -------------------------------------------------
e--------------|--------------------------|------------------------------|
B--------------|--------------------------|------------------------------|
G--------------|--------------------------|-6--6--6--6--6--6--6--6-------|
D--------------|--2--2--2--2--2--2--2--2--|-6--6--6--6--6--6--6--6-------|
A--------------|--2--2--2--2--2--2--2--2--|-4--4--4--4--4--4--4--4-------|
E--------------|--0--0--0--0--0--0--0--0--|------------------------------|

p.m ------------------------------------------------------------------
e--------------------------|------------------------|---------------------|
B--------------------------|------------------------|---------------------|
G--------------------------|------------------------|-9-9-9-9-9-9-9-9-----|
D--7--7--7--7--7--7--7--7--|-7--7--7--7--7--7--7----|-9-9-9-9-9-9-9-9-----|
A--7--7--7--7--7--7--7--7--|-7--7--7--7--7--7--7----|-7-7-7-7-7-7-7-7-----|
E--5--5--5--5--5--5--5--5--|-5--5--5--5--5--5--5-0--|---------------------|

p.m -----------------|
e----------------------|---------------------|--------------------||
B----------------------|---------------------|--------------------||
G-6--6--6--6--6--6--6--|---------------------|--------------------||
D-6--6--6--6--6--6--6--|--7----7---7---7--7--|--7----7--7--7---9--||
A-4--4--4--4--4--4--4--|--7----7---7---7--7--|--7----7--7--7---9--||
E----------------------|--5----5---5---5--5--|--5----5--5--5---7--||


Gtr 2
e-------------------||-----------------|-------------||---------------|---------||
B-------------------||.----------------|------------.||---------------|---------||
G--13-13-13-9--9--9-||--/13----/13-----|-/13---------||-/13-----------|---------||
D---x--x--x-x--x--x-||--/-x--2-/-x--2--|-/-x-2-2-----||-/-x--2--2-----|---------||
A--11-11-11-7--7--7-||.-/11--2-/11--2--|-/11-2-2----.||-/11--2--2-----|---------||
E-------------------||-------0------0--|-----0-0-----||------0--0-----|---------||

e-------------------||-----------------|-------------||---------------|---------||
B-------------------||.----------------|------------.||---------------|---------||
G-9--9--9-13---13---||--/9-----/9------|-/9----------||-/9------------|---------||
D-x--x--x--x----x---||--/x--2--/x--2---|-/x--2-2-----||-/x--2--2------|---------||
A-7--7--7-11---11---||.-/7--2--/7--2---|-/7--2-2----.||-/7--2--2------|---------||
E-----------------0-||------0------0---|-----0-0-----||-----0--0------|---------||



                               Motivation
Last chord of rhythms fades in
                                
Intro
Gtr 1&2 (dist)
e------------|--------------|-------------------|---------------------|
B------------|--------------|-------------------|---------------------|
G------------|--------------|-------------------|---------------------|
D------------|-2--2---------|-2--2--------------|-2--2----------------|
A------------|-2--2---------|-2--2--------------|-2--2----------------|
E------------|-0--0---------|-0--0--------------|-0--0----------------|


e-------------------||------------------------|------------------------|
B----------------0--||.-----------------------|------------------------|
G----------------0--||------------------------|------------------------|
D--2--2----------0--||--2--2--2--6--7---7--6--|-2--2--2--6--7---7--6---|
A--2--2----------0--||.-2--2--2--6--7---7--6--|-2--2--2--6--7---7--6---|
E--0--0----x\-------||--0--0--0--4--5---5--4--|-0--0--0--4--5---5--4---|
  
                                                   Verse
                                                   p.m --|   p.m ----|   p.m
e------------------------|-----------------------||---------------------------|
B------------------------|----------------------.||.--------------------------|
G------------------------|-----------------------||---------------------------|
D--2--2--2--6--7---7--6--|-9--9--9--6--7---7--6--||--------2-----------6------|
A--2--2--2--6--7---7--6--|-9--9--9--6--7---7--6-.||.-------2-----------6------|
E--0--0--0--4--5---5--4--|-7--7--7--4--5---5--4--||--0--0--0--0--4--4--4--4---|

p.m----|   p.m-----|   p.m------|   p.m-----|   p.m------|   p.m-----|   p.m
e-------------------------|------------------------|-------------------------|
B-------------------------|------------------------|-------------------------|
G-------------------------|------------------------|-------------------------|
D--------7-----------9----|-------2-----------6----|-------7-----------9-----|
A--------7-----------9----|-------2-----------6----|-------7-----------9-----|
E--5--5--5--5--7--7--7--7-|-0--0--0--0--4--4--4--4-|-5--5--5--5--7--7--7--7--|

Gtr 1
p.m----|   p.m-----|   p.m--------| p.m------|   p.m---------|   p.m ----|
e--------------------------|--------------------------|-------------------------|
B--------------------------|--------------------------|-------------------------|
G--------------------------|-------6-----------4------|-------------------------|
D--------2-----------6-----|-------6-----------4------|--------2-----------6----|
A--------2-----------6-----|-4--4--4--4--6--6--6------|--------2-----------6----|
E--0--0--0--0--4--4--4--0--|-----------------------0--|--0--0--0--0--4--4--4--0-|

Gtr 2
Gtr 1 divisi                  Gtr 1&2
e--------------------------||------------------|--------------------|
B--------------------------||-9---9---9--9--9--|-9---9---9--9--9----|
G--------------------------||-9---9---9--9--9--|-9---9---9--9--9----|
D--------------------4--4--||-9---9---9--9--9--|-9---9---9--9--9----|
A--4--4--6--6--7--7--6--6--||-7---7---7--7--7--|-7---7---7--7--7----|
E--5--5--7--7--9--9--------||------------------|--------------------|


e------------------|------------------|-----------------|------------------|
B------------------|------------------|-9---9---9--9--9-|-9--9--9--9--9----|
G-8---8---8--8--8--|-8---8---8--8--8--|-9---9---9--9--9-|-9--9--9--9--9----|
D-9---9---9--9--9--|-9---9---9--9--9--|-9---9---9--9--9-|-9--9--9--9--9----|
A-9---9---9--9--9--|-9---9---9--9--9--|-7---7---7--7--7-|-7--7--7--7--7----|
E-7---7---7--7--7--|-7---7---7--7--7--|-----------------|------------------|

e-------------------|-----------------|---------------|------------------||
B-------------------|-----------------|---------------|------------------||
G--6---6---6--6--6--|-8---8--8--8-----|---------------|------------------||
D--7---7---7--7--7--|-9---9--9--9-----|--7------------|-9-9-9-9-9-9-9----||
A--7---7---7--7--7--|-9---9--9--9-----|--7------------|-9-9-9-9-9-9-9----||
E--5---5---5--5--5--|-7---7--7--7--0--|--5------------|-7-7-7-7-7-7-7-0--||

Bridge
Gtr 1&2
e--------------------------|--------------------|----------------------------|
B--------------------------|--------------------|----------------------------|
G--------------------------|--------------------|----------------------------|
D-2-2--9-9-9-9--7-7-7-7-7-7|--------------------|-2-2--9-9-9-9--7-7-7-7-7-7-7|
A-2-2--9-9-9-9--7-7-7-7-7-7|--------------------|-2-2--9-9-9-9--7-7-7-7-7-7-7|
E-0-0--7-7-7-7--5-5-5-5-5-5|--------------------|-0-0--7-7-7-7--5-5-5-5-5-5-5|

Gtr 3 (dist)
e--------------------------|---------------------|----------------------------|
B--------------------------|---------------------|----------------------------|
G--------------------------|-9-9-11--13--14--13--|-(13)\----------------------|
D--------------------------|-x-x--x---x---x---x--|-(--)\----------------------|
A--------------------------|-7-7--9--11--12--11--|-(11)\----------------------|
E--------------------------|---------------------|----------------------------|

e-------------------------|---------------------------|----------------------|
B-------------------------|---------------------------|----------------------|
G-14--14--16--18--19-18---|---(18)\-------------------|-9--9-11-13-14-13-----|
D--x---x---x---x---x--x---|---(--)\-------------------|-x--x--x--x--x--x-----|
A-12--12--14--16--17-16---|---(16)\-------------------|-7--7--9-11-12-11-----|
E-------------------------|---------------------------|----------------------|


e------------------------|----------------------------|----------------------|
B------------------------|----------------------------|----------------------|
G------------------------|----------------------------|----------------------|
D------------------------|-2-2--9-9-9-9--7-7-7-7-7-7-7|----------------------|
A------------------------|-2-2--9-9-9-9--7-7-7-7-7-7-7|----------------------|
E------------------------|-0-0--7-7-7-7--5-5-5-5-5-5-5|----------------------|


e------------------------|-------------------------|
B------------------------|-------------------------|
G-(13)\------------------|-------------------------|
D-(--)\------------------|-------------------------|
A-(11)\------------------|-------------------------|
E------------------------|-------------------------|


e-----------------------|-------------------|
B-----------------------|-------------------|
G-----------------------|-------------------|
D--4---4--4---4--4--4---|-7--7--7--7--7--7--|
A--4---4--4---4--4--4---|-7--7--7--7--7--7--|
E--2---2--2---2--2--2---|-5--5--5--5--5--5--|

Interlude
Gtr 1                                       Gtr 2                         play 3 times
e----------------------|------------------||--------------------------|----------------||
B----------------------|------------------||.-------------------------|---------------.||
G----------------------|------------------||--------------------------|-2--x--4-4-4-4--||
D-2--2-------------6---|-7--x--9--9---9---||---2--2-------------------|-2--x--4-4-4-4--||
A-2--2-5--4--2--0--6---|-7--x--9--9---9---||.--2--2--5--4--2--0-------|-0--x--2-2-2-2-.||
E-0--0-------------4-0-|-5--x--7--7---7-0-||---0--0--------------4--0-|----------------||

Gtr 1&2
e------------------|------------------|---------------------------|
B------------------|------------------|---------------------------|
G---6--------------|------------------|--4------------------------|
D---6--------------|------------------|--4------------------------|
A---4--------------|------------------|--2------------------------|
E------------------|------------------|---------------------------|

Gtr 4 (dist)
e--0--0---0--0-----|-0-----0--0----0--|---0---0----0---0------|
B--4--5---5--4-----|-4/5---5--4----2--|---4---5----5---4------|
G------------------|------------------|-----------------------|
D------------------|------------------|-----------------------|
A------------------|------------------|-----------------------|
E------------------|------------------|-----------------------|



e------------------|-----------------|------------------------|
B------------------|-----------------|------------------------|
G------------------|-9---------------|--8---------------------|
D------------------|-9---------------|--8---------------------|
A------------------|-7---------------|--6---------------------|
E------------------|-----------------|------------------------|


e--0-----0--0----2-|--0-----0-----0---|--0-----0------0-------|
B--4/5---5--4----0-|--0-----2-----4---|--5-----4------2-------|
G------------------|------------------|-----------------------|
D------------------|------------------|-----------------------|
A------------------|------------------|-----------------------|
E------------------|------------------|-----------------------|


e-----------------|--------------------|-------------------------||
B-----------------|--------------------|-------------------------||
G--2--------------|--4---4--4--4--4--4-|-4-4-4-4---4-4-4-4-------||
D--2--------------|--4---4--4--4--4--4-|-4-4-4-4---4-4-4-4-------||
A--0--------------|--2---2--2--2--2--2-|-2-2-2-2---2-2-2-2-------||
E-----------------|--------------------|-------------------------||


e--0----0----0-----|--0---0---0---0---|--0---0---0---0----------||
B--0----5----0-----|--4---5---4---5---|--4---5---4---5----------||
G------------------|------------------|-------------------------||
D------------------|------------------|-------------------------||
A------------------|------------------|-------------------------||
E------------------|------------------|-------------------------||

Interlude
Gtr 4    Gtr 5 (fuzz)
e--(0--0)------------|------------------|-----------------|-----------------|
B--(5--5)------------|------------------|-----------------|-----------------|
G-----------4---4----|-----------2---2--|----------4---4--|----------2---2--|
D---2---2---4---4----|--4---4----2---2--|--2---2---4---4--|--4---4---2---2--|
A---2---2---2---2----|--4---4----0---0--|--2---2---2---2--|--4---4---0---0--|
E---0---0------------|--2---2-----------|--0---0----------|--2---2----------|

Gtr 6
(slight dist)
p.m-------------------------------------------------------------------------------|
e-----------------|-----------------------|-----------------|-----------------------|
B-9--9--9--9--7---|--9---9---9---7--9--7--|--9--9--9--9---7-|--9---9--9--7---9---7--|
G-9--9--9--9--8---|--9---9---9---8--9--8--|--9--9--9--9---8-|--9---9--9--8---9---8--|
D-----------------|-----------------------|-----------------|-----------------------|
A-----------------|-----------------------|-----------------|-----------------------|
E-----------------|-----------------------|-----------------|-----------------------|

Chorus

Gtr 1& 5 (interlude) 2 times

Gtr 6
e-----------------|--------------------|----------------|-------------------||
B--9--9--9--9--7--|--9--9--9--7--9--7--|--9--9--9--9--7-|--9--9--9--7--9--7-||
G--9--9--9--9--8--|--9--9--9--8--9--8--|--9--9--9--9--8-|--9--9--9--8--9--8-||
D-----------------|--------------------|----------------|-------------------||
A-----------------|--------------------|----------------|-------------------||
E-----------------|--------------------|----------------|-------------------||

Chorus
Gtrs 1,2&5
e-------------------|--------------------|------------------------|
B-------------------|--------------------|------------------------|
G-------------------|--------------------|------------------------|
D--2--2--9--9---9\--|-4---4--7--7---7\---|-2---2--4---4---4---7---|
A--2--2--9--9---9\--|-4---4--7--7---7\---|-2---2--4---4---4---7---|
E--0--0--7--7---7\--|-2---2--5--5---5\---|-0---0--2---2---2---5---|

e--------------------|------------------|-------------------------|
B--------------------|------------------|-------------------------|
G--------------------|------------------|-------------------------|
D--7---7--9--9---9\--|-2--2--9--9---9\--|-4---4--7--7----7\-------|
A--7---7--9--9---9\--|-2--2--9--9---9\--|-4---4--7--7----7\-------|
E--5---5--7--7---7\--|-0--0--7--7---7\--|-2---2--5--5----5\-------|

e---------------------|-----------------|-------------------------|
B---------------------|-----------------|-------------------------|
G---------------------|-----------------|-------------------------|
D--2---2--4--4---4-/--|-7---7---7---7---|--9--9--9--9--9--9-9\----|
A--2---2--4--4---4-/--|-7---7---7---7---|--9--9--9--9--9--9-9\----|
E--0---0--2--2---2-/--|-5---5---5---5---|--7--7--7--7--7--7-7\----|

Gtr 6                  
e---------------------|-9-7-9-7-9-7-9-7-|-9-7-9-7-9-7-9-----------||
B---------------------|-9-8-9-8-9-8-9-8-|-9-8-9-8-9-8-9-----------||
G---------------------|-----------------|-------------------------||
D---------------------|-----------------|-------------------------||
A---------------------|-----------------|-------------------------||
E---------------------|-----------------|-------------------------||


                                In Too Deep

Intro
Gtr 2 (clean)
p.m.----------------------------------------------------------------------------------|
e-----------------------|--------------------|--------------------|---------------------||
B-----------------9-----|--------------------|---------------9----|---------------------||
G-------------9---------|--------------------|-----------9--------|---------------------||
D----9-9-9--9---9----9--|--9-9-9--9-7-6-7-9--|--9-9-9--9---9---9--|-9-9-9--9-7-6--------||
A-----------------------|--------------------|--------------------|--------------9--7---||
E-----------------------|--------------------|--------------------|---------------------||

Gtr 1 (clean)
            p.m.-|        p.m.-----------|                p.m.-|      p.m.------------|
e-----------------------|--------------------|---------------------|--------------------||
B-----------------------|--------------------|---------------------|--------------------||
G-----------------------|--------------------|---------------------|--------------------||
D-------------6-7-9-7---|-----------------6--|-------------6-7-9-7-|------------------6-||
A----7------7-----------|-0-0-0--0--6-7-9----|----7------7---------|--0-0-0--0--6-7-9---||
E--0------0-------------|--------------------|--0-------0----------|--------------------||

Gtr 3 (dist)
e-----------------|-----------------------|-----------------------|
B--9------9----9--|------5-----10----10---|------9------9-----9---|
G--9------9----9--|------6------9-----9---|------9------9-----9---|
D--9------9----9--|------7-----11----11---|------9------9-----9---|
A-----------------|-----------------------|-----------------------|
E-----------------|-----------------------|-----------------------|

Gtrs 3&4 (dist)               Chorus
e--------------------------||----------------------|---------------------|
B--------------------------||----------------------|---------------------|
G--------------------------||----------------------|---------------------|
D--2--2--2--2--2--2--2--2--||----------0--2-2-2-2--|---------0--2-2-2-2--|
A--4--4--2--2--0--0--0--0--||--2---2---0--0-0-0-0--|-2---2---0--0-0-0-0--|
E--------------------------||--0---0---------------|-0---0---------------|

e----------------------|--------------------|---------------------|
B----------------------|--------------------|---------------------|
G----------------------|--------------------|---------------------|
D---------0--2-2-2-2---|------------2---2---|--------0--2-2-2-2---|
A--2---2--0--0-0-0-0---|-2---2--0---0---0---|-2---2--0--0-0-0-0---|
E--0---0---------------|-0---0--------------|-0---0---------------|

e----------------------|--------------------|----------------------|
B----------------------|--------------------|----------------------|
G----------------------|--------------------|---------------7------|
D---------0--2-2-2-2---|--------0--2-2-2-2--|--9---9--7--7--7------|
A--2---2--0--0-0-0-0---|-2---2--0--0-0-0-0--|--7---7--5--5--5--0---|
E--0---0---------------|-0---0--------------|--0---0---------------|

                                Interlude
e-----------------------------||------------------------|------------------------|
B-----------------------------||------------------------|------------------------|
G-----------------------------||-------9-----------2----|-------9-----------2----|
D-2--2--2--2------------------||-------x--0--2--2--2--2-|-------x--0--2--2--2--2-|
A-0--0--0--0--x-x-x-x-x-x-x-x-||--2-2--7--0--0--0--x--0-|-2--2--7--0--0--0--x--0-|
E-------------x-x-x-x-x-x-x-x-||--0-0--------------4----|-0--0--------------4----|

Gtr 3
e-------------------------|------------------------||--------------------|
B-------------------------|------------------------||--------------------|
G-------13-----------2----|------13----------------||--------------------|
D--------x--0--2--2--2-2--|-------x----------------||----------------6---|
A--2--2-11--0--0--0--x-0--|-2--2-11-----7--6--4--6-||--2--2----------6---|
E--0--0--------------4----|-0--0-----5--5--4--2--4-||--0--0----------4---|

Gtr 4
e-------------------------|------------------------||--------------------|
B-------------------------|------------------------||--------------------|
G--------9-----------2----|-------9----------------||--------------------|
D--------x--0--2--2--2--2-|-------x-----2----------||----------------6---|
A--2--2--7--0--0--0--x--0-|-2--2--7--0--0--6--4--6-||--2--2----------6---|
E--0--0--------------4----|-0--0-----------4--2--4-||--0--0----------4---|

Gtr 3&4
e--------------------|------------------|-------------------------|
B--------------------|------------------|-------------------------|
G--------------------|------------------|-------------------------|
D--------------------|---------------6--|-------------------------|
A--7--7-----------7--|--2--2---------6--|-7--7---6--7--7-----7----|
E--5--5-----------5--|--0--0---------4--|-5--5---4--5--5-----5----|

Gtrs 3&4
     p.m.----------|    p.m.----------|   p.m.-----------|    p.m.-|
e-------------------|------------------|-------------------|--------------------||
B-------------------|------------------|-------------------|--------------------||
G-------------------|------------------|-------------------|--------------------||
D-------------------|-2-2-2-2-2-2-2----|-------------------|-2-2-2-2-2-2-2--2---||
A--2-2-2-2-2-2-2-2--|-0-0-0-0-0-0-0----|-2-2-2-2-2-2-2-2---|-0-0-0-0-0-0-0--0---||
E--0-0-0-0-0-0-0-0--|---------------0--|-0-0-0-0-0-0-0-0---|--------------------||

Chorus
Gtr 3&4
e--------------------|------------------------|-------------------||
B--------------------|------------------------|-------------------||
G--------------------|-----------------7------|-------------------||
D--2-2-2-2-2-2-2-----|--9----9---7--7--7------|--2-2-2-2-2-2-2-2--||
A--0-0-0-0-0-0-0-----|--7----7---5--5--5--0---|--0-0-0-0-0-0-0-0--||
E-----------------0--|--0----0----------------|-------------------||

Interlude
e------------------------------|-----------------------------------||
B------------------------------|-----------------------------------||
G------------------------------|-----------------------------------||
D------------------------------|-----------------------------------||
A--------7----------------7----|-------------7-----0--x-x-x-x-x-x--||
E--0--0-----0--0--0--0--0----0-|-0--0--0--0-----0--0--x-x-x-x-x-x--||

Guitar solo
Gtr 5 (dist)
e--5p4p0--5p4p0--7p5p0--7p5p0----------------|-------------------------------|
B------------------------------7h9p7h9/10--0--|-9p0-10p-12-10p0-9p0-7--9--10--|
G--------------------------------------------|-------------------------------|
D--------------------------------------------|-------------------------------|
A--------------------------------------------|-------------------------------|
E--------------------------------------------|-------------------------------|

Gtr 6 (dist)
e--------------------------------------------|------------------------------|
B-----------------------------4h5p4-5/7------|------------------------------|
G--------------------------------------------|------------------------------|
D--------------------------------------------|------------------------------|
A--------------------------------------------|------------------------------|
E--------------------------------------------|------------------------------|

Gtr 3&4
e----------------------------------|-------------------------------------|
B----------------------------------|-------------------------------------|
G----------------------------------|--7--7--7--7--7------------------2---|
D----------------------------------|--7--7--7--7--7---2--2--2--2--2--2---|
A--2--2--2--2--2---4--4--4--4--4---|--5--5--5--5--5---0--0--0--0--0--x---|
E--0--0--0--0--0---2--2--2--2--2---|---------------------------------4---|


Gtr 5 (dist)                                                                    1/2
e--5p4p0--5p4p0--7p5p0--7p5p0----------------|-------------------------------16^-||
B------------------------------7h9p7h9/10--0--|-9p0-10p-12-10p0-9p0-7--9--10-----||
G--------------------------------------------|-----------------------------------||
D--------------------------------------------|-----------------------------------||
A--------------------------------------------|-----------------------------------||
E--------------------------------------------|-----------------------------------||

Gtr 6 (dist)                                                                   1/2
e--------------------------------------------|------------------------------------||
B-----------------------------4h5p4-5/7------|------------------------------17^---||
G--------------------------------------------|------------------------------------||
D--------------------------------------------|------------------------------------||
A--------------------------------------------|------------------------------------||
E--------------------------------------------|------------------------------------||

Bridge
Gtr 5
e---(16)--------|-------------|--------------|---------------------|
B---------------|-------------|--------------|---------------------|
G---------------|-------------|--------------|---------------------|
D---------------|-------------|--------------|---------------------|
A---------------|-------------|--------------|---------------------|
E---------------|-------------|--------------|---------------------|

Gtr 6
e---------------|--------------|--------------|--------------------|
B---(17)--------|--------------|--------------|--------------------|
G---------------|--------------|--------------|--------------------|
D---------------|--------------|--------------|--------------------|
A---------------|--------------|--------------|--------------------|
E---------------|--------------|--------------|--------------------|

Gtr 3&4
e----------------|------------------|-----------------|--------------------|
B----------------|------------------|-----------------|--------------------|
G----------------|------------------|-----------------|--------------------|
D----------------|-2--2-----4--4----|-----------------|--2--2----4--4------|
A--2--2---4--4---|-0--0-----2--2----|--2--2----4--4---|--0--0----2--2------|
E--0--0---2--2---|------------------|--0--0----2--2---|--------------------|

Gtr 5
e---------------------|-------------------|--------------------|---------------------|
B---------------------|-------------------|--------------------|---------------------|
G--8-/-9---8--8-/-9---|--8-/-9--8--8-/-9--|--8-/-9---8---8-/-9-|--8-/-9---8--8-/-9---|
D--x-/-x---x--x-/-x---|--x-/-x--x--x-/-x--|--x-/-x---x---x-/-x-|--x-/-x---x--x-/-x---|
A--6-/-7---6--6-/-7---|--6-/-7--6--6-/-7--|--6-/-7---6---6-/-7-|--6-/-7---6--6-/-7---|
E---------------------|-------------------|--------------------|---------------------|

Gtr 3&4
e----------------|------------------|-----------------|--------------------|
B----------------|------------------|-----------------|--------------------|
G----------------|------------------|-----------------|--------------------|
D----------------|-2--2-----4--4----|-----------------|--2--2----4--4------|
A--2--2---4--4---|-0--0-----2--2----|--2--2----4--4---|--0--0----2--2------|
E--0--0---2--2---|------------------|--0--0----2--2---|----------------7\--|

Repeat 2 more times
e-----------------------|-------------------|-----------------------------||
B-----------------------|-------------------|-----------------------------||
G-11-/-13--11--11-/-13--|-------------------|-----------------------------||
D--x-/--x---x---x-/--x--|-------------------|-----------------------------||
A--9-/-11---9---9-/-11--|-------------------|---x--x--x--x--x--x--x--x----||
E-----------------------|-------------------|---x--x--x--x--x--x--x--x----||

Gtr 3&4
e----------------|------------------|-----------------|------------------------||
B----------------|------------------|-----------------|------------------------||
G----------------|------------------|-----------------|------------------------||
D----------------|-2--2-----4--4----|-----------------|--2--2------------------||
A--2--2---4--4---|-0--0-----2--2----|--2--2----4--4---|--0--0---x-x-x-x-x-x-x--||
E--0--0---2--2---|------------------|--0--0----2--2---|---------x-x-x-x-x-x-x--||

Repeat 5 more times
e------------------------|------------------------|-----------------------|-----------------|
B------------------------|------------------------|-----------------------|-----------------|
G-------9-----------2----|-------9-----------2----|--------------7-7-7-7--|-----------------|
D-------x--0--2--2--2--2-|-------x--0--2--2--2--2-|--------------7-7-7-7--|-2-2-2-2-2-2-2---|
A--2-2--7--0--0--0--x--0-|-2--2--7--0--0--0--x--0-|--2-2-2-2-----5-5-5-5--|-0-0-0-0-0-0-0---|
E--0-0--------------4----|-0--0--------------4----|--0-0-0-0--------------|---------------0-|

Outro
Gtr 5
e-----------------|------------------|----------------------------|
B-----------------|------------------|--9-10--9-10-12-10--9-10----|
G-----------------|------------------|--9--9--9--9--9--9--9--9----|
D-----------------|------------------|----------------------------|
A-----------------|------------------|----------------------------|
E-----------------|------------------|----------------------------|

e--------------------|------------------------|--------------------------|
B--------------------|------------------------|--------------------------|
G--9-9-9-9--7-7-7-7--|------------------------|-------------7--7--7--7---|
D--9-9-9-9--7-7-7-7--|-------------5--5--5--5-|-------------7--7--7--7---|
A--7-7-7-7--5-5-5-5--|-7--7--7--7--3--3--3--3-|-2--2--2--2--5--5--5--5---|
E--------------------|-5--5--5--5-------------|-0--0--0--0---------------|

Gtr 5  plays till end
e----------------------------|------------------------------|
B--9-10--9-10--9-------------|------------------------------|
G--9--9--9--9--9--11--9--11--|------------------------------|
D-----------------11--9--11--|------------------------------|
A----------------------------|------------------------------|
E----------------------------|------------------------------|

e--------------------|-------------------|-----------------------------|
B--------------------|-------------------|-----------------------------|
G--------------------|-9-9-9-9--7-7-7-7--|-----------------------------|
D--2-2-2-2-2-2-2-2---|-9-9-9-9--7-7-7-7--|-------------5--5--5--5------|
A--0-0-0-0-0-0-0-0---|-7-7-7-7--5-5-5-5--|-7--7--7--7--3--3--3--3------|
E--------------------|-------------------|-5--5--5--5------------------|


e--------------------|-------------------------|--------------------------|
B--------------------|-------------------------|--------------------------|
G--9-9-9-9--7-7-7-7--|-------------------------|--------------2--2--2--2--|
D--9-9-9-9--7-7-7-7--|-------------5--5--5--5--|--------------0--0--0--0--|
A--7-7-7-7--5-5-5-5--|-7--7--7--7--3--3--3--3--|--2--2--2--2--------------|
E--------------------|-5--5--5--5--------------|--0--0--0--0--------------|

e-------------------------|-------------------------|----------------------------|
B-------------------------|-------------------------|----------------------------|
G-------------------------|-------------2--2--2--2--|----------------------------|
D-2--2--2--2--5--5--5-----|-------------0--0--0--0--|-2--2--2--2--5--5--5--5-----|
A-0--0--0--0--3--3--3--0--|-2--2--2--2--------------|-0--0--0--0--3--3--3--3--0--|
E----------------------0--|-0--0--0--0--------------|-------------------------0--|

Gtr 3&4                                               Gtr 5
e------------|-----------|------------|-------------|----------------||
B------------|-----------|------------|-------------|--9-------------||
G------------|-----------|------------|-------------|--9-------------||
D------------|-----------|------------|-------------|----------------||
A--2---------|-----------|------------|-------------|----------------||
E--0---------|-----------|------------|-------------|----------------||

                                      Summer
Drop D Tuning
D-A-D-G-B-E

Gtr 1(dist)
e------------------------|--------------------|----------------------|-------------------|
B--10--10--10--8--8------|--7--7---7-7h8--7---|-10--10--10--8--8--8--|--7--7--7-7h8--7---|
G---7---7---7--7--7---7--|--7--7---7-7----7---|--7---7---7--7--7--7--|--7--7--7-7----7---|
D------------------------|--------------------|----------------------|-------------------|
A------------------------|--------------------|----------------------|-------------------|
D------------------------|--------------------|----------------------|-------------------|

Gtr 2 (gtr 1 riff 4 times)
(dist)
e-----------|------------|-------------|-----------|-----------|----------|---------|----------|
B-----------|------------|-------------|-----------|-----------|----------|---------|----------|
G-----------|------------|--4----------|-----------|-----------|----------|---------|----------|
D---0-------|------------|--4----------|-----------|--5--------|----------|-7-------|----------|
A---0-------|------------|--2----------|-----------|--5--------|----------|-7-------|----------|
D---0-------|------------|-------------|-----------|--5--------|----------|-7-------|----------|

Gtr 3 (dist)
e||------------------|-------------------|----------------|-------------------|
B||.-----------------|-------------------|----------------|-------------------|
G||---7-x-9-9--x-11--|-11-11-12--11---7--|-7-x-9-9--x-11--|-11-11-12---14---7-|
D||---x-x-x-x--x--x--|--x--x--x---x---x--|-x-x-x-x--x--x--|--x--x--x----x---x-|
A||.--5-x-7-7--x--9--|--9--9-10---9---5--|-5-x-7-7--x--9--|--9--9-10---12---5-|
D||------------------|-------------------|----------------|-------------------|

Gtr 2
e||------------------|-------------------|------------------|------------------|
B||.-----------------|-------------------|------------------|------------------|
G||------------------|-------------------|------------------|------------------|
D||--7--x-7-7--x--7--|-7--x-7----7---4---|--4--x--4-4--x--4-|-4--x-4---4-------|
A||.-5--x-5-5--x--5--|-5--x-5----5---2---|--2--x--2-2--x--2-|-2--x-2---2---5---|
D||------------------|-------------------|------------------|--------------5---|



e------------------|-------------------|-----------------|--------------------||
B------------------|-------------------|-----------------|--------------------||
G--7--x-9-9--x-11--|-11-11-12--11---7--|-7--x-9-9--x-11--|-11-11--9---9--9\-7-||
D--x--x-x-x--x--x--|--x--x--x---x---x--|-x--x-x-x--x--x--|--x--x--x---x--x\-x-||
A--5--x-7-7--x--9--|--9--9-10---9---5--|-5--x-7-7--x--9--|--9--9--7---7--7\-5-||
D------------------|-------------------|-----------------|--------------------||


e------------------|-------------------|-------------------|-------------------||
B------------------|-------------------|-------------------|-------------------||
G------------------|-------------------|-------------------|-------------------||
D------------------|-------------------|-------------------|-------------------||
A--5--x-5--5---x-5-|-5--x--5-----5---7-|-7---x--7--7--x--7-|-7---7---7---7-7-7-||
D--5--x-5--5---x-5-|-5--x--5-----5---7-|-7---x--7--7--x--7-|-7---7---7---7-7-7-||

Verse
e------------------|----------------|-----------------|-------------------|
B------------------|----------------|-----------------|-------------------|
G---7--------------|----------------|-----------------|-------------------|
D---x--------------|----------------|-----------------|-------------------|
A---5--------------|----------------|-----------------|-------------------|
D------------------|----------------|-----------------|-------------------|


e----------------|-----------------|-----------------|-----------------|
B----------------|-----------------|-----------------|-----------------|
G----------------|-----------------|-----------------|-----------------|
D-7--7-7--7-7-7--|-7--7-7--7-7-7---|-4--4-4--4-4-4---|-4--4-4--4-4-4---|
A-5--5-5--5-5-5--|-5--5-5--5-5-5---|-2--2-2--2-2-2---|-2--2-2--2-2-2---|
D----------------|-----------------|-----------------|-----------------|

Gtr 2
e-----------------|----------------|----------------|----------------|
B-----------------|----------------|----------------|----------------|
G-----------------|----------------|----------------|----------------|
D-----------------|----------------|----------------|----------------|
A--2--2-2--2-2-2--|-2--2-2--2-2-2--|-5--5-5--5-5-5--|-5--5-5--5-5-5--|
D--2--2-2--2-2-2--|-2--2-2--2-2-2--|-5--5-5--5-5-5--|-5--5-5--5-5-5--|

Gtr 3                            Pre-chorus
e--------------|---------------||-------------|-------------|-------------|-------------|
B--------------|---------------||-------------|-------------|-------------|-------------|
G--------------|---------------||-------------|-------------|-------------|-------------|
D--------------|---------------||-------------|-------------|-------------|-------------|
A--------------|---------------||--2----------|-------------|--5----------|-------------|
D--------------|------12\------||--2----------|-------------|--5----------|-------------|


e--------------|---------------||-------------|-------------|-------------|-------------|
B--------------|---------------||-------------|-------------|-------------|-------0--0--|
G--------------|---------------||-------------|-------------|-------------|-------0--0--|
D--------------|---------------||-------------|-------------|-------------|-------------|
A--------------|---------------||--2----------|-------------|--5----------|-------------|
D--------------|---------------||--2----------|-------------|--5----------|-------------|


e------------------|-----------------|-------------------|-------------------|
B------------------|-----------------|-------------------|-------------------|
G--7--7--7--7--6---|-7--7--7--7--6---|-7--7--7--7--7--7--|-7--7--7--7--7--7--|
D--x--x--x--x--x---|-x--x--x--x--x---|-x--x--x--x--x--x--|-x--x--x--x--x--x--|
A--5--5--5--5--4---|-5--5--5--5--4---|-5--5--5--5--5--5--|-5--5--5--5--5--5--|
D------------------|-----------------|-------------------|-------------------|


e-------------------|-------------------|------------------|-------------------|
B-------------------|-------------------|------------------|-------------------|
G-------------------|-------------------|------------------|-------------------|
D--7--7--7--7--7--7-|-4--4--4--4--4--4--|------------------|-------------------|
A--5--5--5--5--5--5-|-2--2--2--2--2--2--|-5--5--5--5--5--5-|-5--5--5--5--------|
D-------------------|-------------------|-5--5--5--5--5--5-|-5--5--5--5--0--0--|

Gtr 2&3                                          P.S   
e---------------|--------------|--------------|---------------------------|
B---------------|--------------|--------------|---------------------------|
G---------------|--------------|--------------|---------------------------|
D---------------|--------------|--------------|---------------------------|
A----2----------|--------------|----5---------|---------------------------|
D----2----------|--------------|----5---------|--x\\\\\-x\\\\\-x\\\\\\----|

Gtr 3
e------------------|-----------------|-------------------|-------------------|
B------------------|-----------------|-------------------|-------------------|
G--7--7--7--7--6---|-7--7--7--7--6---|-7--7--7--7--7--7--|-7--7--7--7--6-----|
D--x--x--x--x--x---|-x--x--x--x--x---|-x--x--x--x--x--x--|-x--x--x--x--x-----|
A--5--5--5--5--4---|-5--5--5--5--4---|-5--5--5--5--5--5--|-5--5--5--5--4-----|
D------------------|-----------------|-------------------|-------------------|

Gtr 2
e-------------------|-------------------|------------------|-------------------|
B-------------------|-------------------|------------------|-------------------|
G-------------------|-------------------|------------------|-------------------|
D--7--7--7--7--7--7-|-4--4--4--4--4--4--|------------------|-------------------|
A--5--5--5--5--5--5-|-2--2--2--2--2--2--|-5--5--5--5--5--5-|-5--5--5--5--5--5--|
D-------------------|-------------------|-5--5--5--5--5--5-|-5--5--5--5--5--5--|

e------------------|----------------|--------------|---------------------||
B------------------|----------------|--------------|---------------------||
G--7--7--7--7--6---|---7------------|--------------|---------------------||
D--x--x--x--x--x---|---x------------|--------------|---------------------||
A--5--5--5--5--4---|---5------------|---5----------|---------------------||
D------------------|----------------|---5----------|---------------------||


e---------------------|-----------------|-------------|---------------------||
B---------------------|-----------------|-------------|---------------------||
G---------------------|--4--------------|-------------|-------------0---0---||
D--7--7--7--7--7--7---|--4--------------|-------------|-------------0---0---||
A--5--5--5--5--5--5---|--2--------------|--5----------|-------------0---0---||
D---------------------|-----------------|--5----------|-------------0---0---||

Chorus
e||--------------------|-------------------|-------------------|---------------------||
B||.-------------------|-------------------|-------------------|-10-10-10-10-10-10--.||
G||--7--7--7--7--7--7--|-4--4--4--4--4--4--|-------------------|--9--9--9--9--9--9---||
D||--x--x--x--x--x--x--|-x--x--x--x--x--x--|-5--5--5--5--5--5--|--7--7--7--7--7--7---||
A||.-5--5--5--5--5--5--|-2--2--2--2--2--2--|-x--x--x--x--x--x--|--7--7--7--7--7--7--.||
D||--------------------|-------------------|-5--5--5--5--5--5--|---------------------||


e||--------------------|-------------------|-------------------|--------------------||
B||.-------------------|-------------------|-------------------|-------------------.||
G||--------------------|-------------------|-------------------|--------------------||
D||--7--7--7--7--7--7--|-4--4--4--4--4--4--|-------------------|--------------------||
A||.-5--5--5--5--5--5--|-2--2--2--2--2--2--|-5--5--5--5--5--5--|--7--7--7--7--7--7-.||
D||--------------------|-------------------|-5--5--5--5--5--5--|--7--7--7--7--7--7--||

Gtr 3
e---------------------|-------------------|--------------------|------------------||
B---------------------|-------------------|--------------------|------------------||
G--7--7--7--7--7--7---|-4--4--4--4--4--4--|--------------------|------------------||
D--x--x--x--x--x--x---|-x--x--x--x--x--x--|--5--5--5--5--5--5--|------------------||
A--5--5--5--5--5--5---|-2--2--2--2--2--2--|--x--x--x--x--x--x--|-7--7--7--7--7--7-||
D---------------------|-------------------|--5--5--5--5--5--5--|-7--7--7--7--7--7-||

Interlude
Gtr 3
e-----------------|-------------------|------------------|----------------------|
B-----------------|-------------------|------------------|----------------------|
G--7-x-9-9--x-11--|-11-11-12--11--7---|--7--x-9-9--x-11--|-11-11--9--(9)/11--9--|
D--x-x-x-x--x--x--|--x--x--x---x--x---|--x--x-x-x--x--x--|--x--x--x--(-)/-x--x--|
A--5-x-7-7--x--9--|--9--9-10---9--5---|--5--x-7-7--x--9--|--9--9--7--(7)/-9--7--|
D-----------------|-------------------|------------------|----------------------|

Verse
Gtr 3
e------------------|----------------|-----------------|-------------------|
B------------------|----------------|-----------------|-------------------|
G---7--------------|----------------|-----------------|-------------------|
D---x--------------|----------------|-----------------|-------------------|
A---5--------------|----------------|-----------------|-------------------|
D------------------|----------------|-----------------|-------------------|

Gtr 2
    p.m.----------------------------|   p.m.-------------------------|
e----------------|-----------------|-----------------|-----------------|
B----------------|-----------------|-----------------|-----------------|
G----------------|-----------------|-----------------|-----------------|
D-7--7-7--7-7-7--|-7--7-7--7-7-7---|-4--4-4--4-4-4---|-4--4-4--4-4-4---|
A-5--5-5--5-5-5--|-5--5-5--5-5-5---|-2--2-2--2-2-2---|-2--2-2--2-2-2---|
D----------------|-----------------|-----------------|-----------------|

     p.m.-------------------------|    p.m.-------------------------|
e-----------------|----------------|----------------|----------------|
B-----------------|----------------|----------------|----------------|
G-----------------|----------------|----------------|----------------|
D-----------------|----------------|----------------|----------------|
A--2--2-2--2-2-2--|-2--2-2--2-2-2--|-5--5-5--5-5-5--|-5--5-5--5-5-5--|
D--2--2-2--2-2-2--|-2--2-2--2-2-2--|-5--5-5--5-5-5--|-5--5-5--5-5-5--|

Gtr 3
e------------------|-----------------|-------------------|-------------------||
B------------------|-----------------|-------------------|-------------------||
G--7--7--7--7--6---|-7--7--7--7--6---|-7--7--7--7--7--7--|-7--7--7--7--7--7--||
D--x--x--x--x--x---|-x--x--x--x--x---|-x--x--x--x--x--x--|-x--x--x--x--x--x--||
A--5--5--5--5--4---|-5--5--5--5--4---|-5--5--5--5--5--5--|-5--5--5--5--5--5--||
D------------------|-----------------|-------------------|-------------------||

Gtr 2&3
e----------------|---------------------|--------------------------||
B----------------|---------------------|--------------------------||
G----------------|---------------------|--------------------------||
D----------------|---------------------|--------------------------||
A--0-------------|---------------------|--------------------------||
D--0-------------|---------------------|--------------------------||

                                           
                                        Handle This
Drop D Tuning
D-A-D-G-B-E

Intro 
Gtr 3 (dist)
e-------------------------------------------|---------------------------------||
B-------------------------------------------|--------------------------------.||
G---------11-12-14--(14)\--x-x-11-/-12-11-9-|-(9)\7--7--7--7--7--7-11-/-12-11-||
D----------x--x--x--(--)\--x-x--x-/--x--x-x-|-(-)\---x--x--x--x--x--x-/--x--x-||
A----------9-10-12--(12)\--x-x--9-/-10--9-7-|-(7)\5--5--5--5--5--5--9-/-10--9.||
D-------------------------------------------|---------------------------------||

Gtr 1&2 (dist)
e-------------------------------------------|-----------------------------------||
B-------------------------------------------|----------------------------------.||
G-------------------------------------------|-----------------------------------||
D-------------------------------------------|-----------------------------------||
A--0---0--------------7----7----------------|-5--5--x--x--x--x--5--5-x--x--x--x.||
D--0---0--------------7----7----------------|-5--5--x--x--x--x--5--5-x--x--x--x-||

Verse
e-------------------|--------------------|------------------------|
B-------------------|--------------------|------------------------|
G---7---------------|--------------------|------------------------|
D---x---------------|--------------------|------------------------|
A---5---------------|--------------------|------------------------|
D-------------------|--------------------|------------------------|


e-------------------|--------------------|------------------------|
B-------------------|--------------------|------------------------|
G-------------------|--------------------|------------------------|
D-------------------|--------------------|------------------------|
A---0---------------|--------------------|------------------------|
E---0---------------|--------------------|------------------------|

Gtr 1&2
p.m.-----------------------------------------------------------------
e----------------------------------|----------------------------------|
B----------------------------------|----------------------------------|
G----------------------------------|----------------------------------|
D-7-7-7-7-7-7-7-7-7-7-7-7-7-7-7----|-2-2-2-2-2-2-2-2-2-2-2-2-2-2-2-2--|
A-5-5-5-5-5-5-5-5-5-5-5-5-5-5-5-0--|-0-0-0-0-0-0-0-0-0-0-0-0-0-0-0-0--|
D----------------------------------|----------------------------------|

p.m.----------------------------|
e----------------------------------|-----------------------------------||
B----------------------------------|-----------------------------------||
G----------------------------------|-----------------------------------||
D-4-4-4-4-4-4-4-4-4-4-4-4-4-4-4----|--------------------------------0--||
A-2-2-2-2-2-2-2-2-2-2-2-2-2-2-2-0--|-5-5-5-5-5-5-5-5-5-5-5-5-5-5-5--0--||
D----------------------------------|-5-5-5-5-5-5-5-5-5-5-5-5-5-5-5-----||

Chorus
e---------------------------|-----------------------------|-----------------------|
B---------------------------|-----------------------------|-----------------------|
G---------------------------|-7--7--7---------------------|-----------------------|
D-4--4--4--4----------------|-7--7--7--7---2--2---2--2--2-|-----------------------|
A-2--2--2--2p0-5--5--5--5---|-5--5--5--5p0-0--0---0--0--0-|-2-2-2-2-2-5-5-5-5-5---|
D--------------5--5--5--5p0-|-----------------------------|-2-2-2-2-2-5-5-5-5-5---|


e-----------------------------|----------------------------------------||
B-----------------------------|----------------------------------------||
G-----------------------------|----------------------------------------||
D-7--7--7--7---2--2--2--2--2--|----------------------------------------||
A-5--5--5--5p0-0--0--0--0--0--|-2--2--2--2--2--5--5--5--5--5--5--5--5--||
D-0--0--0--0------------------|-2--2--2--2--2--5--5--5--5--5--5--5--5--||

Interlude
Gtr 3
p.m -------|  p.m   p.m------|          p.m------|        p.m------|
e-------------------------------------|--------------------------------------|
B-------------------------------------|--------------------------------------|
G------------6---7-------------6---7--|------------6---7-------------6---7\--|
D-7--7--7--7---7----7--7--7--7---7----|-7--7--7--7---7----7--7--7--7---7-----|
A-------------------------------------|--------------------------------------|
E-------------------------------------|--------------------------------------|

Gtr 1&2
p.m.------------------------------------------------------------------
e---------------------------------|------------------------------------|
B---------------------------------|------------------------------------|
G---------------------------------|------------------------------------|
D-2-2-2-2-2-2-2-2-2-2-2-2-2-2-2-2-|-4-4-4-4-4-4-4-4-4-4-4-4-4-4-4-4-4--|
A-0-0-0-0-0-0-0-0-0-0-0-0-0-0-0-0-|-2-2-2-2-2-2-2-2-2-2-2-2-2-2-2-2-2--|
D---------------------------------|------------------------------------|

Gtr 2
e----------------------------------|----------------------------------------------||
B----------------------------------|----------------------------------------------||
G----------------------------------|-11-11-11-11-12-12-12-12-11-11-11-11----------||
D----------------------------------|--x--x--x--x--x--x--x--x--x--x--x--x----------||
A-5-5-5-5-5-5-5-5-5-5-5-5-5-5-5-5--|--9--9--9--9-10-10-10-10--9--9--9--9----------||
D-5-5-5-5-5-5-5-5-5-5-5-5-5-5-5-5--|-------------------------------------2-2-2-0--||

Gtr 1
e----------------------------------|-------------------------------------------------||
B----------------------------------|-------------------------------------------------||
G----------------------------------|-7--7--7--7--9--9--9--9-11-11-11-11--9--9--9--9\-||
D----------------------------------|-x--x--x--x--x--x--x--x--x--x--x--x--x--x--x--x\-||
A-5-5-5-5-5-5-5-5-5-5-5-5-5-5-5-5--|-5--5--5--5--7--7--7--7--9--9--9--9--7--7--7--7\-||
D-5-5-5-5-5-5-5-5-5-5-5-5-5-5-5-5--|-------------------------------------------------||

Guitar Solo
Gtr 3                        ^1/2                                 ^1/2
e-------------------14----14-------|-----------10-12-10-12/14--14-------------|
B-----------17--15-------------15--|-(15)\-/12-------------------------15-----|
G-------14-------------14----------|------------------------------------------|
D--/16-----------------------------|------------------------------------------|
A----------------------------------|------------------------------------------|
D----------------------------------|------------------------------------------|

Gtr 1&2
e----------------------------------|-----------------------------------------|
B----------------------------------|-----------------------------------------|
G----------------------------------|-----------------------------------------|
D-7--7--7--7--7--------------------|-----------------------------------------|
A-5--5--5--5--5--7--7---7----7--7--|-2--2--2--2--2--5---5---5----5---5---5---|
D----------------7--7---7----7--7--|-2--2--2--2--2--5---5---5----5---5---5---|

Gtr 3
e--------------------------------------|-------------------------------------------|
B--15-\-/12--10------------------------|-------------------------------------------|
G----------------12--11-12/14-14-11h12-|-14-14-14/16-14-12-11-----12--11-----------|
D--------------------------------------|-----------------------14--------12-12-----|
A--------------------------------------|-------------------------------------------|
D--------------------------------------|-------------------------------------------|

e-10-12-14-12-10-14/15-14--12-|-12p10----12p10----12p10----12p10----||-10-------|---------|
B-10-10-10-10-10-10----10--10-|-10----10-------10-------10-------10-||-10-------|---------|
G-----------------------------|-------------------------------------||----------|---------|
D-----------------------------|-------------------------------------||----------|---------|
A-----------------------------|-------------------------------------||----------|---------|
D-----------------------------|-------------------------------------||----------|---------|

Gtr 1&2
e------------------------------||---------------------------|------------------------------|
B------------------------------||---------------------------|------------------------------|
G------------------------------||---------------------------|------------------------------|
D------------------------------||---------------------------|------------------------------|
A-2--2--2--2--2--2--2--2--2--2-||-5--5--5--5--5--5--5--5--5-|-5--5--5--5--5--5--5--5--5--5-|
D-2--2--2--2--2--2--2--2--2--2-||-5--5--5--5--5--5--5--5--5-|-5--5--5--5--5--5--5--5--5--5-|


Gtr 4                                             ~~~~~
e---------------------------|---------------------------|------------------|
B---------------------------|---------------------------|------------------|
G---------------------------|---------11--12-/-14-------|------------------|
D---------------------------|---------------------------|------------------|
A---------------------------|---------------------------|------------------|
D---------------------------|---------------------------|------------------|

Gtr 3          ~~~~~~~~~                      ~~~~~~~
e----------------------------|-----------------------------|---------------|
B----------------------------|-----------------------------|---------------|
G------7-9-/-11----------11\-|--------7-9-/-11--------11\--|---------------|
D----------------------------|-----------------------------|---------------|
A----------------------------|-----------------------------|---------------|
D----------------------------|-----------------------------|---------------|

Gtr 1&2
e----------------------------|----------------------------|------------------------|
B----------------------------|----------------------------|------------------------|
G----------------------------|----------------------------|------------------------|
D--7-7-----------------------|----------------------------|------------------------|
A--5-5-----------------------|-0---0--------------x-x-x-x-|-7--7--7--7--7--7--7--7-|
D----------------------------|-0---0--------------x-x-x-x-|-7--7--7--7--7--7--7--7-|

                                                      p.m.----------------|
e---------------------------|------------------------|---------------------------------||
B---------------------------|------------------------|---------------------------------||
G---------------------------|------------------------|---------------------------------||
D---------------------------|------------------------|---------------------------------||
A-2--2--2--2--2--2--2--2----|-5--5--5--5--5--5--5--5-|-5-5-5-5-5-5-5-5-5-5-5-5-5-5-5-5-||
D-2--2--2--2--2--2--2--2p0--|-5--5--5--5--5--5--5--5-|-5-5-5-5-5-5-5-5-5-5-5-5-5-5-5-5-||

Gtr 1& 2
e----------------------------|------------------------------|
B----------------------------|------------------------------|
G-7--7-7-7--7--7-7-7-7-7-7---|------------------------------|
D-7--7-7-7--7--7-7-7-7-7-7---|------------------------------|
A-5--5-5-5--5--5-5-5-5-5-5p0-|-7--7-7-7--7--7-7-7-7-7--7----|
D----------------------------|-7--7-7-7--7--7-7-7-7-7--7-0--|

         harm--|
e--------------------------------|------------------------------------|----------------|
B----------------8---------------|------------------------------------|----------------|
G----------------7---------------|-7--7--7--7-------------------------|----------------|
D----------5--5--5---------------|-7--7--7--7--0----------------------|----------------|
A--5---5---------5---5--5--5--5--|-5--5--5--5--0--7--7--7--7--7--7----|----------------|
D--5---5---------5---5--5--5--5--|----------------7--7--7--7--7--7----|----------------|

Gtr 4
e----------------------------------|---------------------------------------|
B----------------------------------|---------------------------------------|
G--11-9-11---9-11-9-11-12-11-9-----|--11-11-9-11---9-11-9-11-12-11-9-------|
D------------------------------12--|---------------------------------12----|
A----------------------------------|---------------------------------------|
D----------------------------------|---------------------------------------|

Gtr 3
e-----------------------------------|---------------------------------------|
B-----------------------------------|---------------------------------------|
G-----------------------------------|---------------------------------------|
D-----------------------------------|---------------------------------------|
A--9-7-9---7--9--7--9--10--9--7--5--|--9--9--7--9---7--9--7--9--10--9--7--5-|
D-----------------------------------|---------------------------------------|


e-----------------------------------|---------------------------------------|
B-----------------------------------|---------------------------------------|
G--9----11---------12--12--12\-11---|--11--11--(11)-\-9--9---9--9--9--9--9--|
D------------12---------------------|---------------------------------------|
A-----------------------------------|---------------------------------------|
D-----------------------------------|---------------------------------------|

e-----------------------------------|--------------------------------------|
B-----------------------------------|--------------------------------------|
G-----------------------------------|--------------------------------------|
D-----------------------------------|--------------------------------------|
A--7---9--5----10--10--10-\-9-------|--9--9--(9)-\-7--7----7--7--7--7--7---|
D-----------------------------------|--------------------------------------|

Gtr 4
e----------------------------------|---------------------------------------|
B----------------------------------|---------------------------------------|
G-9-11-9-11---9-11-9-11-12-11-9----|--11-11-9-11---9-11-9-11-12-11-9-------|
D------------------------------12--|---------------------------------12----|
A----------------------------------|---------------------------------------|
D----------------------------------|---------------------------------------|

Gtr 3
e-----------------------------------|---------------------------------------|
B-----------------------------------|---------------------------------------|
G-----------------------------------|---------------------------------------|
D-----------------------------------|---------------------------------------|
A-7-9-7-9---7--9--7--9--10--9--7--5-|--9--9--7--9---7--9--7--9--10--9--7--5-|
D-----------------------------------|---------------------------------------|

Gtr 4
e-------------------------------|----------------------|---------------------------||
B-------------------------------|----------------------|---------------------------||
G--9--11------12--12--12-\-11---|-11--11--11-\-9--9----|---------------------------||
D---------12--------------------|----------------------|---------------------------||
A-------------------------------|----------------------|---------------------------||
D-------------------------------|----------------------|---------------------------||

Gtr 3
e------------------------------|-----------------------|---------------------------||
B------------------------------|-----------------------|---------------------------||
G------------------------------|-----------------------|---------------------------||
D------------------------------|-----------------------|---------------------------||
A--7---9--5---10--10--10-\-9---|--9---9---9-\-7--7-----|---------------------------||
D------------------------------|-----------------------|---------------------------||

Gtr 1&2
e------------------------------|-----------------------|---------------------------||
B---------------8--------------|-----------------------|---------------------------||
G---------5--5--7--------------|--7--7-----------------|---------------------------||
D---------------5--------------|--7--7-----------------|---------------------------||
A--5--5---------5--5--5--5--5--|--5--5--5-p-0-----7----|---------------------------||
D--5--5---------5--5--5--5--5--|------------------7----|---------------------------||



                                     Crazy Amanda Bunkface

Drop D Tuning
D-A-D-G-B-E

Verse
Gtr 1 (dist)
p.m.-----------------------------------------------------------------------|
e-------------------|------------------|------------------|-----------------|
B-------------------|------------------|------------------|-----------------|
G-------------------|------------------|------------------|-----------------|
D-------------------|------------------|------------------|-5-5-5-5-5-5-5---|
A-5-5-5-5-5-5-5-5-/-|-7-7-7-7-7-7-7-7--|-9-9-9-9-9-9-9----|-3-3-3-3-3-3-3-0-|
D-5-5-5-5-5-5-5-5-/-|-7-7-7-7-7-7-7-7--|-9-9-9-9-9-9-9-0--|-----------------|

Gtr 1
p.m.-|  p.m.-|   p.m.--|  p.m.-|  p.m.----|  p.m.--|  p.m.
e-----------------|------------------|------------------|-------------------|
B-----------------|------------------|------------------|-------------------|
G-----------------|------------------|------------------|-------------------|
D-----5-------5---|------------------|------------------|-5-5-5-5-5-5-5-----|
A-5-5-5-5-5-5-5---|-5-5-5-5-5-5-5----|-3-3-3-3-3-3-3----|-3-3-3-3-3-3-3-----|
D-5-5-5-5-5-5-5-0-|-4-4-4-4-4-4-4-0--|-3-3-3-3-3-3-3-0--|---------------0---|

p.m.-|  p.m.-|  p.m.--|   p.m.-|    p.m.---------------|
e-----------------|------------------|------------------|------------------||
B-----------------|------------------|------------------|------------------||
G-----------------|------------------|------------------|------------------||
D-----5-------5---|------------------|------------------|------------------||
A-5-5-5-5-5-5-5---|-5-5-5-5-5-5-5----|-3-3-3-3-3-3-3-3--|--3---------------||
D-5-5-5-5-5-5-5-0-|-4-4-4-4-4-4-4-0--|-3-3-3-3-3-3-3-3--|--3---------------||

Chorus
Gtr 1&2 (dist)
e-------------------|------------------|-------------------|------------------|
B-------------------|------------------|-------------------|------------------|
G--5-----------x--7-|-7--7-7-7-7-7--5--|-5-----------x--7--|-7--7-7-7-7-7--5--|
D--5-----------x--7-|-7--7-7-7-7-7--5--|-5-----------x--7--|-7--7-7-7-7-7--5--|
A--3--x--5--5--x--5-|-5--5-5-5-5-5--3--|-3--x--5--5--x--5--|-5--5-5-5-5-5--3--|
D-----x--5--5-------|------------------|----x--5--5--------|------------------|


e-------------------|------------------|-------------------|------------------||
B-------------------|------------------|-------------------|------------------||
G--5-----------x--7-|-7--7-7-7-7-7--5--|-5-----------x--7--|-7--7-7-7-7-7-----||
D--5-----------x--7-|-7--7-7-7-7-7--5--|-5-----------x--7--|-7--7-7-7-7-7-----||
A--3--x--5--5--x--5-|-5--5-5-5-5-5--3--|-3--x--5--5--x--5--|-5--5-5-5-5-5--0--||
D-----x--5--5-------|------------------|----x--5--5--------|------------------||

Interlude
e-------------------|--------------------|-----------------|------------------|
B-------------------|--------------------|-----------------|------------------|
G-------------------|------------------0-|-5--5-5-5-5-5-5--|--5-5-5-5-7-7-7---|
D-------------------|------------------0-|-5--5-5-5-5-5-5--|--5-5-5-5-7-7-7---|
A-5--5--5-----5--5--|--5--5---5--5--5----|-3--3-3-3-3-3-3--|--3-3-3-3-5-5-5---|
D-5--5--5--4--4--5--|--5--5---5--5--5----|-----------------|------------------|

Verse
Gtr 1&2
e------------------|------------------|------------------|-------------------|
B------------------|------------------|------------------|-------------------|
G------------------|------------------|------------------|-------------------|
D------------------|------------------|------------------|-------------------|
A---5-\------------|------------------|------------------|-------------------|
D---5-\------------|------------------|------------------|-------------------|

Gtr 3
e------------------|------------------|------------------|------------------|
B------------------|------------------|------------------|------------------|
G------------------|------------------|------------------|------------------|
D------------------|------------------|------------------|------------------|
A------------------|------------------|-2-2-2-2-2-2-2-2--|-3-3-3-3-3-3-3-3--|
D-5-5-5-5-5-5-5-5--|-7-7-7-7-7-7-7-7--|------------------|------------------|

Gtr 2
e------------------|------------------|------------------|------------------|
B------------------|------------------|------------------|------------------|
G------------------|------------------|------------------|------------------|
D-0-0-0-0-0-0-0-0--|-5-5-5-5-5-5-5-5--|-4-4-4-4-4-4-4-4--|-5-5-5-5-5-5-5-5--|
A------------------|------------------|------------------|------------------|
D------------------|------------------|------------------|------------------|

Gtr 1&2
e----------------|------------------|------------------|-----------------|
B----------------|------------------|------------------|-----------------|
G----------------|------------------|------------------|-----------------|
D----------------|------------------|------------------|-5--5--5-5-5-5---|
A-5--5--5-5-5-5--|--5--5--5-5-5-5---|-3--3--3-3-3-3----|-3--3--3-3-3-3---|
D-5--5--5-5-5-5--|--4--4--4-4-4-4---|-3--3--3-3-3-3----|-----------------|


e----------------|------------------|-----------------|-----------------||
B----------------|------------------|-----------------|-----------------||
G----------------|------------------|-----------------|-----------------||
D----------------|------------------|-----------------|-----------------||
A-5--5--5-5-5-5--|-5--5---5-5-5-5---|-3---3--3---3----|--3--------------||
D-5--5--5-5-5-5--|-4--4---4-4-4-4---|-3---3--3---3----|--3--------------||

Gtr 3

(Gtr 1&2 1st chorus)
e------------------|----------------------|-------------------|-----------------------|
B------------------|----------------------|-------------------|-----------------------|
G--9----7--7---11--|-11-11-11-11-11-11--9-|-9----7--7-----11--|-11-11-11-11-11-11--9--|
D--x----x--x----x--|--x--x--x--x--x--x--x-|-x----x--x------x--|--x--x--x--x--x--x--x--|
A--7----5--5----9--|--9--9--9--9--9--9--7-|-7----5--5------9--|--9--9--9--9--9--9--7--|
D------------------|----------------------|-------------------|-----------------------|

e------------------|----------------------|-------------------|----------------------|
B------------------|----------------------|-------------------|----------------------|
G--9----7--7---11--|-11-11-11-11-11-11--9-|-9----7--7-----11--|-11-11-11-11-11-11-\--|
D--x----x--x----x--|--x--x--x--x--x--x--x-|-x----x--x------x--|--x--x--x--x--x--x-\--|
A--7----5--5----9--|--9--9--9--9--9--9--7-|-7----5--5------9--|--9--9--9--9--9--9-\--|
D------------------|----------------------|-------------------|----------------------|

Interlude
Gtr 4
p.m.-----|          p.m.-----|           p.m.----|           p.m.-----|
e------------------|-------------------|-------------------|------------------------|
B------------------|-------------------|-------------------|------------------------|
G------------------|-------------------|-------------------|------------------------|
D------------------|-------------------|-------------------|------------------------|
A-0--2--0---2------|--0--2--0---2------|--0--2--0---2------|--0--2--0----4----5-----|
D-0--2--0---2------|--0--2--0---2------|--0--2--0---2------|--0--2--0----4----5-----|


e||-------------------|-------------------|------------------|------------------||
B||.------------------|-------------------|------------------|-----------------.||
G||-----------12---\--|---------12---\----|---------12---\---|------------------||
D||------------x---\--|----------x---\----|----------x---\---|------------------||
A||.----------10---\--|---------10---\----|---------10---\---|-----------------.||
D||-------------------|-------------------|------------------|------------------||
                                   
Gtr 4                                                                 Gtr 3
                                                                      Gtr 4
e----------------------|----------------------|----------------------|----------------------------------||
B----------------------|----------------------|----------------------|----------------------------------||
G----------------------|----------------------|----------------------|---7---7---7---7---7---7---7------||
D----------------------|----------------------|----------------------|---x---x---x---x---x---x---x------||
A-0--0--0--0--4---5----|-0--0--0--0--4---5----|-0--0--0--0--4---5----|-5-5-5-5-5-5-5-5-5-5-5-5-5-5-5----||
D-0--0--0--0--4---5----|-0--0--0--0--4---5----|-0--0--0--0--4---5----|-5---5---5---5---5---5---5---5--0-||

Bridge
Gtr 3
e--------------------|-------------------|------------------|------------------------|
B--7--7--7--7--7--7--|-8--8--8--8--8--8--|-12-12-12-12-12---|-10--10--8--8--8--8--7--|
G--7--7--7--7--7--7--|-9--9--9--9--9--9--|-12-12-12-12-12---|-11--11--9--9--9--9--7--|
D--------------------|-------------------|------------------|------------------------|
A--------------------|-------------------|------------------|------------------------|
D--------------------|-------------------|------------------|------------------------|

Gtr 4
e--------------------|-------------------|------------------|------------------------|
B--------------------|-------------------|------------------|------------------------|
G--------------------|-------------------|------------------|------------------------|
D--------------------|-------------------|------------------|------------------------|
A--0--0--0--0--0--0--|-2--2--2--2--2--2--|-5--5--5--5--5--5-|-7--7--7--7--7--7-------|
D--0--0--0--0--0--0--|-2--2--2--2--2--2--|-5--5--5--5--5--5-|-7--7--7--7--7--7-------|

Gtr 3
e--------------------|--------------------|---------------------|--------------------------||
B--10--x--8------7---|--10--x--8------7---|--10--x--8------7--7-|--8--8--8--8--8--8--8--8--||
G--11--x--9------7---|--11--x--9------7---|--11--x--9------7--7-|--9--9--9--9--9--9--9--9--||
D--------------------|--------------------|---------------------|--------------------------||
A--------------------|--------------------|---------------------|--------------------------||
D--------------------|--------------------|---------------------|--------------------------||

Gtr 4
e--------------------|--------------------|-------------------|--------------------------||
B--------------------|--------------------|-------------------|--------------------------||
G--------------------|--------------------|-------------------|--------------------------||
D--------------------|--------------------|-------------------|--------------------------||
A--7--x--7---7--7-\--|--7--x--7---7--7-\--|-7--x--7---7--7-\--|--7--7--7--7--7--7--7--7--||
D--7--x--7---7--7-\--|--7--x--7---7--7-\--|-7--x--7---7--7-\--|--7--7--7--7--7--7--7--7--||

Outro-Chorus
e------------------|-----------------------|-------------------|-------------------------|
B------------------|-----------------------|-------------------|-------------------------|
G-11---9--9---13---|-13--13-13-13-13-13-11-|-11---9--9---13----|-13--13-13-13-13-13-11---|
D--x---x--x----x---|--x---x--x--x--x--x--x-|--x---x--x----x----|--x---x--x--x--x--x--x---|
A--9---7--7---11---|-11--11-11-11-11-11--9-|--9---7--7---11----|-11--11-11-11-11-11--9---|
D------------------|-----------------------|-------------------|-------------------------|


e---------------------|----------------------|--------------------|----------------------|
B---------------------|----------------------|--------------------|----------------------|
G--7--x---------x--9--|-9--9--9--9--9--9--7--|-7--x---------x--9--|-9--9--9--9--9--9--7--|
D--7--x---------x--9--|-9--9--9--9--9--9--7--|-7--x---------x--9--|-9--9--9--9--9--9--7--|
A--5--x--7--7---x--7--|-7--7--7--7--7--7--5--|-5--x--7--7---x--7--|-7--7--7--7--7--7--5--|
D--------7--7---------|----------------------|-------7--7---------|----------------------|

e------------------|-----------------------|-------------------|----------------------|-------||
B------------------|-----------------------|-------------------|----------------------|-------||
G-11---9--9---13---|-13--13-13-13-13-13-11-|-11---9--9---13----|-13--13-13-13-13-13---|-------||
D--x---x--x----x---|--x---x--x--x--x--x--x-|--x---x--x----x----|--x---x--x--x--x--x---|-------||
A--9---7--7---11---|-11--11-11-11-11-11--9-|--9---7--7---11----|-11--11-11-11-11-11---|-7-\---||
D------------------|-----------------------|-------------------|--------------------7-|-7-\---||


e---------------------|----------------------|--------------------|--------------------|------||
B---------------------|----------------------|--------------------|--------------------|------||
G--7--x---------x--9--|-9--9--9--9--9--9--7--|-7--x---------x--9--|-9--9--9--9--9--9---|------||
D--7--x---------x--9--|-9--9--9--9--9--9--7--|-7--x---------x--9--|-9--9--9--9--9--9---|------||
A--5--x--7--7---x--7--|-7--7--7--7--7--7--5--|-5--x--7--7---x--7--|-7--7--7--7--7--7---|-7-\--||
D--------7--7---------|----------------------|-------7--7---------|------------------7-|-7-\--||


                                     All She's Got

Verse
Gtr 1 (dist)
e-------------|-------------|-------------------|--------------------|
B-------------|-------------|-------------------|--------------------|
G-------------|-------------|-------------------|--------------------|
D-------------|-------------|-------------------|-------4------------|
A-------------|-------------|-2--2--2--2--2--2--|-4--4--4--4--4--4---|
E-------------|-------------|-0--0--0--0--0--0--|-2--2--2--2--2--2---|


e--------------------|-------------------|--------------------|------------------|
B--------------------|-------------------|--------------------|------------------|
G-----4--4--4--4-----|-------------------|--------------------|------------------|
D--4--4--4--4--4-----|-------------------|--------------------|------------------|
A--2--2--2--2--2--6--|-6--6--6--6--6--2--|--2--2--2--2--2--2--|-4--4--4--4--4--4-|
E-----------------4--|-4--4--4--4--4--0--|--0--0--0--0--0--0--|-2--2--2--2--2--2-|


e--------------------|--------------------|-------------------|---------------------|
B--------------------|--------------------|-------------------|---------------------|
G--------------------|--------------------|-4--4--4--4--4-----|---------------------|
D--------------------|--------------------|-4--4--4--4--4-----|-----6--6--6--6------|
A--2--2--2--2--2--2--|-4--4--4--4--4--4---|-2--2--2--2--2--6--|--6--6--6--6--6--2---|
E--0--0--0--0--0--0--|-2--2--2--2--2--2---|----------------4--|--4--4--4--4--4--0---|


e------------------|---------------------|------------------|------------------||
B------------------|---------------------|------------------|------------------||
G------------------|---------------------|------------------|------------------||
D------------------|---------------------|------------------|------------------||
A--2---------------|-------------4---4---|--4---------------|------------------||
E--0---------------|-------------2---2---|--2---------------|------------------||

Chorus
e--------------------|-------------------|-------------------|--------------------|
B--------------------|-------------------|-------------------|--------------------|
G--4--4--4--4--4--4--|-------------------|-------------------|--------------------|
D--4--4--4--4--4--4--|-------------------|-------------------|--------------------|
A--2--2--2--2--2--2--|-2--2--2--2--2--2--|-4--4--4--4--4-----|-2--2--2--2--2--2---|
E--------------------|-0--0--0--0--0--0--|-2--2--2--2--2--0--|-0--0--0--0--0--0---|

Interlude
Gtr 2 (dist)
Wah Wah                 ~~~~
e--------------------|-------------------|-------------------|--------------------|
B--------------------|-------------------|-------------------|--------------------|
G--------------------|-------------------|-------------------|--------------------|
D----4----2-----1----|-2-----2------1----|--4------2-------1-|---2/4-------2---1--|
A--------------------|-------------------|-------------------|--------------------|
E--------------------|-------------------|-------------------|--------------------|


e-------------------|---------------------|------------------|------------------|
B-------------------|---------------------|------------------|------------------|
G-------------------|---------------------|------------------|------------------|
D-----2--2--2---1---|-----2--2--2---1-----|-------2----1-----|---4-----2-----1--|
A--2----------------|--2------------------|---2--------------|------------------|
E-------------------|---------------------|------------------|------------------|

Verse 
Gtr 1
e-------------------|--------------------|------------------|------------------|
B-------------------|--------------------|------------------|------------------|
G----4--------------|--------------------|------------------|------------------|
D----x--------------|--------------------|------------------|------------------|
A----2--------------|--------------------|------------------|------------------|
E-------------------|--------------------|------------------|------------------|

Gtr 2
e-------------------|---------------------|------------------|-----------------|
B-------------------|---------------------|------------------|-----------------|
G-------------------|---------------------|------------------|-----------------|
D-------------------|---------------------|------------------|-----------------|
A---2---------------|--(2)----------------|-----------(2)----|-----------------|
E-------------------|---------------------|------------------|-----------------|

Gtr 1
e-------------------|----------------------|------------------|----------------|
B-------------------|----------------------|------------------|----------------|
G---(4)-------------|----------------------|------------------|----------------|
D---(-)-------------|----------------------|------------------|----------------|
A---(2)-------------|----------------------|------------------|----------------|
E-------------------|----------------------|------------------|----------------|

Gtr 2
e-------------------|----------------------|------------------|----------------|
B-------------------|----------------------|------------------|----------------|
G---4-\-2-----------|----------------------|------------------|----------------|
D---x---------------|----------------------|------------------|----------------|
A---2---------------|----------------------|------------------|----------------|
E-------------------|----------------------|------------------|----------------|


e--------------------|---------------------|-------------------|---------------|
B--------------------|---------------------|-------------------|---------------|
G--------------------|---------------------|-------------------|---------------|
D--------------------|---------------------|-------------------|---------------|
A--------------------|---------------------|-------------------|---------------|
E--------------------|---------------------|-------------------|-------14-\--\-|

Gtr 1                                                  p.m.---------|
e-----------------|------------------|----------------|-------------------|
B-----------------|------------------|----------------|-------------------|
G-----------------|------------------|----------------|-------------------|
D-----------------|------------------|----------------|-------------------|
A---2-------------|------------------|----4-----------|--4--4--4--4--4----|
E---0-------------|------------------|----2-----------|--2--2--2--2--2----|

Guitar Solo
Gtr 3 (dist)
e---------------------|----------------------|--------------------|-----------------|
B---------------------|----------------------|--------------------|-----------------|
G--8-----9-------11---|--11----9--------8----|---9------8---------|---9-----8-------|
D---------------------|----------------------|-----------------9--|--------------9--|
A---------------------|----------------------|--------------------|-----------------|
E---------------------|----------------------|--------------------|-----------------|

e---------------------|----------------------|--------------------|-----------------|
B---------------------|----------------------|--------------------|-----------------|
G--8-----9-------11---|--11----9--------8----|---9------8---------|---9-----8-------|
D---------------------|----------------------|-----------------9--|--------------9--|
A---------------------|----------------------|--------------------|-----------------|
E---------------------|----------------------|--------------------|-----------------|

Gtr 3
e-----------------11--|--11-----------------|-----------------11-|--11---------------|
B--12-----14----------|--------14------12---|--12-------14-------|--------14-----12--|
G---------------------|---------------------|--------------------|-------------------|
D---------------------|---------------------|--------------------|-------------------|
A---------------------|---------------------|--------------------|-------------------|
E---------------------|---------------------|--------------------|-------------------|

Gtr 2
e---------------------|---------------------|--------------------|--------------------|
B---------------------|---------------------|--------------------|--------------------|
G---8------9-----11---|--11----9-------8----|--8-----9------11---|-11----9-------8----|
D---------------------|---------------------|--------------------|--------------------|
A---------------------|---------------------|--------------------|--------------------|
E---------------------|---------------------|--------------------|--------------------|

Gtr 1
e--------------------|-------------------|--------------------|-------------------|
B--------------------|-------------------|--------------------|-------------------|
G--------------------|-------------------|--------------------|-------------------|
D--6--6--6--6--6--6--|-6--6--6--6--6--6--|--4--4--4--4--4--4--|--4--4--4--4--4--4-|
A--6--6--6--6--6--6--|-6--6--6--6--6--6--|--4--4--4--4--4--4--|--4--4--4--4--4--4-|
E--4--4--4--4--4--4--|-4--4--4--4--4--4--|--2--2--2--2--2--2--|--2--2--2--2--2--2-|

Gtr 2&3
 let ring
e--------------------|--------------------|-------------------|--------------------------|
B----12--------------|---12--12-----------|---12--------------|-12-----------------------|
G-------------11-----|-----------------11-|--------------11---|-----11-11-11-11-11-11-11-|
D--------------------|--------------------|-------------------|--------------------------|
A--------------------|--------------------|-------------------|--------------------------|
E--------------------|--------------------|-------------------|--------------------------|

Gtr 1
e--------------------|--------------------|-------------------|----------------------||
B--------------------|--------------------|-------------------|----------------------||
G--------------------|-/-9--9--9----------|-------------------|----------------------||
D--2--2--2--2--2--2--|-/-9--9--9----------|-2--2--2--2--2--2--|-2--2--2--2--2--2--2--||
A--2--2--2--2--2--2--|-/-7--7--7----------|-2--2--2--2--2--2--|-2--2--2--2--2--2--2--||
E--0--0--0--0--0--0--|-------------0---0--|-0--0--0--0--0--0--|-0--0--0--0--0--0--0--||

Bridge
Gtr 2& 3
Gtr 1
    ~~~~~~~~~~~~~~~~~~~~~~~~~~~~~~~~~~~~~~~~~~~~~~~~~~~~~~~~~~~~~~~~~~~~~~~~~~~~~~~~~~
e------------------|-----------------|----------------|------------------|-------------|
B-12---------------|-----------------|----------------|------------------|-------------|
G--4---------------|-----------------|----------------|------------------|-------------|
D--x---------------|-----------------|----------------|------------------|-------------|
A--2---------------|-----------------|----------------|------------------|-------------|
E------------------|-----------------|----------------|------------------|-------------|

Gtr 2 & 3
e------------|------------|----------------|---------------|---------------|-----------|
B---(12)-----|------------|----------------|---------------|---------------|-----------|
G------------|------------|----------------|---------------|---------------|-----------|
D------------|------------|----------------|---------------|---------------|-----------|
A------------|------------|----------------|---------------|---------------|-----------|
E------------|------------|----------------|---------------|---------------|-----------|

Gtr 1
e-------------|--------------|-----------------|---------------|----------------|----------|
B-------------|--------------|-----------------|---------------|----------------|----------|
G--4----------|--------------|--x--x----x--x---|-4--4--4--4----|----------------|----------|
D-------------|--------------|--x--x----x--x---|-4--4--4--4----|-2--2--2--2--2--|-4--4--4--|
A--2----------|--------------|--x--x----x--x---|-2--2--2--2----|-2--2--2--2--2--|-4--4--4--|
E-------------|--------------|-----------------|-2--2--2--2----|-0--0--0--0--0--|-2--2--2--|

e-----------------|-----------------|-----------------|-------------------|-----------|
B-----------------|-----------------|-----------------|-------------------|-----------|
G-----------------|--4--4--4--4-----|-----------------|-------------------|-----------|
D-2--2--2--2--2---|--4--4--4--4-----|--2--2--2--2--2--|--4-----4----------|-----------|
A-2--2--2--2--2---|--2--2--2--2-----|--2--2--2--2--2--|--4-----4----------|-----------|
E-0--0--0--0--0---|--2--2--2--2-----|--0--0--0--0--0--|--2-----2----------|-----------|

Gtr 1
e--------------------------|----------------------|---------------------|-----------------||
B--------------------------|----------------------|---------------------|-----------------||
G--------------------------|----------------------|----4----------------|-----------------||
D--------------------------|----------------------|----4----------------|-----------------||
A---4---4---4---4--4-------|--2-------------------|----2----------------|-----------------||
E---2---2---2---2--2--0----|--0-------------------|----2----------------|-----------------||



                                    Heart Attack


Intro 
Gtr 1 Capo 2 (clean)
e-------------------------|------------------------|------------------------|------------------------||
B------------5------------|----------5-------------|----------5-------------|----------5------------.||
G-----4------------4----4-|----4-----------4-----4-|----4-----------4-----4-|----4-----------4-----4-||
D--2-----2------2-----2---|-1-----1-----1-----1----|------------------------|------------------------||
A-------------------------|------------------------|-0-----0-----0-----0----|-0-----0-----0-----2---.||
E-------------------------|------------------------|------------------------|------------------------||

Verse
Gtr 2 (dist)
p.m.------------------------------------------------------------
e---------------------|----------------------|--------------------|
B---------------------|----------------------|--------------------|
G---------------------|----------------------|--------------------|
D---------------------|-3-3-3-3-3-3-3-3------|--4-4-4-4-4-4-4-4---|
A--4-4-4-4-4-4-4-4----|-4-4-4-4-4-4-4-4------|--6-6-6-6-6-6-6-6---|
E--2-2-2-2-2-2-2-2----|----------------------|--------------------|

p.m.--------------------------------------------------------------------------------|
e---------------------|----------------------|--------------------|------------------|
B---------------------|----------------------|--------------------|------------------|
G---------------------|----------------------|--------------------|------------------|
D--4-4-4-4-4-4-4-4----|----------------------|--3-3-3-3-3-3-3-3---|--4-4-4-4-4-4-4-4-|
A--6-6-6-6-6-6-6-6----|-4-4-4-4-4-4-4-4------|--4-4-4-4-4-4-4-4---|--6-6-6-6-6-6-6-6-|
E---------------------|-2-2-2-2-2-2-2-2------|--------------------|------------------|

Chorus
Gtr 4 (dist)
e---------------------||----------------------|--------------------|
B---------------------||-11--11--11--11-------|--9---9--\-7--7---7-|
G---------------------||--x---x---x---x-------|--x---x-------x---x-|
D---------------------||--8---8---8---8-------|--6---6--\-4--4---4-|
A---------------------||----------------------|--------------------|
E---------------------||----------------------|--------------------|

Gtr 3 (dist)
e----------------------||----------------------|----------------------|
B----------------------||----------------------|----------------------|
G----------------------||----------------------|-------------4--4--4--|
D--6--x--6--x--6--x--6-||----------------------|-------------4--4--4--|
A--4--x--4--x--4--x--4-||-4--4--4-----4--------|--2---2---2--2--2--2--|
E----------------------||-2--2--2-----2---0----|--0---0---0-----------|

e----------------------|--------------------|-------------------------|
B-11--11--11--11-------|--9---9--\-7--7---7-|--11----11----11----11---|
G--x---x---x---x-------|--x---x-------x---x-|---x-----x-----x-----x---|
D--8---8---8---8-------|--6---6--\-4--4---4-|---8-----8-----8-----8---|
A----------------------|--------------------|-------------------------|
E----------------------|--------------------|-------------------------|

e---------------------|-----------------------|--------------------|
B---------------------|-----------------------|--------------------|
G---------------------|--------------4---4--4-|--------------------|
D---------------------|--------------4---4--4-|--------------------|
A-4---4---4-----4-----|-2---2-----2--2---2--2-|--4---4---4----4----|
E-2---2---2-----2---0-|-0---0-----0-----------|--2---2---2----2--0-|

e--------------------|-------------------------|----------------------||
B--9---9--\-7--7---7-|--11----11----11----11---|--9----7----7----7-/--||
G--x---x-------x---x-|---x-----x-----x-----x---|--x----x----x----x----||
D--6---6--\-4--4---4-|---8-----8-----8-----8---|--6----4----4----4-/--||
A--------------------|-------------------------|----------------------||
E--------------------|-------------------------|----------------------||

e----------------------|----------------------|--------------------||
B----------------------|----------------------|--------------------||
G-------------4---4--4-|----------------------|---------4--4---4-/-||
D-------------4---4--4-|----------------------|---6-----4--4---4-/-||
A-2----2---2--2---2--2-|---4---4--4--4--------|---6-----2--2---2-/-||
E-0----0---0-----------|---2---2--2--2--------|---4----------------||

Interlude
Gtr 3 & 4
e---------------------|----------------------|--------------------|-----------------|
B---------------------|----------------------|--------------------|-----------------|
G--11-11-11-11-11-11--|-11-11-11-11-11-\-8---|-8--8--8--8--8--8---|-----------------|
D--11-11-11-11-11-11--|-11-11-11-11-11-\-8---|-8--8--8--8--8--8---|-----------------|
A---9--9--9--9--9--9--|--8--8--8--8--8-\-6---|-6--6--6--6--6--6---|-------------8---|
E---------------------|----------------------|--------------------|--6---7---9------|

e---------------------|----------------------|--------------------|-----------------|--------|----------||
B---------------------|----------------------|--------------------|-----------------|--------|----------||
G--11-11-11-11-11-11--|-11-11-11-11-11-\-8---|-8--8--8--8--8--8---|-----------------|--------|----------||
D--11-11-11-11-11-11--|-11-11-11-11-11-\-8---|-8--8--8--8--8--8---|-----------------|--------|----------||
A---9--9--9--9--9--9--|--8--8--8--8--8-\-6---|-6--6--6--6--6--6---|-----------------|--------|----------||
E---------------------|----------------------|--------------------|--6---7---6---7--|--9-----|----------||

Verse 
Gtr 3 & 4
e---------------------|----------------------|--------------------|-----------------|
B---------------------|----------------------|--------------------|-----------------|
G---------------------|----------------------|--------------------|-----------------|
D---------------------|----------------------|--------------------|-----------------|
A---------------------|----------------------|--------------------|-----------------|
E---------------------|----------------------|--------------------|---x----x----x---|

Gtr 4
p.m.--|  p.m-|    p.m.------|   p.m.---|    p.m.-|   p.m.-|   p.m.---|   p.m.--|
e---------------------|-----------------------|-------------------|-----------------|
B---------------------|-----------------------|-------------------|-----------------|
G---------------------|------10----------11---|-------------------|-----------------|
D---------------------|-11-11---11-11-11------|-4-4-4-4-4-4-4-----|-6-6-6-6-6-6-6---|
A--4-4-4-4-4-4-4-0----|---------------------0-|-2-2-2-2-2-2-2-----|-4-4-4-4-4-4-4---|
E--2-2-2-2-2-2-2-0----|-----------------------|----------------0--|---------------0-|

Gtr 3
p.m.--|  p.m.-|   p.m.-----|    p.m.----|   p.m.-|    p.m.-|   p.m.---|   p.m.-|
e---------------------|-----------------------|-------------------|-----------------|
B---------------------|-----------------------|-------------------|-----------------|
G---------------------|-----------------------|-------------------|-----------------|
D---------------------|-------8-----------9---|-4-4-4-4-4-4-4-----|-6-6-6-6-6-6-6---|
A--4-4-4-4-4-4-4-4-0--|-9--9-----9--9--9----0-|-2-2-2-2-2-2-2-----|-4-4-4-4-4-4-4---|
E--2-2-2-2-2-2-2-2-0--|-----------------------|---------------0---|---------------0-|

Gtr 3 & 4
e---------------------|----------------------||
B---------------------|----------------------||
G---------------------|----------------------||
D---4-----------------|--6--x--6--x--6--x--6-||
A---2-----------------|--4--x--4--x--4--x--4-||
E---------------------|----------------------||


After Chorus
Gtr 2
e---------------------|----------------------||
B--7-7---7-7---7-7----|--7-7---7-7-7-7-------||
G--x-x---x-x---x-x----|--x-x---x-x-x-x-------||
D--4-4---4-4---4-4----|--4-4---4-4-4-4-------||
A---------------------|----------------------||
E---------------------|----------------------||

Gtr 3 & 4
e---------------------|----------------------||
B---------------------|----------------------||
G---------------------|----------------------||
D---------------------|-----------------0----||
A--4---4--------------|-----------------0----||
E--2---2--------------|-----------/14\-------||

Interlude
Gtr 2 & 4
e||---------------------|----------------------|--------------------|------------------||
B||.-7-7---7-7---7-7----|--7-7----7-7-7-7------|--7-7----7-7---7-7--|--7-7----7-7-7-7-.||
G||--x-x---x-x---x-x----|--x-x----x-x-x-x------|--x-x----x-x---x-x--|--x-x----x-x-x-x--||
D||--4-4---4-4---4-4----|--4-4----4-4-4-4------|--4-4----4-4---4-4--|--4-4----4-4-4-4--||
A||.--------------------|----------------------|--------------------|-----------------.||
E||---------------------|----------------------|--------------------|------------------||

Gtr 3
e||---------------------|----------------------|--------------------|---------------------||
B||.--------------------|----------------------|--------------------|--------------------.||
G||---------------------|----------------------|--------------------|---------------------||
D||----------------4-4--|----------------------|----------------4-4-|---------------------||
A||.-4--4--2-2-2---2-2--|--2---2---1--2--1--0--|--4--4--2-2-2---2-2-|--2---2---1--2--1--0.||
E||--2--2--0-0-0--------|--0---0---------------|--2--2--0-0-0-------|--0---0--------------||

                        Verse
e---------------------||----------------------|--------------------|-----------------|
B--7--7---7-7-7-7-----||--7----(7)--\---------|--------------------|-----------------|
G--x--x---x-x-x-x-----||--x----(-)--\---------|--------------------|-----------------|
D--4--4---4-4-4-4-----||--4----(4)--\---------|--------------------|-----------------|
A---------------------||----------------------|--------------------|-----------------|
E---------------------||----------------------|--------------------|-----------------|

e---------------------||----------------------|--------------------|-----------------|
B---------------------||----------------------|--------------------|-----------------|
G---------------------||----------------------|--------------------|-----------------|
D--(4)----------------||----------------------|--------------------|-----------------|
A--(2)-2--2--1--2--1--||----------------------|--------------------|-----------------|
E------0--0----------4||--2-----(2)--\--------|--------------------|-----------------|


Gtr 5 (clean
e-------------------------|------------------------|------------------------|
B-------------------------|------------------------|------------------------|
G-------------------------|------------------------|------------------------|
D-------------------------|----3-----3-----3-----3-|----4-----4-----4-----4-|
A-----4-----4-----4-----4-|-4-----4-----4-----4----|-6-----6-----6-----6----|
E--2-----2-----2-----2----|------------------------|------------------------|

e-------------------------|--------------------------|-------------------------|
B-------------------------|--------------------------|-------------------------|
G-------------------------|--------------------------|-------------------------|
D----4-----4-----4-----4--|--------------------------|-----3-----3-----3-----3-|
A-6-----6-----6-----6-----|----4-----4-----4-----4---|--4-----4-----4-----4----|
E-------------------------|-2-----2-----2-----2------|-------------------------|

Gtr 3 & 4
e---------------------|----------------------|--------------------|------------------||
B---------------------|----------------------|--------------------|-6-x-6-x-6-x-6-x--||
G---------------------|----------------------|--8-----------------|-x-x-x-x-x-x-x-x--||
D-4-4-4-4-4-4-4-4-----|--6-6-6-6-6-6-6-------|--x-----------------|-3-x-3-x-3-x-3-x--||
A-2-2-2-2-2-2-2-2-----|--4-4-4-4-4-4-4-0-----|--6-----------------|------------------||
E---------------------|----------------------|--------------------|------------------||

Outro
Gtr 4
e---------------------|----------------------|--------------------|-------------------|
B--7-7--5-5-5-12-12---|--5-5--11-12-11-\-9---|-7-7--5-5-5--12-12--|-5-5--11-12-11-\-9-|
G--x-x--x-x-x--x--x---|--x-x---x--x--x-\-----|-x-x--x-x-x---x--x--|-x-x---x--x--x-\---|
D--4-4--2-2-2--9--9---|--2-2---8--9--8-\-6---|-4-4--2-2-2---9--9--|-2-2---8--9--8-\-6-|
A---------------------|----------------------|--------------------|-------------------|
E---------------------|----------------------|--------------------|-------------------|

                                                                                        Gtr 3
e---------------------|----------------------|--------------------|-------------------|-----------||
B--7-7--5-5-5-12-12---|--5-5--11-12-11-\-9---|-7-7--5-5-5--12-12--|-5-5--11-12-11-\-9-|--7--------||
G--x-x--x-x-x--x--x---|--x-x---x--x--x-\-----|-x-x--x-x-x---x--x--|-x-x---x--x--x-\---|--x--------||
D--4-4--2-2-2--9--9---|--2-2---8--9--8-\-6---|-4-4--2-2-2---9--9--|-2-2---8--9--8-\-6-|--4--------||
A---------------------|----------------------|--------------------|-------------------|-----------||
E---------------------|----------------------|--------------------|-------------------|-----------||


                                               Pain For Pleasure

Tune 1/2 Step Down
Eb-Ab-Db-Gb-Bb-eb

Intro
Gtrs 1& 2 (dist)
p.m.----------------------------------------------------------------|
eb----------------------------------|-----------------------------------|
Bb----------------------------------|-----------------------------------|
Gb----------------------------------|-----------------------------------|
Db----------------------------------|-----------------------------------|
Ab--7--7-7-7--7-7-7--7-7-7-7-7-7----|-7--7-7-7--7-7-7--7-7-7-7-7-7------|
Eb----------------------------------|-----------------------------------|

p.m.--------------------------------------------------------------------------------------------|
eb--------------------------------|-------------------------------|-------------------------------|
Bb--------------------------------|-------------------------------|-------------------------------|
Gb--------------------------------|-------------------------------|-------------------------------|
Db--------------------------------|-------------------------------|-------------------------------|
Ab-7--7-7-7--7-7-7--7-7-7-7-7-7---|-7--7-7-7--7-7-7--7-7-7-7-7-7--|-7--7-7-7--7-7-7--7-7-7-7-7-7--|
Eb--------------------------------|-------------------------------|-------------------------------|

p.m.---------------------------------------------------------------------------------------------|
eb--------------------------------|-------------------------------|-------------------------------|
Bb--------------------------------|-------------------------------|-------------------------------|
Gb--------------------------------|-------------------------------|-------------------------------|
Db--------------------------------|-------------------------------|-------------------------------|
Ab-7--7-7-7--7-7-7--7-7-7-7-7-7---|-7--7-7-7--7-7-7--7-7-7-7-7-7--|-7--7-7-7--7-7-7--7-7-7-7-7-7--|
Eb--------------------------------|-------------------------------|-------------------------------|

p.m.---------------------------------------------------------------------------------------------|
eb--------------------------------|-------------------------------|-------------------------------|
Bb--------------------------------|-------------------------------|-------------------------------|
Gb--------------------------------|-------------------------------|-------------------------------|
Db--------------------------------|-------------------------------|-------------------------------|
Ab-7--7-7-7--7-7-7--7-7-7-7-7-7---|-7--7-7-7--7-7-7--7-7-7-7-7-7--|-7--7-7-7--7-7-7--7-7-7-7-7-7--|
Eb--------------------------------|-------------------------------|-------------------------------|

p.m.-------------------------------------------------------------------------------|
eb---------------------------|---------------------------|----------------------------------------|
Bb---------------------------|---------------------------|----------------------------------------|
Gb---------------------------|---------------------------|----------------------------------------|
Db---------------------------|---------------------------|----------------------------------------|
Ab-7-7-7-7-7-7-7-7-7-7-7-7-7-|-9-9-9-9-9-9-9-9-9-9-9-9-9-|-10-10-10-10-10-10-10-10-10-10-10-10-10-|
Eb---------------------------|---------------------------|----------------------------------------|

eb------------------------------------|
Bb------------------------------------|
Gb------------------------------------|
Db------------------------------------|
Ab-12-12-12-12-12-12-12-12-12-12--\---|
Eb------------------------------------|

Gtr 2

p.m.---------------------------------------------------------------------------------------------|
eb--------------------------------|-------------------------------|-------------------------------|---------------------|
Bb--------------------------------|-------------------------------|-------------------------------|---------------------|
Gb--------------------------------|-------------------------------|-------------------------------|---------------------|
Db--------------------------------|-------------------------------|-------------------------------|---------------------|
Ab-7--7-7-7--7-7-7--7-7-7-7-7-7---|-7--7-7-7--7-7-7--7-7-7-7-7-7--|-7--7-7-7--7-7-7--7-7-7-7-7-7--|-7-7-7-7-7-7-7-7-7-\-|
Eb--------------------------------|-------------------------------|-------------------------------|---------------------|

Gtr 3 (dist)
                    ~~                       ~~~                   ~~~                 ~~~
eb---------------------|-----------------------|---------------------|-------------------|
Bb---------------------|-----------------------|---------------------|-------------------|
Gb---------------------|-----------------------|---------------------|-------------------|
Db---------------------|-----------------------|---------------------|-------------------|
Ab-----9-/-10----9--7--|---------9-/-10---9--7-|------9-/-10---9---7-|------9-/-10--9--7-|
Eb---------------------|-----------------------|---------------------|-------------------|

Gtr 1 & 2
eb---------------------|----------------------|--------------------|-------------------|
Bb---------------------|----------------------|--------------------|-------------------|
Gb---------------------|----------------------|--------------------|-------------------|
Db-5--5----------------|--4--4----------------|--2--2--------------|--0--0-------------|
Ab-7--7----------------|--5--5----------------|--3--3--------------|--2--2-------------|
Eb---------------------|----------------------|--------------------|-------------------|

Gtr 4 (dist)
                    ~~~                       ~~~~                 
eb-----------------------|------------------------|---------------------|------------------|
Bb-----------------------|------------------------|---------------------|------------------|
Gb-----------------------|------------------------|---------------------|------------------|
Db--------7-/-9---7------|---------7-/-9--7-------|------7-/-9-7-----10-|--10--9--7--------|
Ab------------------10---|-------------------10---|--------------10-----|------------9h10--|
Eb-----------------------|------------------------|---------------------|------------------|

Gtr 3
eb-----------------------|------------------------|---------------------|------------------|
Bb-----------------------|------------------------|---------------------|------------------|
Gb-----------------------|------------------------|---------------------|------------------|
Db--0--0-----------------|--0--0------------------|-----------------7---|--7--5--4---------|
Ab--2--2-----------------|--2--2------------------|--9h10---9---7-------|-----------5h7----|
Eb-----------------------|------------------------|---------------------|------------------|

Gtr 4
eb--------7--5----5--------|----7--5----5----------|--7--5----5----------|-----7--5----5--------|
Bb--------------8----8--7--|----------8-----8--5---|--------8----8--4----|--4--------8----7--8--|
Gb-------------------------|-----------------------|---------------------|----------------------|
Db-------------------------|-----------------------|---------------------|----------------------|
Ab--(10)-------------------|-----------------------|---------------------|----------------------|
Eb-------------------------|-----------------------|---------------------|----------------------|

Gtr 3
eb-------3--2--0-2--0------|----3--2--0-2--0-------|---3--2--0-2---0-----|-----3--2--0-2-----0--|
Bb--------------------3----|------------------1----|------------------0--|--0-------------4-----|
Gb-------------------------|-----------------------|---------------------|----------------------|
Db-------------------------|-----------------------|---------------------|----------------------|
Ab-(7)---------------------|-----------------------|---------------------|----------------------|
Eb-------------------------|-----------------------|---------------------|----------------------|

Gtr 1&2
p.m.----------------------------------------------------------------------------------------------------|
eb-------------------------|-------------------------|-------------------------|-------------------------|
Bb-------------------------|-------------------------|-------------------------|-------------------------|
Gb-------------------------|-------------------------|-------------------------|-------------------------|
Db-5-5-5-5-5-5-5-5-5-5-5-5-|-4-4-4-4-4-4-4-4-4-4-4-4-|-2-2-2-2-2-2-2-2-2-2-2-2-|-0-0-0-0-0-0-0-0-0-0-----|
Ab-7-7-7-7-7-7-7-7-7-7-7-7-|-5-5-5-5-5-5-5-5-5-5-5-5-|-3-3-3-3-3-3-3-3-3-3-3-3-|-2-2-2-2-2-2-2-2-2-2-7-7-|
Eb-------------------------|-------------------------|-------------------------|-------------------------|

Gtr 4
eb--------7--5----5--------|----7--5----5----------|--7--5----5----------|-----7--5----5--------||
Bb-(8)-8--------8----8--7--|--7-------8-----8--5---|-5------8----8--4----|--4--------8----7--8--||
Gb-------------------------|-----------------------|---------------------|----------------------||
Db-------------------------|-----------------------|---------------------|----------------------||
Ab-------------------------|-----------------------|---------------------|----------------------||
Eb-------------------------|-----------------------|---------------------|----------------------||

Gtr 3
eb-(0)--0-3--2--0-2--0-----|----3--2--0-2--0-------|---3--2--0-2---0-----|-----3--2--0-2-----0--||
Bb--------------------3----|------------------1----|------------------0--|--0-------------4-----||
Gb-------------------------|-----------------------|---------------------|----------------------||
Db-------------------------|-----------------------|---------------------|----------------------||
Ab-------------------------|-----------------------|---------------------|----------------------||
Eb-------------------------|-----------------------|---------------------|----------------------||

Verse
Gtr 4
Gtr 3
eb-----------------------|-------------------------|---------------------|------------------------|
Bb-(8)-------------------|-------------------------|---------------------|------------------------|
Gb-----------------------|-------------------------|---------------------|------------------------|
Db--5-------------5------|--4----------------4-----|--2--------------2---|--0---------------------|
Ab--7-------------7------|--5----------------5-----|--3--------------3---|--2---------------------|
Eb-----------------------|-------------------------|---------------------|------------------------|

Gtr 3
eb-----------------------|-------------------------|---------------------|----------------------|
Bb-----------------------|-------------------------|---------------------|----------------------|
Gb-----------------------|-------------------------|---------------------|----------------------|
Db-----------------------|-------------------------|---------------------|----------------------|
Ab--7-------------7-/-9--|--9-------------9--------|-10-------------10-/-|-14--------------14-\-|
Eb-----------------------|-------------------------|---------------------|----------------------|

Gtr 3
eb----------------------|--------------------------|----------------------------|
Bb----------------------|--------------------------|----------------------------|
Gb--9-------------9-----|-11------------11-/-12----|--12--------------12--/-----|
Db--x-------------x-----|--x-------------x-/-------|---x---------------x--/-----|
Ab--7-------------7-----|--9-------------9-/-10----|--10--------------10--/-----|
Eb----------------------|--------------------------|----------------------------|

Gtr 1 & 2
p.m.---------------------------------------------------------------------------|
eb--------------------------|-------------------------|---------------------------|
Bb--------------------------|-------------------------|---------------------------|
Gb--------------------------|-------------------------|---------------------------|
Db--5-5-5-5-5-5-5-5-5-5-5-5-|-4-4-4-4-4-4-4-4-4-4-4-4-|-2-2-2-2-2-2-2-2-2-2-2-2---|
Ab--7-7-7-7-7-7-7-7-7-7-7-7-|-5-5-5-5-5-5-5-5-5-5-5-5-|-3-3-3-3-3-3-3-3-3-3-3-3---|
Eb--------------------------|-------------------------|---------------------------|

Gtr 4
Gtr 3
eb----------------------||---------------------|---------------------|-------------------------|
Bb--------------------8-||----------------12---|-(12)-\-8------------|--8--------------5-------|
Gb--/16--------(16)\--9-||----------------12---|-(12)-\-9------------|--9--------------5-------|
Db--/----------(--)\----||---------------------|---------------------|-------------------------|
Ab--/14--------(14)\----||---------------------|---------------------|-------------------------|
Eb----------------------||---------------------|---------------------|-------------------------|

Gtr 1 & 2
eb----------------------||---------------------|---------------------|------------------------|
Bb----------------------||---------------------|---------------------|------------------------|
Gb----------------------||---------------------|---------------------|------------------------|
Db--0-0-0-0-0-0-0-0-0---||---------------------|---------------------|-----------------5------|
Ab--2-2-2-2-2-2-2-2-2-2-||-----------------5---|---2-----------------|--2--------------3------|
Eb--------------------0-||---------------------|---------------------|--0---------------------|


eb-----------------------|----------------------|--------------------|-------------------------|
Bb--(5)--5--5--7---7-7---|--8-------------12----|-(12)-\-8-----------|--8------------(8)-\-5---|
Gb--(5)--5--5--7---7-7---|--9-------------12----|-(12)-\-9-----------|--9------------(9)-\-5---|
Db-----------------------|----------------------|--------------------|-------------------------|
Ab-----------------------|----------------------|--------------------|-------------------------|
Eb-----------------------|----------------------|--------------------|-------------------------|


eb------------------------|----------------------|-------------------|-------------------------|
Bb------------------------|----------------------|-------------------|-------------------------|
Gb------------------------|----------------------|-------------------|-------------------------|
Db-(5)--5--5--7---7--7-\--|----------------------|-------------------|-----------------5-------|
Ab-(3)--3--3--5---5--5-\--|--2----------------5--|--2----------------|--2--------------3-------|
Eb------------------------|--0-------------------|-------------------|--0----------------------|

eb------------------------|-----------------------|----------------------|----------------|-12--10--12--(12)-|
Bb--(5)-5--5--7---7--7--5-|--5--5--7---7--7--5----|--5--5--7---7--7-/-8--|-8--------------|-------------(--)-|
Gb--(5)-5--5--7---7--7--5-|--5--5--7---7--7--5----|--5--5--7---7--7-/-9--|-9--------------|--9---7---9---(9)-|
Db------------------------|-----------------------|----------------------|----------------|------------------|
Ab------------------------|-----------------------|----------------------|----------------|------------------|
Eb------------------------|-----------------------|----------------------|----------------|------------------|

eb------------------------|----------------------|-----------------------|----------------|------------------|
Bb------------------------|----------------------|-----------------------|----------------|------------------|
Gb------------------------|----------------------|-----------------------|----------------|--9--7---9--(9)---|
Db--(5)-5--5--7--7--7--5--|-5--5--7----7--7--5---|--5--5--7----7--7-/-9--|-9--------------|--9--7---9--(9)---|
Ab--(3)-3--3--5--5--5--3--|-3--3--5----5--5--3---|--3--3--5----5--5-/-7--|-7--------------|--7--5---7--(7)---|
Eb------------------------|----------------------|-----------------------|----------------|------------------|


7 comments total. Showing first comments.
0 reply
DAN2 wrote on September 26 2002, 12:00 am

These tabs r amazin m8

0 reply
roumen wrote on November 29 2002, 12:00 am

i know where you got these tabs from, this are from some tab-book, i was almost gonna buy it, 32 ?, thank god i didnt, in my opinion the tabs arent so correct, if u look at live sum 41 clips u'll see what i mean, but at least it sounds right

0 reply
cvscat54 wrote on January 25 2003, 12:00 am

thanks for taking the time, even if you did buy the tab book. Perfect on the in too deep solo.

I want to post or [tab]
guest
You may want to rate the tab now too:
select rating
Please do not post tabs as comments. Select "correction" instead!