Oops, an error
Loading. Please wait.

All The Good Stuff Tab

1,872 views 3 this week
3 commentsread comments
1 2 3 4 5
worth learning
x 1
Autoscroll
+/-
esc
set tempo
stop
Contributor
Difficulty
intermediate
Hey! There's an official Ultimate Guitar app which is ideal
for learning songs when you're away from computer. Get the app
WARNING: You are trying to view
                                    content from Ultimate-Guitar.com
                                    in an unauthorized application,
                                    which is prohibited.

                                    Please use an official Ultimate
                                    Guitar Tabs application for iPhone,
                                    iPad or Android to access legitimate
                                    chords, guitar, bass, and drum tabs
                                    from Ultimate-Guitar.com database.

                                    Type "ultimate guitar tabs" in Apple
                                    App Store's or Android Market's
                                    search to find the application.
1. Still Waiting


Intro:


|----------------------------------------------------------------------|
|----------------------------------------------------------------------|
|-9-9-9-9-9-9-9-9--5-5-5-5-5-5-5-5-------------------4-4-4-4-4-4-4-4---|
|-9-9-9-9-9-9-9-9--5-5-5-5-5-5-5-5--5-5-5-5-5-5-5-5--4-4-4-4-4-4-4-4---|
|-7-7-7-7-7-7-7-7--3-3-3-3-3-3-3-3--5-5-5-5-5-5-5-5--2-2-2-2-2-2-2-2---|
|-----------------------------------3-3-3-3-3-3-3-3--------------------|
PM* * * * * * * *  * * * * * * * *  * * * * * * * *  * * * * * * * *

|--------------------------------------------------------------------|
|--------------------------------------------------------------------|
|-9-9-9-9-9-9-9-9--5-5-5-5-5-5-5-5-------------------7-7-7-7-7-7-7-7~|
|-9-9-9-9-9-9-9-9--5-5-5-5-5-5-5-5--5-5-5-5-5-5-5-5--7-7-7-7-7-7-7-7~|
|-7-7-7-7-7-7-7-7--3-3-3-3-3-3-3-3--5-5-5-5-5-5-5-5--5-5-5-5-5-5-5-5~|
|-----------------------------------3-3-3-3-3-3-3-3------------------|
PM* * * * * * * *  * * * * * * * *  * * * * * * * *  * * * * *


|--------------------|
|--------------------|
|-----------9----4---|
|-2----7----9----2---|
|-2-or-7-or-7-or-0---|
|-0----0----0--------|

Interlude:
Guitar 1:
|---------------------------------------------------|
|---------------------------------------------------|
|--9--9--9--9--5--5--5--5---9--9--9--9--5--5--5--5--|
|--9--9--9--9--5--5--5--5---9--9--9--9--5--5--5--5--|
|--7--7--7--7--3--3--3--3---7--7--7--7--3--3--3--3--|
|--0--0--0--0---------------0--0--0--0--------------|
|Guitar 2
|------------|------------|-------------------------|
|------------|------------|-------------------------|
|--12--11-12-|-12--11--12-|-12--11-12-14--12--11--7-|
|---X--X---X-|--X--X----X-|--X--X---X--X---X--X---X-|
|--10--9--10-|-10---9--10-|-10--9--10-12--10--9---5-|
|------------|------------|-------------------------|

|---------------------------------------------------|
|---------------------------------------------------|
|--9--9--9--9--5--5--5--5---9--9--9--9--5--5--5-5/9-|
|--9--9--9--9--5--5--5--5---9--9--9--9--5--5--5-5/9-|
|--7--7--7--7--3--3--3--3---7--7--7--7--3--3--3-3/7-|
|--0--0--0--0---------------0--0--0--0--------------|
|
|------------|------------|-------------------------|
|------------|------------|-------------------------|
|--12--11-12-|-12--11--12-|-12--11-12-14--12--11-7-9|
|---X--X---X-|--X--X----X-|--X--X---X--X---X--X--X-X|
|--10--9--10-|-10---9--10-|-10--9--10-12--10--9--5-7|
|------------|------------|-------------------------|

Verse: Guitar 2 only
|-------------------------|----------------------------|
|-------------------------|----------------------------|
|-------------------------|----------------------------|
|-2-----------7/8-7/8-5/7-|-2----------h5---h5---h5---2|
|-2222222222--7/8-7/8-5/7-|-2222222222-h5---h5---h5---2|
|-0000000000--5/6-5/6-3/5-|-0000000000-h3-0-h3-0-h3-0-0|
PM *********                 *********    *    *

|-------------------------|-------------------|
|-------------------------|-------------------|
|-------------------------|---------4-4-4-4-4-|
|-------------7/8-7/8-5/7-|-5-5-5-5-4-4-4-4-4-|
|-2222222222--7/8-7/8-5/7-|-5-5-5-5-2-2-2-2-2-|
|-0000000000--5/6-5/6-3/5-|-3-3-3-3-----------| x2
PM**********                * * * *

*Note: playing this over and over gets kinda boring so it really adds a lot if u change
up a bit w. some more notes and harmonics! Dave does it as the band turns more and more metal


Guitar 1:last repeat
|------------------|
|------------------|
|--4-4-4-4---------|
|--4-4-4-4\pick\---|
|--2-2-2-2\slide\--|
|------------------|

Chorus:
Guitars 1
|--------------------------------------|
|--------------------------------------|
|--9-9-9-9--5-5-5-5-----------4-4-4-4--|
|--9-9-9-9--5-5-5-5--5-5-5-5--4-4-4-4--|
|--7-7-7-7--3-3-3-3--5-5-5-5--2-2-2-2--|
|--------------------3-3-3-3-----------|
Guitar 2:
|--------------------------------------|
|--------------------------------------|
|--9-9-9-9--5-5-5-5--12121212-7-7-7-7--|
|--x-x-x-x--x-x-x-x---x-x-x---x-x-x-x--|
|--7-7-7-7--3-3-3-3--10101010-5-5-5-5--|
|--------------------------------------|


Guitars 1
|-------------------------------------------|
|-------------------------------------------|
|--9--9--9--9--5-5-5-5--------------4-4-4-4-|
|--9--9--9--9--5-5-5-5--5--5--5--5--4-4-4-4-|
|--7--7--7--7--3-3-3-3--5--5--5--5--2-2-2-2-|
|-----------------------3--3--3--3----------|
|Guitar 2
|-------------------------------------------|
|-------------------------------------------|
|--12-12-12-12-9-9-9-9--12-12-12-12-11111111|
|---x--x--x--x-x-x-x-x--x---x-x--x--x-x-x-x-|
|--10-10-10-10-7-7-7-7--10-10-10-10-9-9-9-9-|
|-------------------------------------------|

Interlude
|------------------------------------------------------------|
|------------------------------------------------------------|
|----------------5-5-5-----------------5---5---5---5--/--4---|
|--2-2-2---------5-5-5---------2-2-2---5---5---5---5--/--5---|
|--2-2-2---------3-3-3---------2-2-2---3---3---3---3--/--2---|
|--0-0-0-----------------------0-0-0-------------------------|
|
|------------------------------------------------------------|
|------------------------------------------------------------|
|-------12--11-12----12--11--12------12--11-12-14--12--11-7-9|
|--------X--X---X-----X--X----X-------X--X---X--X---X--X--X-X|
|-------10--9--10----10---9--10------10--9--10-12--10--9--5-7|
|------------------------------------------------------------|

Verse: Guitar 2 only
|-------------------------|----------------------------|
|-------------------------|----------------------------|
|-------------------------|----------------------------|
|-2-----------7/8-7/8-5/7-|-2----------h5---h5---h5---2|
|-2222222222--7/8-7/8-5/7-|-2222222222-h5---h5---h5---2|
|-0000000000--5/6-5/6-3/5-|-0000000000-h3-0-h3-0-h3-0-0|
PM *********                 *********    *    *

|-------------------------|-------------------|
|-------------------------|-------------------|
|-------------------------|---------4-4-4-4-4-|
|-------------7/8-7/8-5/7-|-5-5-5-5-4-4-4-4-4-|
|-2222222222--7/8-7/8-5/7-|-5-5-5-5-2-2-2-2-2-|
|-0000000000--5/6-5/6-3/5-|-3-3-3-3-----------| x2
PM**********                * * * *

Guitar 1:last repeat
|------------------|
|------------------|
|--4-4-4-4---------|
|--4-4-4-4\pick\---|
|--2-2-2-2\slide\--|
|------------------|

Chorus:
Guitars 1
|--------------------------------------|
|--------------------------------------|
|--9-9-9-9--5-5-5-5-----------4-4-4-4--|
|--9-9-9-9--5-5-5-5--5-5-5-5--4-4-4-4--|
|--7-7-7-7--3-3-3-3--5-5-5-5--2-2-2-2--|
|--------------------3-3-3-3-----------|
Guitar 2:
|--------------------------------------|
|--------------------------------------|
|--9-9-9-9--5-5-5-5--12121212-7-7-7-7--|
|--x-x-x-x--x-x-x-x---x-x-x---x-x-x-x--|
|--7-7-7-7--3-3-3-3--10101010-5-5-5-5--|
|--------------------------------------|


Guitars 1
|-------------------------------------------|
|-------------------------------------------|
|--9--9--9--9--5-5-5-5--------------4-4-4-4-|
|--9--9--9--9--5-5-5-5--5--5--5--5--4-4-4-4-|
|--7--7--7--7--3-3-3-3--5--5--5--5--2-2-2-2-|
|-----------------------3--3--3--3----------|
|Guitar 2
|-------------------------------------------|
|-------------------------------------------|
|--12-12-12-12-9-9-9-9--12-12-12-12-11111111|
|---x--x--x--x-x-x-x-x--x---x-x--x--x-x-x-x-|
|--10-10-10-10-7-7-7-7--10-10-10-10-9-9-9-9-|
|-------------------------------------------|

Bridge:
Guitars 1
|--------------------------------------------|
|--------------------------------------------|
|-----------5-5-5-5--------------4--4--4--4--|
|--2-2-2-2--5-5-5-5--5--5--5--5--4--4--4--4--|
|--2-2-2-2--3-3-3-3--5--5--5--5--2--2--2--2--|
|--0-0-0-0-----------3--3--3--3--------------|
Guitar 2:            "Last Forever"
|--------------------------------------------|
|--------------------------------------------|
|-----------5-5-5-5--121212-1111-9-9-9-111111|
|--2-2-2-2--x-x-x-x--x-x--x-xxx--x-x-x-x-x-x-|
|--x-x-x-x--3-3-3-3--101010-999--7-7-7-9-9-9-|
|--0-0-0-0-----------------------------------|

Guitar 1
|---------------------------------------------|
|---------------------------------------------|
|--9-9-9-9--5-5-5-5---------------4--4--4--4--|
|--9-9-9-9--5-5-5-5--5--5--5--5---4--4--4--4--|
|--7-7-7-7--3-3-3-3--5--5--5--5---2--2--2--2--|
|--0-0-0-0-----------3--3--3--3---------------|
|Guitar 2            "Make things better"
|---------------------------------------------|
|---------------------------------------------|
|-----------5-5-5-5--12-12-9--9--12-12-14-14--|
|--2-2-2-2--x-x-x-x---X-X--X--X--x--x--x--x---|
|--x-x-x-x--3-3-3-3--10-10-7--7--10-10-12-12--|
|--0-0-0-0------------------------------------|

Guitar 1
|--------------------------|     |--------------------------|
|--------------------------|     |--------------------------|
|--9--9--9--9--5-5---7--7--|     |--9--9--9--9--5-5---7--7--|
|--9--9--9--9--5-5---7--7--|     |--9--9--9--9--5-5---7--7--|
|--7--7--7--7--3-3---5--5--|     |--7--7--7--7--3-3---5--5--|
|--0--0--0--0--------------| x3  |--0--0--0--0--------------|
|Guitar 2
|--------------------------|     |--------------------------|
|--------------------------|     |--------------------------|
|--12-12-12-12--9-9--11-11-|     |--12-12-12-12--9-9--14-14-|
|---x--x--x--x--x-x--x--x--|     |---x--x--x--x--x-x--x--x--|
|--10-10-10-10--7-7--9--9--|     |--10-10-10-10--7-7--12-12-|
|--------------------------| x3  |--------------------------|

Guitar 1
|-----------------------------------------------------------------|
|-----------------------------------------------------------------|
|--9-9-9-9-9-9-9-9-9-9-9-9--12-12-12-12-12-12--11-11-11-11-11-11--|
|--x-x-x-x-x-x-x-x-x-x-x-x---x--x--x--x--x--x--x---x--x--x--x--x--|
|--7-7-7-7-7-7-7-7-7-7-7-7--10-10-10-10-10-10--9---9--9--9--9--9--|
|-----------------------------------------------------------------|
|Guitar 2
|-----------------------------------------------------------------|
|-----------------------------------------------------------------|
|--------------5-5-5----------------------------4---4--4----------|
|--2-2-2-------5-5-5--------5--5--5-------------4---4--4----------|
|--2-2-2-------3-3-3--------5--5--5-------------2---2--2----------|
|--0-0-0--------------------3--3--3-------------------------------|

SOLO:
Guitar 1
|-----------------------------------------------------------------|
|-----------------------------------------------------------------|
|--9-9-9-9-9-9-9-9-9-9-9-9--12-12-12-12-12-12--11-11-11-11-11-11--|
|--x-x-x-x-x-x-x-x-x-x-x-x---x--x--x--x--x--x--x---x--x--x--x--x--|
|--7-7-7-7-7-7-7-7-7-7-7-7--10-10-10-10-10-10--9---9--9--9--9--9--|
|-----------------------------------------------------------------|x2
|Guitar 2
|----------------|---------------|---------------|-------------------|
|----------------|---------------|---------------|-------------------|
|----------------|---------------|---------------|-------------------|
|-----9----------|---9-----------|---9-----------|-------------------|
|--/7--10-9----9-|-7---10-9----9-|-7---10-9----9-|-10-9-9-10-12-10-9-|
|--/--------10---|----------10---|----------10---|-------------------|x2

Guitar 1
|-----------------------------------------------------------------|
|-----------------------------------------------------------------|
|--9-9-9-9-9-9-9-9-9-9-9-9--12-12-12-12-12-12--11-11-11-11-11-11--|
|--x-x-x-x-x-x-x-x-x-x-x-x---x--x--x--x--x--x--x---x--x--x--x--x--|
|--7-7-7-7-7-7-7-7-7-7-7-7--10-10-10-10-10-10--9---9--9--9--9--9--|
|-----------------------------------------------------------------|
|Guitar 2
|----------------|---------------|---------------|--------------------|
|----------------|---------------|---------------|--------------------|
|----------------|---------------|---------------|--------------------|
|-----9----------|---9-----------|---9-----------|--------------------|
|--/7--10-9----9-|-7---10-9----9-|-7---10-9----9-|-10-9-9-10-12--9-10-|
|--/--------10---|----------10---|----------10---|--------------------|

Ending on Solo: "I don't know what to feel"
|-------------------------|
|-------------------------|
|-------------------------|
|-------------------------|
|-10-9-10-12-10-12-14-14v-|
|-------------------------|


Guitars 1
|---------------------------------------------------|
|---------------------------------------------------|
|--9--9--9--9--5--5--5--5---------------4--4--4--4--|
|--9--9--9--9--5--5--5--5---5--5--5--5--4--4--4--4--|
|--7--7--7--7--3--3--3--3---5--5--5--5--2--2--2--2--|
|---------------------------3--3--3--3--------------|
|Guitar 2
|------------|------------|-------------------------|
|------------|------------|-------------------------|
|--12--11-12-|-12--11--12-|-12--11-12-14--12--11--7-|
|---X--X---X-|--X--X----X-|--X--X---X--X---X--X---X-|
|--10--9--10-|-10---9--10-|-10--9--10-12--10--9---5-|
|------------|------------|-------------------------| x2

|--------------------------------------|
|--------------------------------------|
|--9-9-9-9--5-5-5-5-----------4-4-4-4--|
|--9-9-9-9--5-5-5-5--5-5-5-5--4-4-4-4--|
|--7-7-7-7--3-3-3-3--5-5-5-5--2-2-2-2--|
|--------------------3-3-3-3-----------| x2
Guitar 2:
|--------------------------------------|
|--------------------------------------|
|--9-9-9-9--5-5-5-5--12121212-7-7-7-7--|
|--x-x-x-x--x-x-x-x---x-x-x---x-x-x-x--|
|--7-7-7-7--3-3-3-3--10101010-5-5-5-5--|
|--------------------------------------|x2
|Guitar 3
|--------------------------------------|
|--------------------------------------|
|--12121212-9-9-9-9--12121212-11111111-|
|---x--x--x-x-x-x-x--x-x-x-x--x-x-x-x--|
|--10101010-7-7-7-7--10101010-9-9-9-9--|
|--------------------------------------|
Guitar 5: plays solo, it looks all bunched up i know.
|--------------------------------------------|
|--------------------------------------------|
|--4----------4----------4----------4--------|
|-2-5-4-0-4--2-5-4-0-4--2-5-4-0-4--2-5-4-0-4-|
|--------------------------------------------|
|--------------------------------------------|

|-----------------------------|
|-----------------------------|
|--4-4-4/9-9-9-9-9/-----------|
|--4-4-4/9-9-9-9-9/-----------|
|--2-2-2/7-7-7-7-7/down neck--|
|-----------------------------|


2.The Heck Song


Intro
e|------------------------------------------------------|
B|------------------------------------------------------|
G|------------------------------------------------------| 3x
D|--------1---------1---------1--------2-2-1-1----------|
A|----2-4---2---2-4---2-2-2-4----2-------------4-4------|
E|-4----------0----------------------2------------------|

GUITAR 2
e|------------------------------------------------------|
B|------------------------------------------------------|
G|-------------------44444444---------------------------|
D|-66666666-22222222-44444444-44444444------------------|
A|-66666666-22222222-22222222-44444444------------------|
E|-44444444-00000000----------22222222------------------|

VERSE1
e|------------------------------------------------------|
B|------------------------------------------------------|
G|-------------------44444444---------------------------|
D|-66666666-22222222-44444444-44444444------------------| 2x
A|-66666666-22222222-22222222-44444444------------------|
E|-44444444-00000000----------22222222------------------|
p.m...................................

VERSE2
e|------------------------------------------------------|
B|------------------------------------------------------|
G|-----------------4444444------------------------------| 2x
D|-6666666-2222222-4444444-44444444---------------------|
A|-6666666-2222222-2222222-44444444---------------------|
E|-4444444-0000000---------22222222---------------------|
  ..................................

CHORUS
e|------------------------------------------------------|
B|------------------------------------------------------|
G|-------------------44444444---------------------------| 2x
D|-66666666-22222222-44444444-44444444------------------|
A|-66666666-22222222-22222222-44444444------------------|
E|-44444444-00000000----------22222222------------------|

GUITAR 2
e|------------------------------------------------------|
B|------------------------------------------------------|
G|------------------------------------------------------| 2x
D|--------1---------1---------1--------2-2-1-1----------|
A|----2-4---2---2-4---2-2-2-4----2-------------4-4------|
E|-4----------0----------------------2------------------|

e|------------------------------------------------------|
B|------------------------------------------------------|
G|-----------------4444444------------------------------|4x
D|-6666666-2222222-4444444-44444444---------------------|
A|-6666666-2222222-2222222-44444444---------------------|
E|-4444444-0000000---------22222222---------------------|
   ................................

CHORUS
e|------------------------------------------------------|
B|------------------------------------------------------|
G|------------9-999999-4-444444-------------------------|
D|-646-666666-9-999999-4-444444-4-44444-----------------| 4x
A|-646-666666-7-777777-2-222222-4-44444-----------------|
E|-424-444444-------------------2-22222-----------------|

e|------------|
B|------------|
G|------------|
D|-66-66-66-6-|
A|-66-66-66-6-|
E|-44-44-44-4-|

SOLO:
|------------------------------------------------------|
|---9-----99999----9-----99999-------------------------|
|---11(13)---------11(13)-------11----11-11-11-11/9/8--|
|------------------------------------------------------|
|------------------------------------------------------|
|------------------------------------------------------|

--------------------------------------------------------|
--------------------------------------------------------|
----------------------------------8-9-11-13/11-9/8-8/9--|
/11--11-13h14--11-11h13--9-9h11-8-----------------------|
--------------------------------------------------------|
--------------------------------------------------------|

----------------------------------------------------------------|
----------------------------------------------------------------|
----------------------------------------------------------------|
-8h9p8h9p8h9-9h11p9h11p9h11-11h13p11h13p11h13-13h14p13h14p13h14-|
----------------------------------------------------------------|
----------------------------------------------------------------|

---------------------------------------------|
-9--------11-------12-------14-----14-12-12--|
-11(13)---13(15)---14(16)---16(18)-----------|
---------------------------------------------|
---------------------------------------------|
---------------------------------------------|

-------------------------------------------------------------|
--14/16-----16-16-16-16---14/16-----16-16-16-16---16-----19--|
--16/18(20)---------------16/18(20)---------------18(20)-----|
-------------------------------------------------------------|
-------------------------------------------------------------|
-------------------------------------------------------------|

--------------------------------------|
--------------16-----19---------------|
-18-16-16------18(20)-------18-16-16--|
--------------------------------------|
--------------------------------------|
--------------------------------------|

-----------------------------------------------------------------|
-----------------------------------------------------------------|
--16-15-16---15----15--------------------------------------------|
----------------18----18---18-16-18-16---------------------------|
---------------------------------------19-18-19-18---16-14~------|
-----------------------------------------------------------------|

VERSE3
e|----------------------------------------|--------|
B|----------------------------------------|--------|
G|-------------------44444444-------------|--------|
D|-66666666-22222222-44444444-44444444----|---4~---|
A|-66666666-22222222-22222222-44444444----|---4~---|
E|-44444444-00000000----------22222222----|---2~---|
   ...................................

CHORUS
e|------------------------------------------------------|
B|------------------------------------------------------|
G|------------9-999999-4-444444-------------------------| 4x
D|-646-666666-9-999999-4-444444-4-44444-----------------|
A|-646-666666-7-777777-2-222222-4-44444-----------------|
E|-424-444444-------------------2-22222-----------------|

GUITAR 2
e|----------------|
B|----------------|
G|----------------|
D|--4-2-1---------|
A|--------4-2-1---|
E|--------------4-|

GUITAR1
e|------------------------------------------------------|
B|------------------------------------------------------|
G|-------------------44444444---------------------------|
D|-66666666-22222222-44444444-44444444------------------|
A|-66666666-22222222-22222222-44444444------------------|
E|-44444444-00000000----------22222222------------------|

e|----|
B|----|
G|----|
D|-6~-|
A|-6~-|
E|-4~-|

| /  slide up
| \  slide down
| h  hammer-on
| p  pull-off
| ~  vibrato
| +  harmonic
| x  Mute note


3. Fat Lip

INTRO:


------------------------------------------------------|e
------------------------------------------------------|B
------------------------------------------------------|G
-----------------------6----------------------4-------|D
------------------------------------------------------|A
-----4----5----7---------------4----5----7------------|E
    _____PM______            ______PM______

------------------------------------------------------|e
------------------------------------------------------|B
------------------------------------------------------|G
-----------------------6----------------------4---2---|D
------------------------------------------------------|A
-----4----5----7---------------4----5----7------------|E
    _____PM______            ______PM______

------------------------------------------------------|e
------------------------------------------------------|B
------------------------------------------------------|G
-----------------------6----------------------4-------|D
------------------------------------------------------|A
-----4----5----7---------------4----5----7------------|E
    _____PM______            ______PM______

------------------------------------------------------|e
------------------------------------------------------|B
------------------------------------------------------|G
-----------------------6----------------------4---2---|D
------------------------------------------------------|A
-----4----5----7---------------4----5----7------------|E
    _____PM______            ______PM______


(when singing comes in)


------------------------------------------------------|e
------------------------------------------------------|B
------------------------------------------------------|G
-----------------4--4----2-2--------------------------|D
-------7-6-7-----2--2----0-0----7-6-7------------2----|A
-0--------------------------------------5--4--2--0----|E

------------------------------------------------------|e
------------------------------------------------------|B
------------------------------------------------------|G
-----------------4--4----2-2--------------------------|D
-------7-6-7-----2--2----0-0----7-6-7-----------------|A
-0--------------------------------------5--4--2--0----|E

Then Fast Bit:


-------------------------------------------------------|e
-------------------------------------------------------|B
-------------------------------------------------------|G
-------------------------------------------------------|D
-2--2--2--2--2--2--2--2--2--2--2--2--2--2--2--2--------|A
-0--0--0--0--0--0--0--0--0--0--0--0--0--0--0--0--------|E
_______________________PM______________________________


-------------------------------------------------------|e
-------------------------------------------------------|B
-------------------------------------------------------|G
--6--6--6--6--6--6--6--6-------------------------------|D
--4--4--4--4--4--4--4--4----7--7--7--7--7--7-----------|A
----------------------------5--5--5--5--5--5-----------|E
_______________________PM______________________________


-------------------------------------------------------|e
-------------------------------------------------------|B
-------------------------------------------------------|G
-------------------------------------------------------|D
-2--2--2--2--2--2--2--2--2--2--2--2--2--2--2--2--------|A
-0--0--0--0--0--0--0--0--0--0--0--0--0--0--0--0--------|E
_______________________PM______________________________


-------------------------------------------------------|e
-------------------------------------------------------|B
-------------------------------------------------------|G
--6--6--6--6--6--6--6--6-------------------------------|D
--4--4--4--4--4--4--4--4----7--------7-----------------|A
----------------------------5--------5-----------------|E
_______________________PM__


CHORUS:

-----------------------------------------------------------|e
-----------------------------------------------------------|B
--9--------------------------------------------------------|G
--9---9--9----11-11-11-11-11--6---6---7---7---6--6--7--7---|D
--7---9--9----11-11-11-11-11--6---6---7---7---6--6--7--7---|A
------7--7----9--9--9--9--9---4---4---5---5---4--4--5--5---|E


-----------------------------------------------------------|e
-----------------------------------------------------------|B
--9--------------------------------------------------------|G
--9---9--9----11-11-11-11-11--6---6---7---7---6--6--7--7---|D
--7---9--9----11-11-11-11-11--6---6---7---7---6--6--7--7---|A
------7--7----9--9--9--9--9---4---4---5---5---4--4--5--5---|E


------------------------------------------------------|e
------------------------------------------------------|B
------------------------------------------------------|G
-----------------------6----------------------4-------|D
------------------------------------------------------|A
-----4----5----7---------------4----5----7------------|E
    _____PM______            ______PM______


------------------------------------------------------|e
------------------------------------------------------|B
------------------------------------------------------|G
-----------------------6----------------------4---2---|D
------------------------------------------------------|A
-----4----5----7---------------4----5----7------------|E
    _____PM______            ______PM______


------------------------------------------------------|e
------------------------------------------------------|B
------------------------------------------------------|G
-----------------------6----------------------4-------|D
------------------------------------------------------|A
-----4----5----7---------------4----5----7------------|E
    _____PM______            ______PM______


------------------------------------------------------|e
------------------------------------------------------|B
------------------------------------------------------|G
-----------------------6----------------------4---2---|D
------------------------------------------------------|A
-----4----5----7---------------4----5----7------------|E
    _____PM______            ______PM______

------------------------------------------------------|e
------------------------------------------------------|B
------------------------------------------------------|G
-----------------4--4----2-2--------------------------|D
-------7-6-7-----2--2----0-0----7-6-7------------2----|A
-0--------------------------------------5--4--2--0----|E

------------------------------------------------------|e
------------------------------------------------------|B
------------------------------------------------------|G
-----------------4--4----2-2--------------------------|D
-------7-6-7-----2--2----0-0----7-6-7-----------------|A
-0--------------------------------------5--4--2--0----|E

------------------------------------------------------|e
------------------------------------------------------|B
------------------------------------------------------|G
-----------------4--4----2-2--------------------------|D
-------7-6-7-----2--2----0-0----7-6-7------------2----|A
-0--------------------------------------5--4--2--0----|E

------------------------------------------------------|e
------------------------------------------------------|B
------------------------------------------------------|G
-----------------4--4----2-2--------------------------|D
-------7-6-7-----2--2----0-0----7-6-7-----------------|A
-0--------------------------------------5--4--2--0----|E

Fast Bit Again:

-------------------------------------------------------|e
-------------------------------------------------------|B
-------------------------------------------------------|G
-------------------------------------------------------|D
-2--2--2--2--2--2--2--2--2--2--2--2--2--2--2--2--------|A
-0--0--0--0--0--0--0--0--0--0--0--0--0--0--0--0--------|E
_______________________PM______________________________


-------------------------------------------------------|e
-------------------------------------------------------|B
-------------------------------------------------------|G
--6--6--6--6--6--6--6--6-------------------------------|D
--4--4--4--4--4--4--4--4----7--7--7--7--7--7-----------|A
----------------------------5--5--5--5--5--5-----------|E
_______________________PM______________________________


-------------------------------------------------------|e
-------------------------------------------------------|B
-------------------------------------------------------|G
-------------------------------------------------------|D
-2--2--2--2--2--2--2--2--2--2--2--2--2--2--2--2--------|A
-0--0--0--0--0--0--0--0--0--0--0--0--0--0--0--0--------|E
_______________________PM______________________________


-------------------------------------------------------|e
-------------------------------------------------------|B
-------------------------------------------------------|G
--6--6--6--6--6--6--6--6-------------------------------|D
--4--4--4--4--4--4--4--4----7------7-------------------|A
----------------------------5------5-------------------|E
_______________________PM______________________________

CHORUS:

-----------------------------------------------------------|e
-----------------------------------------------------------|B
--9--------------------------------------------------------|G
--9---9--9----11-11-11-11-11--6---6---7---7---6--6--7--7---|D
--7---9--9----11-11-11-11-11--6---6---7---7---6--6--7--7---|A
------7--7----9--9--9--9--9---4---4---5---5---4--4--5--5---|E


-----------------------------------------------------------|e
-----------------------------------------------------------|B
--9--------------------------------------------------------|G
--9---9--9----11-11-11-11-11--6---6---7---7---6--6--7--7---|D
--7---9--9----11-11-11-11-11--6---6---7---7---6--6--7--7---|A
------7--7----9--9--9--9--9---4---4---5---5---4--4--5--5---|E


Then:

-----------------------------------------------------------|e
-----------------------------------------------------------|B
-----------------------------------------------------------|G
--------------------2--------------------4-----------------|D
---2--2-----2--2----0----2--2---2--2-----2-----------------|A
---0--0-----0--0---------0--0---0--0-----------------------|E


-----------------------------------------------------------|e
-----------------------------------------------------------|B
-----------------------------------------------------------|G
--------------------2--------------------------------------|D
---2--2-----2--2----0----2--2---2--2-----------------------|A
---0--0-----0--0---------0--0---0--0-----------------------|E


Then the bit where he sings: 'dont count on me'

----------------------------------------------------------|e
----------------------------------------------------------|B
---------9--------9-----------6---------------------------|G
------9----9----9---9-----6------6------------------------|D
---7----------6--------4----------------7-----------------|A
------------------------------------5-------5-------------|E

----------------------------------------------------------|e
----------------------------------------------------------|B
---------9--------9-----------6---------------------------|G
------9----9----9---9-----6------6------------------------|D
---7----------6--------4----------------7-----------------|A
------------------------------------5-------5-------------|E

4. We're All To Blame


eb|---------||
Bb|---------||
Gb|---------||
Db|---------||
Ab|---------||
Eb|---------||
  |         ||
  |         ||
eb|---------||
Bb|---------||
Gb|---------||
Db|---------||
Ab|---------||
Eb|---------||

upper part will be Dave's part and lower Deryck's.. so here it is:

INTRO

eb|--------------------------------------------------||
Bb|--------------------------------------------------||
Gb|-9-999-9999-10-9-9-999-9999-10-9-9-999-9999-10-9--||
Db|-x-xxx-xxxx-xx-x-x-xxx-xxxx-xx-x-x-xxx-xxxx-xx-x--||
Ab|-7-777-7777--8-7-7-777-7777--8-7-7-777-7777--8-7--||
Eb|--------------------------------------------------||
  |                                                  ||
  |                                                  ||
eb|--------------------------------------------------||
Bb|--------------------------------------------------||
Gb|--------------------------------------------------||
Db|--------------------------------------------------||
Ab|--------------------------------------------------||
Eb|--------------------------------------------------||


eb|--------------||
Bb|--------------||
Gb|--------------||
Db|-5-4-5-7-2-3--||
Ab|-3-2-3-5-2-3--||
Eb|--------------||
  |              ||
  |              ||
eb|--------------||
Bb|--------------||
Gb|--------------||
Db|-5-4-5-7-4-5--||
Ab|-3-2-3-5-2-3--||
Eb|--------------||


eb|------------------------------------------||
Bb|------------------------------------------||
Gb|-----------<5>----------<5>----------<5>--||
Db|-----------<5>----------<5>----------<5>--||
Ab|-2-2222222-----22222222-----22222222------||
Eb|-0-0000000-----00000000-----00000000------||
  |   .......     ........     ........      ||
  |                                          ||
eb|------------------------------------------||
Bb|------------------------------------------||
Gb|------------------------------------------||
Db|------------------------------------------||
Ab|-2-2222222-----22222222-----22222222------||
Eb|-0-0000000-----00000000-----00000000------||
      .......     ........     ........

eb|---------------------------------------||
Bb|---------------------------------------||
Gb|---------------------------------------||
Db|-5-4-5-7-2-3--5-4-5-7-4-5--------------||
Ab|-3-2-3-5-2-3--3-2-3-5-2-3--2--2--2--2--||
Eb|---------------------------0--0--0--0--||
  |PM            . . . . . .              ||
  |                                       ||
eb|---------------------------------------||
Bb|---------------------------------------||
Gb|---------------------------------------||
Db|-5-4-5-7-2-3--5-4-5-7-4-5--------------||
Ab|-3-2-3-5-2-3--3-2-3-5-2-3--2--2--2--2--||
Eb|---------------------------0--0--0--0--||
   PM            . . . . . .


VERSE 1

eb|-----------------------------------||
Bb|-----------------------------------||
Gb|-----------------------------------||
Db|-----------------------------------||
Ab|-77777777-2222-55555555-3333-2222--||
Eb|-----------------------------------||
  |                                   ||
  |                                   ||
eb|-----------------------------------||
Bb|-----------------------------------||
Gb|-----------------------------------||
Db|-----------------------------------||
Ab|-----------------------------------||
Eb|-----------------------------------||

eb|-------------------------------------||
Bb|-------------------------------------||
Gb|-------------------------------------||
Db|-------------------------------------||
Ab|-2--2-5-2-2--2-4-2-2--2-3-2-2--3--3--||
Eb|-0--0-3-0-0--0-2-0-0--0-1-0-0--1--1--||
  | .  . . . .  . . . .  . . . .        ||
  |                                     ||
eb|-------------------------------------||
Bb|-------------------------------------||
Gb|-------------------------------------||
Db|-------------------------------------||
Ab|-2--2-5-2-2--2-4-2-2--2-3-2-2--3--3--||
Eb|-0--0-3-0-0--0-2-0-0--0-1-0-0--1--1--||
    .  . . . .  . . . .  . . . .

eb|-----------------------------------||
Bb|-----------------------------------||
Gb|-----------------------------------||
Db|-----------------------------------||
Ab|-77777777-0000-22222222-5555-3333--||
Eb|-----------------------------------||
  |                                   ||
  |                                   ||
eb|-----------------------------------||
Bb|-----------------------------------||
Gb|-----------------------------------||
Db|-----------------------------------||
Ab|-----------------------------------||
Eb|-----------------------------------||

eb|-------------------------------------||
Bb|-------------------------------------||
Gb|-------------------------------------||
Db|-------------------------------------||
Ab|-2--2-5-2-2--2-4-2-2--2-3-2-2--3--3--||
Eb|-0--0-3-0-0--0-2-0-0--0-1-0-0--1--1--||
  | .  . . . .  . . . .  . . . .        ||
  |                                     ||
eb|-------------------------------------||
Bb|-------------------------------------||
Gb|-------------------------------------||
Db|-------------------------------------||
Ab|-2--2-5-2-2--2-4-2-2--2-3-2-2--3--3--||
Eb|-0--0-3-0-0--0-2-0-0--0-1-0-0--1--1--||
    .  . . . .  . . . .  . . . .

eb|-----------------------------------||
Bb|-----------------------------------||
Gb|-----------------------------------||
Db|-----------------------------------||
Ab|-77777777-2222-55555555-3333-2222--||
Eb|-----------------------------------||
  |                                   ||
  |                                   ||
eb|-----------------------------------||
Bb|-----------------------------------||
Gb|-----------------------------------||
Db|-----------------------------------||
Ab|-10~-----------12~------9~---5-----||
Eb|-----------------------------------||

eb|-------------------------------------||
Bb|-------------------------------------||
Gb|-------------------------------------||
Db|-------------------------------------||
Ab|-2--2-5-2-2--2-4-2-2--2-3-2-2--3--3--||
Eb|-0--0-3-0-0--0-2-0-0--0-1-0-0--1--1--||
  | .  . . . .  . . . .  . . . .        ||
  |                                     ||
eb|-------------------------------------||
Bb|-------------------------------------||
Gb|-------------------------------------||
Db|-------------------------------------||
Ab|-2--2-5-2-2--2-4-2-2--2-3-2-2--3--3--||
Eb|-0--0-3-0-0--0-2-0-0--0-1-0-0--1--1--||
    .  . . . .  . . . .  . . . .

eb|-----------------------------------||
Bb|-----------------------------------||
Gb|-----------------------------------||
Db|-----------------------------------||
Ab|-77777777-0000-22222222-5555-3333--||
Eb|-----------------------------------||
  |                                   ||
  |                                   ||
eb|-----------------------------------||
Bb|-----------------------------------||
Gb|-----------------------------------||
Db|-10~-----------9~-------12~--9-----||
Ab|-----------------------------------||
Eb|-----------------------------------||

eb|---------------------------------||
Bb|---------------------------------||
Gb|---------------------------------||
Db|---------------------------------||
Ab|-2--2-5-2-2--2-4-2--5-4-5-7-4-5--||
Eb|-0--0-3-0-0--0-2-0--3-2-3-5-2-3--||
  | .  . . . .  . . .               ||
  |                                 ||
eb|---------------------------------||
Bb|---------------------------------||
Gb|---------------------------------||
Db|---------------------------------||
Ab|-2--2-5-2-2--2-4-2--5-4-5-7-4-5--||
Eb|-0--0-3-0-0--0-2-0--3-2-3-5-2-3--||
  | .  . . . .  . . .               ||


CHORUS 1

eb|----------------------||
Bb|----------------------||
Gb|----------------------||
Db|-2~-------------------||
Ab|-0~-------------------||
Eb|----------------------||
  |                      ||
  | Am    Dm    G    Em  ||
eb|-0-----1-----3----0---||
Bb|-1-----3-----3----0---||
Gb|-2-----2-----0----0---||
Db|-2-----0-----0----2---||
Ab|-0-----------2----2---||
Eb|-------------3----0---||


eb|-5-----------1-------3---0--------||
Bb|---5---5---3---3---3---3---0---0--||
Gb|-----5---2-------0-----------0----||
Db|----------------------------------|| \
Ab|----------------------------------||  \
Eb|----------------------------------||   \
  |                                  ||    play 3x
  | Am      Dm      G       Em       ||   /
eb|----------------------------------||  /
Bb|----------------------------------|| /
Gb|----------------------------------||
Db|----------------------------------||
Ab|----------------------------------||
Eb|----------------------------------||


RIFF TO VERSE 2:

eb|-0--||      |--------------------------||
Bb|-0--||      |--------------------------||
Gb|----||      |--------------------------||
Db|----||      |-5-4-5-7-2-3--------------||
Ab|----||      |-3-2-3-5-2-3--2--2--2--2--||
Eb|----||      |--------------0--0--0--0--||
  |    ||      |                          ||
  | Em ||      |                          ||
eb|-0--||      |--------------------------||
Bb|-0--||      |--------------------------||
Gb|-0--||      |--------------------------||
Db|-2--||      |-5-4-5-7-2-3--------------||
Ab|-2--||      |-3-2-3-5-2-3--2--2--2--2--||
Eb|-0--||      |--------------0--0--0--0--||


VERSE 2 [same as verse one]

CHORUS 2

eb|----------------------||
Bb|----------------------||
Gb|----------------------||
Db|-2~-------------------||
Ab|-0~-------------------||
Eb|----------------------||
  |                      ||
  | Am    Dm    G    Em  ||
eb|-0-----1-----3----0---||
Bb|-1-----3-----3----0---||
Gb|-2-----2-----0----0---||
Db|-2-----0-----0----2---||
Ab|-0-----------2----2---||
Eb|-------------3----0---||


eb|-5-----------1-------3---0--------||
Bb|---5---5---3---3---3---3---0---0--||
Gb|-----5---2-------0-----------0----||
Db|----------------------------------|| \
Ab|----------------------------------||  \
Eb|----------------------------------||   \
  |                                  ||    play 3x
  | Am      Dm      G       Em       ||   /
eb|----------------------------------||  /
Bb|----------------------------------|| /
Gb|----------------------------------||
Db|----------------------------------||
Ab|----------------------------------||
Eb|----------------------------------||


eb|-12-12-12-12-13-13-13-13-15-15-15-15-10-10-10-10--||
Bb|-13-13-13-13-13-13-13-13-13-13-13-13-12-12-12-12--||
Gb|--------------------------------------------------||
Db|--------------------------------------------------|| \
Ab|--------------------------------------------------||  \
Eb|--------------------------------------------------||   \
  |                                                  ||    play 2x [second time end on G]
  | Am          F           C           G            ||   /
eb|--------------------------------------------------||  /
Bb|--------------------------------------------------|| /
Gb|--------------------------------------------------||
Db|--------------------------------------------------||
Ab|--------------------------------------------------||
Eb|--------------------------------------------------||


BRIGDE

eb|------------------------------------||
Bb|------------------------------------||
Gb|------------------------------------||
Db|------------------------------------|| \
Ab|-2-2222-5-2-2222-4-2-22222----------||  \
Eb|-0-0000-3-0-0000-2-0-00000-3-2-3-5--||   \
  |   ....     ....     .....          ||    play 2x
  |                                    ||   /
eb|------------------------------------||  /
Bb|------------------------------------|| /
Gb|------------------------------------||
Db|------------------------------------||
Ab|-2-2222-5-2-2222-4-2-22222----------||
Eb|-0-0000-3-0-0000-2-0-00000-3-2-3-5--||
      ....     ....     .....

eb|-----------------------------------------------------------------------||
Bb|-----------------------------------------------------------------------||
Gb|----------------------------------------------5----------4----------5--||
Db|----------------------------------------------x----------x----------x--||
Ab|-22222222-22222222-22222222-22222222-22222222-3-22222222-2-22222222-3--|| i'm pretty sure
Eb|-00000000-00000000-00000000-00000000-00000000---00000000---00000000----|| Deryck doesn't
  |                                                                       || play anything
  |                                                                       || live but it
eb|-----------------------------------------------------------------------|| sounds better
Bb|-----------------------------------------------------------------------|| with both
Gb|----------------------------------------------5----------4----------5--|| gutiars doing it
Db|----------------------------------------------x----------x----------x--||
Ab|-22222222-22222222-22222222-22222222-22222222-3-22222222-2-22222222-3--||
Eb|-00000000-00000000-00000000-00000000-00000000---00000000---00000000----||

eb|--------------------||
Bb|--------------------||
Gb|--------------------||
Db|--------------------||
Ab|-22222222255555555--||
Eb|-00000000033333333--||
  | ..............     ||
  |                    ||
eb|---------333333333--||
Bb|---------333333333--||
Gb|---------000000000--||
Db|---------000000000--||
Ab|-22222222222222222--||
Eb|-00000000033333333--||
  | .........          ||


CHORUS 3 [distorted]

eb|-5-----------1-------3---0--------||
Bb|---5---5---3---3---3---3---0---0--||
Gb|-----5---2-------0-----------0----||
Db|----------------------------------|| \
Ab|----------------------------------||  \
Eb|----------------------------------||   \
  |                                  ||    play 2x
  | Am      Dm      G       Em       ||   /
eb|----------------------------------||  /
Bb|----------------------------------|| /
Gb|----------------------------------||
Db|----------------------------------||
Ab|----------------------------------||
Eb|----------------------------------||

eb|-5-------7-------8-------3--------||
Bb|---5---5---5---5---5---5---3---3--||
Gb|-----5-------5-------5-------0----||
Db|----------------------------------|| \
Ab|----------------------------------||  \
Eb|----------------------------------||   \
  |                                  ||    play 4x
  | Am      F       C       G        ||   /
eb|----------------------------------||  /
Bb|----------------------------------|| /
Gb|----------------------------------||
Db|----------------------------------||
Ab|----------------------------------||
Eb|----------------------------------||


OUTRO

eb|----------------------||
Bb|----------------------||
Gb|----------------------||
Db|-2~-------------------||
Ab|-0~-------------------||
Eb|----------------------||
  |                      ||
  | Am    Dm    G    Em  ||
eb|-0-----1-----3----0---||
Bb|-1-----3-----3----0---||
Gb|-2-----2-----0----0---||
Db|-2-----0-----0----2---||
Ab|-0-----------2----2---||
Eb|-------------3----0---||


eb|-5-----------1-------3---0--------||
Bb|---5---5---3---3---3---3---0---0--||
Gb|-----5---2-------0-----------0----||
Db|----------------------------------|| \
Ab|----------------------------------||  \
Eb|----------------------------------||   \
  |                                  ||    play 3x
  | Am      Dm      G       Em       ||   /
eb|----------------------------------||  /
Bb|----------------------------------|| /
Gb|----------------------------------||
Db|----------------------------------||
Ab|----------------------------------||
Eb|----------------------------------||

eb|-----||
Bb|-----||
Gb|-----||
Db|-2~--||
Ab|-0~--||
Eb|-----||
  |     ||
  | Am~ ||
eb|-0---||
Bb|-1---||
Gb|-2---||
Db|-2---||
Ab|-0---||
Eb|-----||


5. Walking Disaster

-2--4-4-4-4-4-4-4-4-----------------------------------------------------|
E|-4-4-4-4-4-4-4-4--0-0-0-0-0-0-0-0-------------------2-2-2-2-2-2-2-2---|


 Interlude


 Guitar 2 (Rythm)

e|----------------------------------------------------|
B|----------------------------------------------------|
G|----------1h2p1h2p1h2p1h2p1h2p1h2-------------------|
D|-6~-4~-2~-------------------------------------------|
A|-6~-4~-2~-------------------------------------------|
E|-4~-2~-0~-------------------------------------------|


 Guitar 1 (lead)

e|---------7b*--------------------------------------------------------|
B|--------------------------------------------------------------------|
G|--------------------------------------------------------------------|
D|--------------------------------------------------------------------|
A|--------------------------------------------------------------------|
E|--------------------------------------------------------------------|


 Pre-Verse


 Guitar 1 (lead)

e|-------------------------------------------------------------------------|
B|-------------------------------------------------------------------------|
G|-4---/-11-\---8-\---4---/-11-\---8-\---4---/-11-\---8-\---4---/-11-\---8-|
D|-x--/--x---\--x--\--x--/--x---\--x--\--x--/--x---\--x--\--x--/--x---\--x-|
A|-2-/---9----\-6---\-2-/---9----\-6---\-2-/---9----\-6---\-2-/---9----\-6-|
E|-------------------------------------------------------------------------|

e|------------------------------------------------------|
B|------------------------------------------------------|
G|-11-11-11-11-11-11-11-11--13-13-13-13-13-13-13-13-----|
D|-x--x--x--x--x--x--x--x---x--x--x--x--x--x--x--x------|
A|-9--9--9--9--9--9--9--9---11-11-11-11-11-11-11-11-----|
E|------------------------------------------------------|

e|------------------------------------------------------|
B|------------------------------------------------------|
G|-15-15-15-15-15-15-15-15--16-16-16-16-16-16-16-16-\---|
D|-x--x--x--x--x--x--x--x---x--x--x--x--x--x--x--x---\--|
A|-13-13-13-13-13-13-13-13--14-14-14-14-14-14-14-14---\-|
E|------------------------------------------------------|


 Guitar 2 (rythm)


e|--------------------------------------------------------------------|
B|--------------------------------------------------------------------|
G|-4-4-4-4-4-4-4-4----------------------------------------------------|
D|-4-4-4-4-4-4-4-4--6-6-6-6-6-6-6-6--4-4-4-4-4-4-4-4--2-2-2-2-2-2-2-2-| (1x)
A|-2-2-2-2-2-2-2-2--6-6-6-6-6-6-6-6--4-4-4-4-4-4-4-4--2-2-2-2-2-2-2-2-|
E|------------------4-4-4-4-4-4-4-4--2-2-2-2-2-2-2-2--0-0-0-0-0-0-0-0-|


 Verse


 Guitar 1 (lead)

e|---------------------------------|
B|---------------------------------|
G|-4-4-4-4-4-4-4-4-4-4-4-4-4-4-4-4-|
D|-x-x-x-x-x-x-x-x-x-x-x-x-x-x-x-x-| (6x)
A|-2-2-2-2-2-2-2-2-2-2-2-2-2-2-2-2-|
E|---------------------------------|


 Pre-Chorus


 Guitar 2 (rythm)

e|-----------------------------------|
B|-----------------------------------|
G|------------------4-4-4-4----------|
D|-2-2-2-2-2-2-2-2--4-4-4-4--4-4-4-4-| (2x)
A|-2-2-2-2-2-2-2-2--2-2-2-2--4-4-4-4-|
E|-0-0-0-0-0-0-0-0-----------2-2-2-2-|


 Guitar 1 (lead)

e|---------------------------------|
B|---------------------------------|
G|-4---/-3-\---4-\---6---/-4---/-3-|
D|-x--/--x--\--x--\--x--/--x--/--x-| (1x)
A|-2-/---1---\-2---\-4-/---2-/---1-|
E|---------------------------------|


 Guitar 2 (rythm)

e|-----------------------------------|
B|-----------------------------------|
G|------------------4-4-4-4----------|
D|-2-2-2-2-2-2-2-2--4-4-4-4--4-4-4-4-| (1x)
A|-2-2-2-2-2-2-2-2--2-2-2-2--4-4-4-4-|
E|-0-0-0-0-0-0-0-0-----------2-2-2-2-|

e|-----------------------------|
B|-----------------------------|
G|------------------4-4-4-4----|
D|-2-2-2-2-2-2-2-2--4-4-4-4--4-| (1x)
A|-2-2-2-2-2-2-2-2--2-2-2-2--4-|
E|-0-0-0-0-0-0-0-0-----------2-|

 Chorus


 Guitar 2 (rythm)

e|------------------------------------|
B|------------------------------------|
G|-4-4-4-4----------------------------|
D|-4-4-4-4--6-6-6-6--4-4-4-4--2-2-2-2-| (1x)
A|-2-2-2-2--6-6-6-6--4-4-4-4--2-2-2-2-|
E|----------4-4-4-4--2-2-2-2--0-0-0-0-|

e|------------------------------|
B|------------------------------|
G|-4-4-4-4----------------------|
D|-4-4-4-4--6-6-6-6--4-4-4-4--2-| (1x)
A|-2-2-2-2--6-6-6-6--4-4-4-4--2-|
E|----------4-4-4-4--2-2-2-2--0-|

 Interlude


 Guitar 1 (lead)

e|-------------------------------------------------|
B|-------------------------------------------------|
G|-4-4-4-4-4-4-4-4-4-4-4-4-4-4-4-4-4-4-4-4-4-4-4-4-|
D|-x-x-x-x-x-x-x-x-x-x-x-x-x-x-x-x-x-x-x-x-x-x-x-x-| (1x)
A|-2-2-2-2-2-2-2-2-2-2-2-2-2-2-2-2-2-2-2-2-2-2-2-2-|
E|-------------------------------------------------|


 Pre-Verse


 Guitar 1 (lead)

e|-------------------------------------------------------------------------|
B|-------------------------------------------------------------------------|
G|-4---/-11-\---8-\---4---/-11-\---8-\---4---/-11-\---8-\---4---/-11-\---8-|
D|-x--/--x---\--x--\--x--/--x---\--x--\--x--/--x---\--x--\--x--/--x---\--x-|
A|-2-/---9----\-6---\-2-/---9----\-6---\-2-/---9----\-6---\-2-/---9----\-6-|
E|-------------------------------------------------------------------------|

e|------------------------------------------------------|
B|------------------------------------------------------|
G|-11-11-11-11-11-11-11-11--13-13-13-13-13-13-13-13-----|
D|-x--x--x--x--x--x--x--x---x--x--x--x--x--x--x--x------|
A|-9--9--9--9--9--9--9--9---11-11-11-11-11-11-11-11-----|
E|------------------------------------------------------|

e|------------------------------------------------------|
B|------------------------------------------------------|
G|-15-15-15-15-15-15-15-15--16-16-16-16-16-16-16-16-\---|
D|-x--x--x--x--x--x--x--x---x--x--x--x--x--x--x--x---\--|
A|-13-13-13-13-13-13-13-13--14-14-14-14-14-14-14-14---\-|
E|------------------------------------------------------|


 Guitar 2 (rythm)


e|--------------------------------------------------------------------|
B|--------------------------------------------------------------------|
G|-4-4-4-4-4-4-4-4----------------------------------------------------|
D|-4-4-4-4-4-4-4-4--6-6-6-6-6-6-6-6--4-4-4-4-4-4-4-4--2-2-2-2-2-2-2-2-| (1x)
A|-2-2-2-2-2-2-2-2--6-6-6-6-6-6-6-6--4-4-4-4-4-4-4-4--2-2-2-2-2-2-2-2-|
E|------------------4-4-4-4-4-4-4-4--2-2-2-2-2-2-2-2--0-0-0-0-0-0-0-0-|


 Verse


 Guitar 2 (rythm)

e|--------------------------------------------------------------------|
B|--------------------------------------------------------------------|
G|-4-4-4-4-4-4-4-4----------------------------------------------------|
D|-4-4-4-4-4-4-4-4--6-6-6-6-6-6-6-6--4-4-4-4-4-4-4-4--2-2-2-2-2-2-2-2-| (1x)
A|-2-2-2-2-2-2-2-2--6-6-6-6-6-6-6-6--4-4-4-4-4-4-4-4--2-2-2-2-2-2-2-2-|
E|------------------4-4-4-4-4-4-4-4--2-2-2-2-2-2-2-2--0-0-0-0-0-0-0-0-|
     . . . . . . .    . . . . . . .    . . . . . . .    . . .   .   .

e|--------------------------------------------------------------------|
B|--------------------------------------------------------------------|
G|-4-4-4-4-4-4-4-4----------------------------------------------------|
D|-4-4-4-4-4-4-4-4--6-6-6-6-6-6-6-6--4-4-4-4-4-4-4-4--2-2-2-2-2-2-2-2-| (1x)
A|-2-2-2-2-2-2-2-2--6-6-6-6-6-6-6-6--4-4-4-4-4-4-4-4--2-2-2-2-2-2-2-2-|
E|------------------4-4-4-4-4-4-4-4--2-2-2-2-2-2-2-2--0-0-0-0-0-0-0-0-|
     . . . . . . .    . . . . . . .    . . . . . . .    . . . . . . .


 Pre-Chorus


 Guitar 2 (rythm)

e|-----------------------------------|
B|-----------------------------------|
G|------------------4-4-4-4----------|
D|-2-2-2-2-2-2-2-2--4-4-4-4--4-4-4-4-| (2x)
A|-2-2-2-2-2-2-2-2--2-2-2-2--4-4-4-4-|
E|-0-0-0-0-0-0-0-0-----------2-2-2-2-|


 Guitar 1 (lead)

e|---------------------------------|
B|---------------------------------|
G|-4---/-3-\---4-\---6---/-4---/-3-|
D|-x--/--x--\--x--\--x--/--x--/--x-| (1x)
A|-2-/---1---\-2---\-4-/---2-/---1-|
E|---------------------------------|


 Guitar 2 (rythm)

e|-----------------------------------|
B|-----------------------------------|
G|------------------4-4-4-4----------|
D|-2-2-2-2-2-2-2-2--4-4-4-4--4-4-4-4-| (1x)
A|-2-2-2-2-2-2-2-2--2-2-2-2--4-4-4-4-|
E|-0-0-0-0-0-0-0-0-----------2-2-2-2-|

e|-----------------------------|
B|-----------------------------|
G|------------------4-4-4-4----|
D|-2-2-2-2-2-2-2-2--4-4-4-4--4-| (1x)
A|-2-2-2-2-2-2-2-2--2-2-2-2--4-|
E|-0-0-0-0-0-0-0-0-----------2-|


 Chorus


 Guitar 2 (rythm)

e|------------------------------------|
B|------------------------------------|
G|-4-4-4-4----------------------------|
D|-4-4-4-4--6-6-6-6--4-4-4-4--2-2-2-2-| (1x)
A|-2-2-2-2--6-6-6-6--4-4-4-4--2-2-2-2-|
E|----------4-4-4-4--2-2-2-2--0-0-0-0-|

e|------------------------------|
B|------------------------------|
G|-4-4-4-4----------------------|
D|-4-4-4-4--6-6-6-6--4-4-4-4--2-| (1x)
A|-2-2-2-2--6-6-6-6--4-4-4-4--2-|
E|----------4-4-4-4--2-2-2-2--0-|

 Bridge


 Guitar 2 (rythm)

e|--------------------|
B|--------------------|
G|-----------4~-------|
D|-6~-4~-2~--4~-4~-2~-| (5x)
A|-6~-4~-2~--2~-4~-2~-|
E|-4~-2~-0~-----2~-0~-|


 Guitar 1 (lead)


e|---------------------------------------------|
B|---------------------------------------------|
G|-4-4-4-4---/-6-6-6-6---/-8-8-8-8---/-9-9-9-9-|
D|-x-x-x-x--/--x-x-x-x--/--x-x-x-x--/--x-x-x-x-| (1x)
A|-2-2-2-2-/---4-4-4-4-/---6-6-6-6-/---7-7-7-7-|
E|---------------------------------------------|

e|---------------------------------------|
B|---------------------------------------|
G|-4-4-4-4---/-6-6-6-6---/-8-8-8-8---/-9-|
D|-x-x-x-x--/--x-x-x-x--/--x-x-x-x--/--x-|
A|-2-2-2-2-/---4-4-4-4-/---6-6-6-6-/---7-|
E|---------------------------------------|


 Pre-Chorus


 Guitar 2 (rythm)

e|-----------------------------------|
B|-----------------------------------|
G|------------------4-4-4-4----------|
D|-2-2-2-2-2-2-2-2--4-4-4-4--4-4-4-4-| (2x)
A|-2-2-2-2-2-2-2-2--2-2-2-2--4-4-4-4-|
E|-0-0-0-0-0-0-0-0-----------2-2-2-2-|


 Guitar 1 (lead)

e|---------------------------------|
B|---------------------------------|
G|-4---/-3-\---4-\---6---/-4---/-3-|
D|-x--/--x--\--x--\--x--/--x--/--x-| (1x)
A|-2-/---1---\-2---\-4-/---2-/---1-|
E|---------------------------------|


 Guitar 2 (rythm)

e|-----------------------------------|
B|-----------------------------------|
G|------------------4-4-4-4----------|
D|-2-2-2-2-2-2-2-2--4-4-4-4--4-4-4-4-| (1x)
A|-2-2-2-2-2-2-2-2--2-2-2-2--4-4-4-4-|
E|-0-0-0-0-0-0-0-0-----------2-2-2-2-|

e|-----------------------------|
B|-----------------------------|
G|------------------4-4-4-4----|
D|-2-2-2-2-2-2-2-2--4-4-4-4--4-| (1x)
A|-2-2-2-2-2-2-2-2--2-2-2-2--4-|
E|-0-0-0-0-0-0-0-0-----------2-|


 Chorus


 Guitar 2 (rythm)

e|------------------------------------|
B|------------------------------------|
G|-4-4-4-4----------------------------|
D|-4-4-4-4--6-6-6-6--4-4-4-4--2-2-2-2-| (1x)
A|-2-2-2-2--6-6-6-6--4-4-4-4--2-2-2-2-|
E|----------4-4-4-4--2-2-2-2--0-0-0-0-|

e|------------------------------|
B|------------------------------|
G|-4-4-4-4----------------------|
D|-4-4-4-4--6-6-6-6--4-4-4-4--2-| (1x)
A|-2-2-2-2--6-6-6-6--4-4-4-4--2-|
E|----------4-4-4-4--2-2-2-2--0-|

 Interlude


 Guitar 1


e|-------------------------------------------------------------------------|
B|-------------------------------------------------------------------------|
G|-4---/-11-\---8-\---4---/-11-\---8-\---4---/-11-\---8-\---4---/-11-\---8-|
D|-x--/--x---\--x--\--x--/--x---\--x--\--x--/--x---\--x--\--x--/--x---\--x-|
A|-2-/---9----\-6---\-2-/---9----\-6---\-2-/---9----\-6---\-2-/---9----\-6-|
E|-------------------------------------------------------------------------|

e|-------------------------------------------------------------------------|
B|-------------------------------------------------------------------------|
G|-4---/-11-\---8-\---4---/-11-\---8-\---4---/-6--\---8-\---4---/-8--\---8-|
D|-x--/--x---\--x--\--x--/--x---\--x--\--x--/--x---\--x--\--x--/--x---\--x-|
A|-2-/---9----\-6---\-2-/---9----\-6---\-2-/---4----\-6---\-2-/---4----\-6-|
E|-------------------------------------------------------------------------|

e|-------------------------------------------------------------------------|
B|-------------------------------------------------------------------------|
G|-4---/-11-\---8-\---4---/-11-\---8-\---4---/-11-\---8-\---4---/-11-\---8-|
D|-x--/--x---\--x--\--x--/--x---\--x--\--x--/--x---\--x--\--x--/--x---\--x-|
A|-2-/---9----\-6---\-2-/---9----\-6---\-2-/---9----\-6---\-2-/---9----\-6-|
E|-------------------------------------------------------------------------|

e|------------------------------------------------------|
B|------------------------------------------------------|
G|-11-11-11-11-11-11-11-11--13-13-13-13-13-13-13-13-----|
D|-x--x--x--x--x--x--x--x---x--x--x--x--x--x--x--x------|
A|-9--9--9--9--9--9--9--9---11-11-11-11-11-11-11-11-----|
E|------------------------------------------------------|

e|------------------------------------------------------|
B|------------------------------------------------------|
G|-15-15-15-15-15-15-15-15--16-16-16-16-16-16-16-16-\---|
D|-x--x--x--x--x--x--x--x---x--x--x--x--x--x--x--x---\--|
A|-13-13-13-13-13-13-13-13--14-14-14-14-14-14-14-14---\-|
E|------------------------------------------------------|


 Guitar 2 (rythm)


e|------------------------------------|
B|------------------------------------|
G|-4-4-4-4----------------------------|
D|-4-4-4-4--6-6-6-6--4-4-4-4--2-2-2-2-| (1x)
A|-2-2-2-2--6-6-6-6--4-4-4-4--2-2-2-2-|
E|----------4-4-4-4--2-2-2-2--0-0-0-0-|

e|------------------------------|
B|------------------------------|
G|-4-4-4-4----------------------|
D|-4-4-4-4--6-6-6-6--4-4-4-4--2-| (1x)
A|-2-2-2-2--6-6-6-6--4-4-4-4--2-|
E|----------4-4-4-4--2-2-2-2--0-|


 Outro


 Guitar 2 (rythm)

e|--------------------------------------------------------------------|
B|--------------------------------------------------------------------|
G|-4-4-4-4-4-4-4-4----------------------------------------------------|
D|-4-4-4-4-4-4-4-4--4-4-4-4-4-4-4-4--6-6-6-6-6-6-6-6--2-2-2-2-2-2-2-2-| (2x)
A|-2-2-2-2-2-2-2-2--4-4-4-4-4-4-4-4--6-6-6-6-6-6-6-6--2-2-2-2-2-2-2-2-|
E|------------------2-2-2-2-2-2-2-2--4-4-4-4-4-4-4-4--0-0-0-0-0-0-0-0-|

| /  slide up
| \  slide down
| h  hammer-on
| p  pull-off
| ~  vibrato
| +  harmonic
| x  mute note
| *  feedback
| .  palm mute
============================================================================


6. In Too Deep

Sum 41
In Too Deep

x -Mute String or Note
PM -Palm Mute
~ -Vibrato
\ -Slide down
/ -Slide up
h -Hammer on
p -Pull off


Intro & Verse (Guitar 2)

E|----------------------------------------------|
B|---------------9------------------------------|
G|-----------9----------------------------------|
D|--9-9-9--9---9---9----9-9-9-9-7-6-7-9---------|
A|----------------------------------------------|
E|----------------------------------------------|
  PM......................................

E|----------------------------------------------|
B|---------------9------------------------------|
G|-----------9----------------------------------|
D|--9-9-9--9---9---9--9-9-9-9-7-6---------------|
A|--------------------------------9-7-----------|
E|----------------------------------------------|
   PM.................................

Intro & Verse (Guitar 1)

E|----------------------------------------------|
B|----------------------------------------------|
G|----------------------------------------------|
D|-------------6-7-9-7-----------------6--------|
A|----7------7-----------0-0-0-0-6-7-9----------|
E|--0------0------------------------------------|
               PM.....   ..............


E|----------------------------------------------|
B|----------------------------------------------|
G|----------------------------------------------|
D|-------------6-7-9-7-------------------6------|
A|----7------7-----------0-0-0-0-0-6-7-9--------|
E|--0------0------------------------------------|
               PM...     ...............


Verse Part2 (Guitar 2)

E|-------------------------------------------------------|
B|----9----9---9-----5----10-10--9--9---9----------------|
G|----9----9---9-----6-----9--9--9--9---9----------------|
D|----9----9---9-----7----11-11--9--9---9----------------|
A|-------------------------------------------------------|
E|-------------------------------------------------------|
  "Maybe were just tryin to hard...when really its closer..."


Chorus (Guitars 1 & 2)
E|-----------------------------------------------|
B|-----------------------------------------------|
G|----------------------------------0-2-2-2------|
D|-2-2-2-2-2-2---------0-2-2-2------0-0-0-0------|
A|-4-4-2-2-0-0--2--2---0-0-0-0--2-2--------------|
E|--------------0--0------------0-0--------------|
   PM.....


E|----------------------------------------------|
B|----------------------------------------------|
G|------------------7---------------------------|
D|--9-----9----7-7--7---------2-2-2-2-----------|
A|--7-----7----5-5--5------0--0-0-0-0-----------|
E|--0-----0-------------------------------------|
  "Instead of goin under...'stead of goin under..."
This is played the second time they sing this part

Interlude (Guitar 2)

E|----------------------------------------------|
B|----------------------------------------------|
G|--------------------9--------2----------------|
D|--x-x-x-x-x---------x-0-2-2--2--0-2-2---------|
A|--x-x-x-x-x---2-2---7-0-0-0--x--0-0-0---------|
E|--x-x-x-x-x---0-0------------4----------------|
Repeat above twice then play


(Guitar 2)
E|----------------------------------------------|
B|----------------------------------------------|
G|-------13--------2---------13-----------------|
D|--------x--0-2-2-2--2-------x-----------------|
A|--2-2--11--0-0-0-x--0--2-2-11-----------------|
E|--0-0------------4-----0-0--------------------|

E|----------------------------------------------|
B|----------------------------------------------|
G|----------------------------------------------|
D|----------------------------------------------|
A|-----7---6---4---6----------------------------|
E|---5-5---4---2---4----------------------------|


Verse II (Guitar 2)


E|----------------------------------------------|
B|----------------------------------------------|
G|----------------------9--------2--------------|
D|-------------6--------x--0-2-2-2--2-----------|
A|---2--2------6---2-2--7--0-0-0-x--0-----------|
E|---0--0------4---0-0-----------4--------------|


E|----------------------------------------------|
B|----------------------------------------------|
G|--------9-------------------------------------|
D|--------x----2----------------------------6---|
A|---2-2--7--0-0---6---4---6--2-2-----------6---|
E|---0-0-----------4---2---4--0-0-----------4---|

E|----------------------------------------------|
B|----------------------------------------------|
G|----------------------------------------------|
D|------------------------------6---------------|
A|---7---7--------7----2--2-----6--7-7--6--7----|
E|---5---5--------5----0--0-----4--5-5--4--5----|

E|----------------------------------------------|
B|----------------------------------------------|
G|----------------------------------------2-2-2-|
D|------------------2-2-2-2-2-------------0-0-0-|
A|---2-2-2-2-2-2-2--0-0-0-0-0---2-2-2-2-2-------|
E|---0-0-0-0-0-0-0------------0-0-0-0-0-0-------|
  PM...............  ..........  ........
"Maybe were just tryin to hard..."


Chorus (See Above)

Interlude (Guitar 1) (before solo)

E|----------------------------------------------|
B|----------------------------------------------|
G|----------------------------------------------|
D|----------------------------------------------|
A|------7~----7~---7~----7~---------------------|
E|--0-0---0-0---0-0---0-0-----------------------|

Solo (Guitar 2)

E|--h5p4p0h5p4p0--h7p5p0h7p5p0------------------|
B|------------------------------4h5-4h5-7-------|
G|----------------------------------------------|
D|----------------------------------------------|
A|----------------------------------------------|
E|----------------------------------------------|

E|----------------------------------------------|
B|--9p0-10p0--12p0-10p0-9p0-7p0-9p0-7p0---------|
G|----------------------------------------------|
D|----------------------------------------------|
A|----------------------------------------------|
E|----------------------------------------------|


E|---h5p4p0h5p4p0--h7p5p0h7p5p0-----------------|
B|-------------------------------4h5-4h5-7------|
G|----------------------------------------------|
D|----------------------------------------------|
A|----------------------------------------------|
E|----------------------------------------------|


E|----------------------------------12/14\12~---|
B|--9p0-10p0-12p0-10p0-9p0-7p0------------------|
G|----------------------------------------------|
D|----------------------------------------------|
A|----------------------------------------------|
E|----------------------------------------------|

Under solo (Guitar 1)

E|------------------------------------------------------------|
B|------------------------------------------------------------|
G|-------------------------7-7-7-7-7--------------------------|
D|-------------------------7-7-7-7-7---2-2-2-2-2--2-----------|
A|--2-2-2-2-2---4-4-4-4-4--5-5-5-5-5---0-0-0-0-0--x-----------|
E|--0-0-0-0-0---2-2-2-2-2-------------------------4-----------|


Bridge (Guitar 1 & 2)

E|----------------------------------------------|
B|----------------------------------------------|
G|----------------------------------------------|
D|-------------2-2----4-4-----------------------|
A|--2-2---4-4--0-0----2-2-----------------------|
E|--0-0---2-2-----------------------------------|
  "I cant sit back and wonder why..."
Play above twice...

Bridge PartII (Guitar 2)

E|----------------------------------------------|
B|----------------------------------------------|
G|--9---9---9---9---9---9---9---9---------------|
D|--x---x---x---x---x---x---x---x---------------|
A|--7---7---7---7---7---7---7---7---------------|
E|----------------------------------------------|
   "And I hate it when you fake it..."

Bridge PartII (Guitar 1)

E|-------------------------------------------------------------|
B|-------------------------------------------------------------|
G|-------------------------------------------------------------|
D|-------------2-2----4-4----------------2--2----4--4----------|
A|--2-2---4-4--0-0----2-2--2---2--4---4--0--0----2--2----------|
E|--0-0---2-2--------------0---0--2---2-----------------7\-----|


(Guitars 1 & 2)
E|------------------------------------------------------------|
B|------------------------------------------------------------|
G|------------------------------------------------------------|
D|-------------2-2----4-4------------------2---x-x-x-x-x------|
A|--2-2---4-4--0-0----2-2----2--2---4--4---0---x-x-x-x-x------|
E|--0-0---2-2----------------0--0---2--2-------x-x-x-x-x------|


Chorus (see above)

Outro (Guitar 1)

E|--------------------------------------------------------------------|
B|--------------------------------------------------------------------|
G|--9-9-9-9--7-7-7-7-----------------------------7-7-7-7--------------|
D|--9-9-9-9--7-7-7-7-----------5-5-5-5-----------7-7-7-7--------------|
A|--7-7-7-7--5-5-5-5--7-7-7-7--3-3-3-3--2-2-2-2--5-5-5-5--------------|
E|--------------------5-5-5-5-----------0-0-0-0-----------------------|


E|-----------------------------------------------------------------|
B|-----------------------------------------------------------------|
G|-------------------9-9-9-9-7-7-7-7-------------------------------|
D|--2-2-2-2-2-2-2-2--9-9-9-9-7-7-7-7----------5-5-5-5-5------------|
A|--0-0-0-0-0-0-0-0--7-7-7-7-5-5-5-5-7-7-7-7--3-3-3-3-3------------|
E|-----------------------------------5-5-5-5-----------------------|
                                  "Stead of goin under again...."
E|-------------------------------------------------------------------|
B|-------------------------------------------------------------------|
G|--9-9-9-9--7-7-7-7-----------------------------2-2-2-2-------------|
D|--9-9-9-9--7-7-7-7-----------5-5-5-5-----------0-0-0-0-------------|
A|--7-7-7-7--5-5-5-5--7-7-7-7--3-3-3-3--2-2-2-2----------------------|
E|--------------------5-5-5-5-----------0-0-0-0----------------------|


E|--------------------------------------------------------------------|
B|--------------------------------------------------------------------|
G|------------------------------------2-2-2-2-------------------------|
D|--2-2-2-2-2-2-2-2--5-5-5------------0-0-0-0--2-2-2-2-5-5-5-5--------|
A|--0-0-0-0-0-0-0-0--3-3-3--0-2-2-2-2----------0-0-0-0-3-3-3-3--0x----|
E|--------------------------0-0-0-0-0---------------------------0x----|


Outro (Guitar 2)

E|------------------------------------------------------------------|
B|--9--10--9--10--12--10--9--10--9--10--9--10-----------------------|
G|--9---9--9---9---9---9--9---9--9---9--9---9-----------------------|
D|--------------------------------------------11-9-11---------------|
A|--------------------------------------------11-9-11---------------|
E|------------------------------------------------------------------|
  "Instead of goin under again..." play this a bunch of times


7. Pieces

Intro/verse (try figure out e strum pattern urself)
e|----------------------------------------------|
B|----------------------------------------------|
G|-7-7-7777----------------------5-5-5555-------|
D|-7-7-7777--8-8-8888--3-3-3333--5-5-5555-------|
A|-5-5-5555--8-8-8888--3-3-3333--3-3-3333-------|
E|-----------6-6-6666--1-1-1111-----------------|

Chorus (0:31 & 1:24)(downstroke)
e|--------------------------------------------------------------|
B|--------------------------------------------------------------|
G|-7777-7777-7777-7777—-10101010-10101010-----------------------|
D|-7777-7777-7777-7777--10101010-10101010---10101010-10101010---|
A|-5555-5555-5555-5555--8-8-8-8—-8—8—8-8----10101010-10101010---|
E|------------------------------------------8-8-8-8—-8-8-8-8----|
   If you believe... ...soul, I'd say... ...all the words...
e|--------------------------------------------------------------|
B|--------------------------------------------------------------|
G|-7777-7777-7777-7777—-10101010-10101010-----------------------|
D|-7777-7777-7777-7777--10101010-10101010---10101010-10101010---|
A|-5555-5555-5555-5555--8-8-8-8—-8—8—8-8----10101010-10101010---|
E|------------------------------------------8-8-8-8—-8-8-8-8----|

e|----------------------------------------|
B|----------------------------------------|
G|----------------------------------------|
D|-8~-------------------------------------|
A|-8~-------------------------------------|
E|-6~-that I'm better off on my own-------|

repeat intro/verse
repeat chorus

bridge (1:48)
e|------------------------------------------------------|
B|------------------------------------------------------|
G|-10-10-10-12--10-10-10-12--10-10-10-12--14-14-14-14---|
D|-10-10-10-10--10-10-10-10--10-10-10-10--10-10-10-10---|
A|------------------------------------------------------|
E|------------------------------------------------------|x2

e|-----------------------------------------------------|
B|-------10-----------10-------------------------------|
G|-10-----------10----------------10---------10--------|
D|----10----10-----10----10---8----------8-------------|
A|------------------------------8-----8-----8----8-----|
E|-----------------------------------------------------|

e|-----------------------------------------------------|
B|-----------------------------------------------------|
G|-------10---------10---------10--------10------------|
D|-10----------10----------8---------8-----------------|
A|-----8----8-----8----8-----8----8----8----8----------|
E|-----------------------------------------------------|

e|--------------------------------|
B|--------------------------------|
G|-99999999-1414141414141414------|
D|-xxxxxxxx-xxxxxxxxxxxxxxxx------|
A|-77777777-1212121212121212------|
E|--------------------------------|

then repeat verse
& chorus

End on: e|--------|
        B|--------|
        G|--------|
        D|-3~-----|
        A|-3~-----|
        E|-1~-----|

Another fine song from a great band. enjoy & have fun

8. Underclass Hero


Intro
GUITAR 1
|------------------------------------------------------------------|
|------------------------------------------------------------------|
|------------------------------------------------------------------|  X4
|--------6-7-6---------------6-7-6------------6-7-6----------------|
|----7-------------------7-----------------7------------7----9-----|
|-00---------------77-----------------55-------------55---77-------|


Gtr.2
e|-------------------------------------|
B|-------------------------------------|
G|-99-9999--------------9999-----------| 2x
D|-99-xxxx--99-9999--77-xxxx--77-7-9---|
A|-77-7777--99-xxxx--77-7777--77-7-9---|
E|----------77-7777--55-------55-5-7---|

Verse
GUITAR 1
|-----------------------------------------------------------|
|-----------------------------------------------------------|
|-----------------------------------------------------------|
|------6---------------6-------------6----------------------| X2
|----7---7-----------7---7---------7---7---------7----9-----|
|-00-------------77-----------99-------------55---77--------|

Pre Chorus
GUITAR 1
|-----------------------------------------------------------|
|-----------------------------------------------------------|
|-----------------------------------------------------------|
|--------------6-7-6----------------------------------------|
|-------7---7--------9-7-------11---7--7------9---7----9----| X2
|----000---0-0------------9-9-9----5--5----7-7---5--7-7-----|

GUITAR 2
|-----------------------------------------------------------|
|-----------------------------------------------------------|
|-----------------------------------------------------------|
|-------------44444--6666--2-2-4444-------------------------| X2
|-2222-2---4--22222--4444--0-0-2222-------------------------|
|-0000-0---2------------------------------------------------|

Chorus GUITAR 1 & 2:
e|------------------|
B|------------------|
G|-2222------4444---| 4x
D|-2222-2222-4444---|
A|-0000-2222-2222---|
E|------0000--------|

INTRO GUITAR 1
|------------------------------------------------------------------|
|------------------------------------------------------------------|
|------------------------------------------------------------------|  X2
|--------6-7-6---------------6-7-6------------6-7-6----------------|
|----7-------------------7-----------------7------------7----9-----|
|-00---------------77-----------------55-------------55---77-------|

INTRO GUITAR 2
e|-------------------------------------|
B|-------------------------------------|
G|-99-9999--------------9999-----------| 2x
D|-99-xxxx--99-9999--77-xxxx--77-7-9---|
A|-77-7777--99-xxxx--77-7777--77-7-9---|
E|----------77-7777--55-------55-5-7---|

VERSE GUITAR 1
|-----------------------------------------------------------|
|-----------------------------------------------------------|
|-----------------------------------------------------------|
|------6---------------6-------------6----------------------| X2
|----7---7-----------7---7---------7---7---------7----9-----|
|-00-------------77-----------99-------------55---77--------|

PRE CHORUS GUITAR 1
|-----------------------------------------------------------|
|-----------------------------------------------------------|
|-----------------------------------------------------------|
|--------------6-7-6----------------------------------------|
|-------7---7--------9-7-------11---7--7------9---7----9----| X2
|----000---0-0------------9-9-9----5--5----7-7---5--7-7-----|

GUITAR 2
|-----------------------------------------------------------|
|-----------------------------------------------------------|
|-----------------------------------------------------------|
|----------4--44444--6666--2-2-4444-------------------------| X2
|-2222-2---2--22222--4444--0-0-2222-------------------------|
|-0000-0----------------------------------------------------|

CHORUS GUITAR 1 & 2
e|------------------|
B|------------------|
G|-2222------4444---| 4x
D|-2222-2222-4444---|
A|-0000-2222-2222---|
E|------0000--------|

Bridge prt.1
e|--------------------------------|
B|--------------------------------|
G|-99999999--999999--9999999999---|
D|-xxxxxxxx--xxxxxx--xxxxxxxxxx---|
A|-77777777--777777--7777777777---|
E|---------0--------0-----------0-|

SOLO GUITAR 1

|------------------------------------------------------------------|
|------------------------------------------------------------------|
|-9-9-9---11-11--9----9--11--13-11-11-9-11-------8---9---8---------|
|-x-x-x---x--x---x-9--x--x---x--x--x--x-x------9---9---9---9-------|
|-7-7-7---9--9---7-x--7--9---11-9--9--7-9--------------------------|
|------------------7-----------------------------------------------|

|------------------------------------------------------------------|
|------------------------------------------------------------------|
|-9-9-9---11-11--9----9--11--13-11-11-9-11-------8---9--11---------|  X2
|-x-x-x---x--x---x-9--x--x---x--x--x--x-x------9---9---9-----------|
|-7-7-7---9--9---7-x--7--9---11-9--9--7-9--------------------------|
|------------------7-----------------------------------------------|

                                                  PM...............
|------------------------------------------------------------------|
|-----10----10------9-------9--------------------------------------|
|-9-9---9-9---9-9--9--9-9-9---9------9-----8-------11-----9-----8--|
|--------------------------------9-9---9-9---9-9---9--9-9-9-9-9-9--|
|------------------------------------------------------------------|
|------------------------------------------------------------------|
                                                  PM...............
|------------------------------------------------------------------|
|------------------------------------------------------------------|
|-9-9-9---11-11--9----9--11--13-11-11-9-11----13-14-13-11---9------|
|-x-x-x---x--x---x-9--x--x---x--x--x--x-x-----x--x--x--x----x------|
|-7-7-7---9--9---7-x--7--9---11-9--9--7-9-----11-12-11-9----7------|
|------------------7----------------------------------------0------|


SOLO GUITAR 2
|------------------------------------------------------------------|
|------------------------------------------------------------------|
|-2--2--2--2-----------------4-4-4-4-4-4-4-4-4-4-4-4-4-4-4-4-------|  X4
|-2--2--2--2---2---2-2-2-2---2-2-2-2-2-2-2-2-2-2-2-2-2-2-2-2-------|
|-0--0--0--0---2---2-2-2-2---2-2-2-2-2-2-2-2-2-2-2-2-2-2-2-2-------|
|--------------0---0-0-0-0-----------------------------------------|

GUITAR 1
|------------------------------------------------------------------|
|------------------------------------------------------------------|
|------------------------------------------------------------------|  X4
|--------6-7-6---------------6-7-6------------6-7-6----------------|
|----7-------------------7-----------------7------------7----9-----|
|-00---------------77-----------------55-------------55---77-------|


GUITAR 2
|------x-x-x-x-------x-x-x-x-------x-x-x-x-------------------------|
|------x-x-x-x-------x-x-x-x-------x-x-x-x-------------------------|
|--9-9-x-x-x-x-------x-x-x-x-------x-x-x-x-------------------------|  X4
|--9-9-x-x-x-x--9-9--x-x-x-x---7---x-x-x-x---7-7--9-9--------------|
|--7-7-x-x-x-x--9-9--x-x-x-x---7---x-x-x-x---7-7--9-9--------------|
|------x-x-x-x--7-7--x-x-x-x---5---x-x-x-x---5-5--7-7--------------|


Chorus GUITAR 1 & 2:
e|------------------|
B|------------------|
G|-2222------4444---| 4x
D|-2222-2222-4444---|
A|-0000-2222-2222---|
E|------0000--------|

OUTRO
GUITAR 1
|------------------------------------------------------------------|
|------------------------------------------------------------------|
|------------------------------------------------------------------|  X2
|--------6-7-6---------------6-7-6------------6-7-6----------------|
|----7-------------------7-----------------7------------7----9-----|
|-00---------------77-----------------55-------------55---77-------|

OUTRO GUITAR 2
e|-------------------------------------|
B|-------------------------------------|
G|-99-9999--------------9999-----------| 2x
D|-99-xxxx--99-9999--77-xxxx--77-7-9---|
A|-77-7777--99-xxxx--77-7777--77-7-9---|
E|----------77-7777--55-------55-5-7---|

END ON
|--------|
|--------|
|--------|
|-2-2----|
|-2-2----|
|-0-0----|

9. Motivation

Intro    (0:01)
Guitars 1 & 2         right here, the second guitar does a pickslide
e|--------------------|-----------------------------------------|
B|--------------------|-----------------------------------------|
G|--------------------*-----------------------------------------|
D|-22---22---22---22--9/----------------------------------------|
A|-22---22---22---22--9/----------------------------------------|
E|-00---00---00---00--7/----------------------------------------|


e|--------------------------------------------------------------|
B|--------------------------------------------------------------|
G|--------------------------------------------------------------|
D|-222-6-7--7-6----222-6-7--7-6----222-6-7--7-6----999-6-777-6--|- x2
A|-222-6-7--7-6----222-6-7--7-6----222-6-7--7-6----999-6-777-6--|
E|-000-4-5--5-4----000-4-5--5-4----000-4-5--5-4----777-4-555-4--|


Verse 1 (0:23)
e|-------------------------------------------|
B|-------------------------------------------|
G|-------------------------------------------|
D|-22-2---66-6---77-7---99-9-----------------|- x3
A|-22-2---66-6---77-7---99-9-----------------|
E|-00-0---44-4---55-5---77-7-----------------|
   ..     ..     ..     ..

Note: those are 11's, not 1's.
e|-------------------------------------------|
B|-------------------------------------------|
G|-------------------------------------------|
D|-22-2---66-6------------------11-11--------|
A|-22-2---66-6---77--99--11-11--9--9---------|
E|-00-0---44-4---55--77--9--9----------------|
   ..     ..


Chorus! Yay! (0:34) Note the fast chords, which are close together
e|---------------------------------------------------|
B|---------------------------------------------------|
G|---9-9-9-999-9-9-9-999-----------------------------|
D|---9-9-9-999-9-9-9-999-9-9-9-999-9-9-9-999---------|
A|---7-7-7-777-7-7-7-777-9-9-9-999-9-9-9-999---------|
E|-----------------------7-7-7-777-7-7-7-777---------|


e|---------------------------------------------------|
B|---------------------------------------------------|
G|---9-9-9-999-9-9-9-999-----------------------------|
D|---9-9-9-999-9-9-9-999-7-7-7-777-9-9-9-999---------|
A|---7-7-7-777-7-7-7-777-7-7-7-777-9-9-9-999---------|
E|-----------------------5-5-5-555-7-7-7-777---------|


e|-----------------------------------------|
B|-----------------------------------------|
G|-----------------------------------------|
D|---7~---9-9-9-9-9-9-9-9------------------|
A|---7~---9-9-9-9-9-9-9-9------------------|
E|---5~---7-7-7-7-7-7-7-7------------------|

Play Intro, Verse and Chorus again

After you do all that over again, we have the lovely bridge.

Bridgeamabobber (1:27)    "Nothing's new..."
e|----------------------------------------------|
B|----------------------------------------------|
G|----------------------------------------------|
D|---2222--9999--77777777---2222-9999-77777777--|
A|---2222--9999--77777777---2222-9999-77777777--|
E|---0000--7777--55555555---0000-7777-55555555--|

e|----------------------------------------------|
B|----------------------------------------------|
G|----------------------------------------------|
D|---2222--9999--77777777---44444444-77777777---|
A|---2222--9999--77777777---44444444-77777777---|
E|---0000--7777--55555555---22222222-55555555---|


Guitar solo (1:38)
     Both guitars play these two chords, one guitar plays the rest
e|---|----------------------|
B|---|----------------------|
G|---|---------------2-44---|- x4
D|--22---------------2-44---|
A|--22--5-4-2-0------0-22---|
E|--00----------4-0---------|


Guitars split here


Guitar 1


Other bridge (1:49) "Can't depend..."
e|----------------------------------------------------|
B|----------------------------------------------------|
G|--9~--------9~--------------------------------------|
D|--9~---9~---9~-9-7~---9----9-9---9-9--99999999------|
A|--7~---9~---7~-9-7~---9----9-9---9-9--99999999------|
E|-------7~------7-5~---7----7-7---7-7--77777777------|

Guitar 2

Note: if you play it and it sounds like it clashes a bit, it's ok, it's meant to. play
lightly behind the rythym guitar.

e|--0--0-0--0--0-0--0--0-0--0--0-0----0--0-0--0--0-0--0--0-0--|
B|--5--4-2--5--4-2--7--5-4--7--5-4----2--0-2--4--5-4--2--0-2--|
G|------------------------------------------------------------|
D|------------------------------------------------------------|
A|------------------------------------------------------------|
E|------------------------------------------------------------|


e|-00-00-00-00-00-00-00-00--------------------------|
B|-55-44-55-44-22-44-55-77--------------------------|
G|--------------------------------------------------|
D|--------------------------------------------------|
A|--------------------------------------------------|
E|--------------------------------------------------|

Other bridge Part two (2:02)

Guitar 1


e|--------------------------|
B|--------------------------|
G|--------44----------22----|- x8
D|--22----44----44----22----|
A|--22----22----44----00----|
E|--00----------22----------|


Guitar 2. This part is hard to hear and get at first, and kind of unnecessary, so leave
out if you want to. if you don't want to, go ahead. It comes in on the third time the
part plays. it plays four times with a palm mute, then twice without it.


e|--4-4-4-42-4-4-42-42-----|
B|--5-5-5-54-5-5-54-54-----|
G|-------------------------|- x6
D|-------------------------|
A|-------------------------|
E|-------------------------|


Last chorus/bridge (2:25)

Guitar one       It's just a strumming pattern so do whatever

e|--------------------------|
B|--------------------------|
G|--------4-44-------2-22---|- x3
D|--2-22--4-44--4-44-2-22---|
A|--2-22--2-22--4-44-0-02---|
E|--0-00--------2-22--------|


e|----------------------------------|
B|----------------------------------|
G|--------4-44--22222222-44444444---|
D|--2-22--4-44--22222222-44444444---|
A|--2-22--2-22--00000000-22222222---|
E|--0-00----------------------------|


Guitar two     Like that last part, but with a twist at the end...

e|---4-4-4-42-4-4-42-42-------------|
B|---5-5-5-54-5-5-54-54-------------|
G|----------------------------------|- x3
D|----------------------------------|
A|----------------------------------|
E|----------------------------------|


e|---4-4-42-42-44424444-------------|
B|---5-5-54-54-55545555-------------|
G|----------------------------------|
D|----------------------------------|
A|----------------------------------|
E|----------------------------------|

After all that, do the intro again, and end on

e|-------|
B|-------|
G|-------|
D|---2---|
A|---2---|
E|---0---|

That's all, if you have any questions or comments

10. Makes No Difference


Guitar 1 (rhythm)

intro

E|---------------------------------------------------|
B|---------------------------------------------------|
G|---------------------------------------------------|
D|--5------6h8-8-8-8-8--------10---------------------|
A|--6--6-6-------8-8-8--------10------8h10-11-11-10--| (x4)
E|---------------6-6-6--6-6-6--8--8-8----------------|
       . .     .        . . .     . .

verse

E|----------------------------------------------------------------------|
B|----------------------------------------------------------------------|
G|--8-8-8-8-8-8-8-8--8-8-8-8-8-8-8-8--5-5-5-5-5-5-5-5-------------------|
D|--8-8-8-8-8-8-8-8--8-8-8-8-8-8-8-8--5-5-5-5-5-5-5-5--6-6-6-6-6-6-6-6--|
A|--6-6-6-6-6-6-6-6--5-5-5-5-5-5-5-5--3-3-3-3-3-3-3-3--6-6-6-6-6-6-6-6--| (x2)
E|-----------------------------------------------------4-4-4-4-4-4-4-4--|
    . . . . . . . .  . . . . . . . .  . . . . . . . .  . . . . . . . .

E|----------------------------------------------------------------------|
B|----------------------------------------------------------------------|
G|--8-8-8-8-8-8-8-8--8-8-8-8-8-8-8-8--5-5-5-5-5-5-5-5-------------------|
D|--8-8-8-8-8-8-8-8--8-8-8-8-8-8-8-8--5-5-5-5-5-5-5-5--6-6-6-6-6-6-6-6--|
A|--6-6-6-6-6-6-6-6--5-5-5-5-5-5-5-5--3-3-3-3-3-3-3-3--6-6-6-6-6-6-6-6--| (x2)
E|-----------------------------------------------------4-4-4-4-4-4-4-4--|

chorus

E|-------------------------------------------------------------------|
B|-------------------------------------------------------------------|
G|--8-8-8-8-8-8-8-8------------------------------------4-4--4-4-4-3--|
D|--8-8-8-8-8-8-8-8--3-3-3-3-3-3-3-3--6-6-6-6-6-6-6-6--4-4--4-4-4-3--|
A|--6-6-6-6-6-6-6-6--3-3-3-3-3-3-3-3--6-6-6-6-6-6-6-6--2-2--2-2-2-1--| (x1)
E|-------------------1-1-1-1-1-1-1-1--4-4-4-4-4-4-4-4----------------|

E|-----------------------------------------------------|
B|-----------------------------------------------------|
G|--8-8-8-8-8-8-8-8------------------------------------|
D|--8-8-8-8-8-8-8-8--3-3-3-3-3-3-3-3--6-6-6-6-6-6-6-6--|
A|--6-6-6-6-6-6-6-6--3-3-3-3-3-3-3-3--6-6-6-6-6-6-6-6--| (x1)
E|-------------------1-1-1-1-1-1-1-1--4-4-4-4-4-4-4-4--|

E|---------------------------|
B|---------------------------|
G|--4-4-x-x-x-x-4-x-x-x-x-3--|
D|--4-4-x-x-x-x-4-x-x-x-x-3--|
A|--2-2-x-x-x-x-2-x-x-x-x-1--| (x1)
E|---------------------------|

post-chorus

E|------------------------------------------|
B|------------------------------------------|
G|--8-8-88--------------5-5-55--------------|
D|--8-8-88--8-8-8--888--5-5-55--6-6-6--666--|
A|--6-6-66--8-8-8--888--3-3-33--6-6-6--666--| (x2)
E|----------6-6-6--666----------4-4-4--444--|

verse

E|----------------------------------------------------------------------|
B|----------------------------------------------------------------------|
G|--8-8-8-8-8-8-8-8--8-8-8-8-8-8-8-8--5-5-5-5-5-5-5-5-------------------|
D|--8-8-8-8-8-8-8-8--8-8-8-8-8-8-8-8--5-5-5-5-5-5-5-5--6-6-6-6-6-6-6-6--|
A|--6-6-6-6-6-6-6-6--5-5-5-5-5-5-5-5--3-3-3-3-3-3-3-3--6-6-6-6-6-6-6-6--| (x2)
E|-----------------------------------------------------4-4-4-4-4-4-4-4--|
    . . . . . . . .  . . . . . . . .  . . . . . . . .  . . . . . . . .

E|----------------------------------------------------------------------|
B|----------------------------------------------------------------------|
G|--8-8-8-8-8-8-8-8--8-8-8-8-8-8-8-8--5-5-5-5-5-5-5-5-------------------|
D|--8-8-8-8-8-8-8-8--8-8-8-8-8-8-8-8--5-5-5-5-5-5-5-5--6-6-6-6-6-6-6-6--|
A|--6-6-6-6-6-6-6-6--5-5-5-5-5-5-5-5--3-3-3-3-3-3-3-3--6-6-6-6-6-6-6-6--| (x2)
E|-----------------------------------------------------4-4-4-4-4-4-4-4--|

chorus

E|-------------------------------------------------------------------|
B|-------------------------------------------------------------------|
G|--8-8-8-8-8-8-8-8------------------------------------4-4--4-4-4-3--|
D|--8-8-8-8-8-8-8-8--3-3-3-3-3-3-3-3--6-6-6-6-6-6-6-6--4-4--4-4-4-3--|
A|--6-6-6-6-6-6-6-6--3-3-3-3-3-3-3-3--6-6-6-6-6-6-6-6--2-2--2-2-2-1--| (x1)
E|-------------------1-1-1-1-1-1-1-1--4-4-4-4-4-4-4-4----------------|

E|-----------------------------------------------------|
B|-----------------------------------------------------|
G|--8-8-8-8-8-8-8-8------------------------------------|
D|--8-8-8-8-8-8-8-8--3-3-3-3-3-3-3-3--6-6-6-6-6-6-6-6--|
A|--6-6-6-6-6-6-6-6--3-3-3-3-3-3-3-3--6-6-6-6-6-6-6-6--| (x1)
E|-------------------1-1-1-1-1-1-1-1--4-4-4-4-4-4-4-4--|

E|---------------------------|
B|---------------------------|
G|--4-4-x-x-x-x-4-x-x-x-x-3--|
D|--4-4-x-x-x-x-4-x-x-x-x-3--|
A|--2-2-x-x-x-x-2-x-x-x-x-1--| (x1)
E|---------------------------|

bridge/solo thing

E|------------------------------------------|
B|------------------------------------------|
G|--8--88-8--x-88-8-88----------------------|
D|--8--88-8--x-88-8-88--8--88-8--x-66-6-66--|
A|--6--66-6--x-55-5-55--8--88-8--x-66-6-66--| (x4)
E|----------------------6--66-6--x-44-4-44--|

E|------------------------------------------------------|
B|------------------------------------------------------|
G|--8--8-8--888---------------5--5-5--555---------------|
D|--8--8-8--888--8--8-8--888--5--5-5--555--6--6-6--666--|
A|--6--6-6--666--8--8-8--888--3--3-3--333--6--6-6--666--| (x5)
E|---------------6--6-6--666---------------4--4-4--444--|
    .  . .  ...  .  . .  ...  .  . .  ...  .  . .  ...

E|---------------------------------------------------|
B|---------------------------------------------------|
G|--8--8-8--888---------------5--5-5--555------------|
D|--8--8-8--888--8--8-8--888--5--5-5--555--66666666--|
A|--6--6-6--666--8--8-8--888--3--3-3--333--66666666--| (x1)
E|---------------6--6-6--666---------------44444444--|
    .  . .  ...  .  . .  ...  .  . .  ...

chorus

E|-------------------------------------------------------------------|
B|-------------------------------------------------------------------|
G|--8-8-8-8-8-8-8-8------------------------------------4-4--4-4-4-3--|
D|--8-8-8-8-8-8-8-8--3-3-3-3-3-3-3-3--6-6-6-6-6-6-6-6--4-4--4-4-4-3--|
A|--6-6-6-6-6-6-6-6--3-3-3-3-3-3-3-3--6-6-6-6-6-6-6-6--2-2--2-2-2-1--| (x1)
E|-------------------1-1-1-1-1-1-1-1--4-4-4-4-4-4-4-4----------------|

E|-----------------------------------------------------|
B|-----------------------------------------------------|
G|--8-8-8-8-8-8-8-8------------------------------------|
D|--8-8-8-8-8-8-8-8--3-3-3-3-3-3-3-3--6-6-6-6-6-6-6-6--|
A|--6-6-6-6-6-6-6-6--3-3-3-3-3-3-3-3--6-6-6-6-6-6-6-6--| (x1)
E|-------------------1-1-1-1-1-1-1-1--4-4-4-4-4-4-4-4--|

E|---------------------------|
B|---------------------------|
G|--4-4-x-x-x-x-4-x-x-x-x-3--|
D|--4-4-x-x-x-x-4-x-x-x-x-3--|
A|--2-2-x-x-x-x-2-x-x-x-x-1--| (x1)
E|---------------------------|

post-chorus

E|------------------------------------------|
B|------------------------------------------|
G|--8-8-88--------------5-5-55--------------|
D|--8-8-88--8-8-8--888--5-5-55--6-6-6--666--|
A|--6-6-66--8-8-8--888--3-3-33--6-6-6--666--| (x4)
E|----------6-6-6--666----------4-4-4--444--|

outro

E|---------------------------------------------------|
B|---------------------------------------------------|
G|---------------------------------------------------|
D|--5------6h8-8-8-8-8--------10---------------------|
A|--6--6-6-------8-8-8--------10------8h10-11-11-10--| (x1)
E|---------------6-6-6--6-6-6--8--8-8----------------|
       . .     .        . . .     . .

E|------------------------------------------------------|
B|------------------------------------------------------|
G|------------------------------------------------------|
D|--5------6h8-8-8-8-8--------10------------------------|
A|--6--6-6-------8-8-8--------10------8h10-11-11-11-10--| (x1)
E|---------------6-6-6--6-6-6--8--8-8-------------------|
       . .     .        . . .     . .

----------------------------------------------------------------------------
Guitar 2 (higher notes)

intro

E|-----------------------------------------|
B|-----------------------------------------|
G|--8-8-88--8-8-8--888--8-8-88--13-13-12~--|
D|--x-x-xx--x-x-x--xxx--x-x-xx---x--x--x---|
A|--6-6-66--6-6-6--666--6-6-66--11-11-10~--| (x1)
E|-----------------------------------------|

E|-----------------------------------------|
B|-----------------------------------------|
G|--8-8-88--8-8-8--888--8-8-88--10-10-12~--|
D|--x-x-xx--x-x-x--xxx--x-x-xx---x--x--x---|
A|--6-6-66--6-6-6--666--6-6-66---8--8-10~--| (x1)
E|-----------------------------------------|

verse

E|----------------------------------------------------------------------|
B|----------------------------------------------------------------------|
G|--8-8-8-8-8-8-8-8--8-8-8-8-8-8-8-8--5-5-5-5-5-5-5-5-------------------|
D|--8-8-8-8-8-8-8-8--8-8-8-8-8-8-8-8--5-5-5-5-5-5-5-5--6-6-6-6-6-6-6-6--|
A|--6-6-6-6-6-6-6-6--5-5-5-5-5-5-5-5--3-3-3-3-3-3-3-3--6-6-6-6-6-6-6-6--| (x2)
E|-----------------------------------------------------4-4-4-4-4-4-4-4--|
    . . . . . . . .  . . . . . . . .  . . . . . . . .  . . . . . . . .

E|----------------------------------------------------------------------|
B|----------------------------------------------------------------------|
G|--8-8-8-8-8-8-8-8--8-8-8-8-8-8-8-8--5-5-5-5-5-5-5-5-------------------|
D|--8-8-8-8-8-8-8-8--8-8-8-8-8-8-8-8--5-5-5-5-5-5-5-5--6-6-6-6-6-6-6-6--|
A|--6-6-6-6-6-6-6-6--5-5-5-5-5-5-5-5--3-3-3-3-3-3-3-3--6-6-6-6-6-6-6-6--| (x1)
E|-----------------------------------------------------4-4-4-4-4-4-4-4--|

E|--------------------------------------------------------------|
B|-----------------------------------------------------9--8-----|
G|--8-8-8-8-8-8-8-8--8-8-8-8-8-8-8-8--5-5-5-5-5-5-5-5--------8--|
D|--8-8-8-8-8-8-8-8--8-8-8-8-8-8-8-8--5-5-5-5-5-5-5-5-----------|
A|--6-6-6-6-6-6-6-6--5-5-5-5-5-5-5-5--3-3-3-3-3-3-3-3-----------| (x1)
E|--------------------------------------------------------------|

chorus (quiet/hard to hear)

E|------------------------------------------|
B|------------------------------------------|
G|--8-8-888-8--888-888--5-5-555-5--555-555--|
D|--x-x-xxx-x--xxx-xxx--x-x-xxx-x--xxx-xxx--|
A|--6-6-666-6--666-666--3-3-333-3--333-333--| (x1)
E|------------------------------------------|

E|---------------------------------------|
B|---------------------------------------|
G|--8-8-888-8--888-888--4-4-4-4-4-4-4-3--|
D|--x-x-xxx-x--xxx-xxx--x-x-x-x-x-x-x-x--|
A|--6-6-666-6--666-666--2-2-2-2-2-2-2-1--| (x1)
E|---------------------------------------|

E|------------------------------------------|
B|------------------------------------------|
G|--8-8-888-8--888-888--5-5-555-5--555-555--|
D|--x-x-xxx-x--xxx-xxx--x-x-xxx-x--xxx-xxx--|
A|--6-6-666-6--666-666--3-3-333-3--333-333--| (x1)
E|------------------------------------------|

E|-----------------------------------------------|
B|-----------------------------------------------|
G|--8-8-888-8--888-888--4-4-x-x-x-x-4-x-x-x-x-3--|
D|--x-x-xxx-x--xxx-xxx--x-x-x-x-x-x-x-x-x-x-x-x--|
A|--6-6-666-6--666-666--2-2-x-x-x-x-2-x-x-x-x-1--| (x1)
E|-----------------------------------------------|

post-chorus

E|-------------------------------------------------|
B|-------------------------------------------------|
G|--12-12-12-12--13-12-10---12-12-12-12--10-12--8--|
D|---x--x--x--x---x--x--x----x--x--x--x---x--x--x--|
A|--10-10-10-10--11-10--8---10-10-10-10---8-10--6--| (x1)
E|-------------------------------------------------|

E|-------------------------------------------------|
B|-------------------------------------------------|
G|--12-12-12-12--15-13-10---12-12-12-12--13-15--8--|
D|---x--x--x--x---x--x--x----x--x--x--x---x--x--x--|
A|--10-10-10-10--13-11--8---10-10-10-10--11-13--6--| (x1)
E|-------------------------------------------------|

verse

E|----------------------------------------------------------------------|
B|----------------------------------------------------------------------|
G|--8-8-8-8-8-8-8-8--8-8-8-8-8-8-8-8--5-5-5-5-5-5-5-5-------------------|
D|--8-8-8-8-8-8-8-8--8-8-8-8-8-8-8-8--5-5-5-5-5-5-5-5--6-6-6-6-6-6-6-6--|
A|--6-6-6-6-6-6-6-6--5-5-5-5-5-5-5-5--3-3-3-3-3-3-3-3--6-6-6-6-6-6-6-6--| (x2)
E|-----------------------------------------------------4-4-4-4-4-4-4-4--|
    . . . . . . . .  . . . . . . . .  . . . . . . . .  . . . . . . . .

E|----------------------------------------------------------------------|
B|----------------------------------------------------------------------|
G|--8-8-8-8-8-8-8-8--8-8-8-8-8-8-8-8--5-5-5-5-5-5-5-5-------------------|
D|--8-8-8-8-8-8-8-8--8-8-8-8-8-8-8-8--5-5-5-5-5-5-5-5--6-6-6-6-6-6-6-6--|
A|--6-6-6-6-6-6-6-6--5-5-5-5-5-5-5-5--3-3-3-3-3-3-3-3--6-6-6-6-6-6-6-6--| (x2)
E|-----------------------------------------------------4-4-4-4-4-4-4-4--|

chorus (quiet/hard to hear)

E|------------------------------------------|
B|------------------------------------------|
G|--8-8-888-8--888-888--5-5-555-5--555-555--|
D|--x-x-xxx-x--xxx-xxx--x-x-xxx-x--xxx-xxx--|
A|--6-6-666-6--666-666--3-3-333-3--333-333--| (x1)
E|------------------------------------------|

E|---------------------------------------|
B|---------------------------------------|
G|--8-8-888-8--888-888--4-4-4-4-4-4-4-3--|
D|--x-x-xxx-x--xxx-xxx--x-x-x-x-x-x-x-x--|
A|--6-6-666-6--666-666--2-2-2-2-2-2-2-1--| (x1)
E|---------------------------------------|

E|------------------------------------------|
B|------------------------------------------|
G|--8-8-888-8--888-888--5-5-555-5--555-555--|
D|--x-x-xxx-x--xxx-xxx--x-x-xxx-x--xxx-xxx--|
A|--6-6-666-6--666-666--3-3-333-3--333-333--| (x1)
E|------------------------------------------|

E|-----------------------------------------------|
B|-----------------------------------------------|
G|--8-8-888-8--888-888--4-4-x-x-x-x-4-x-x-x-x-3--|
D|--x-x-xxx-x--xxx-xxx--x-x-x-x-x-x-x-x-x-x-x-x--|
A|--6-6-666-6--666-666--2-2-x-x-x-x-2-x-x-x-x-1--| (x1)
E|-----------------------------------------------|

post-chorus/bridge

E|-----------------------------------------------------|
B|--8--8--8-8-8-8-8--8--8-8---8--8--8-8-8-8-8--9--9-9--|
G|--8--8--8-8-8-8-8--8--8-8---8--8--8-8-8-8-8--8--8-8--|
D|-----------------------------------------------------|
A|-----------------------------------------------------| (x1)
E|-----------------------------------------------------|

E|--11--11-11-11-----------------------------------------------|
B|--11--11-11-11--11-11-11--11-11--11-11--8--8-8--9-8--9-8--9--|
G|---8---8--8--8---8--8--8---8--8---8--8--8--8-8--8-8--8-8--8--|
D|-------------------------------------------------------------|
A|-------------------------------------------------------------| (x3)
E|-------------------------------------------------------------|

plays very little for this next part

E|--15-----------------|
B|-----16------16-16~--|
G|--------15---15-15~--|
D|---------------------|
A|---------------------| (x5)
E|---------------------|

E|-------------------|
B|--9-8-8-9-8-8-9-8--|
G|--8-8-8-8-8-8-8-8--|
D|-------------------|
A|-------------------| (x1)
E|-------------------|

chorus

chorus (quiet/hard to hear)

E|------------------------------------------|
B|------------------------------------------|
G|--8-8-888-8--888-888--5-5-555-5--555-555--|
D|--x-x-xxx-x--xxx-xxx--x-x-xxx-x--xxx-xxx--|
A|--6-6-666-6--666-666--3-3-333-3--333-333--| (x1)
E|------------------------------------------|

E|---------------------------------------|
B|---------------------------------------|
G|--8-8-888-8--888-888--4-4-4-4-4-4-4-3--|
D|--x-x-xxx-x--xxx-xxx--x-x-x-x-x-x-x-x--|
A|--6-6-666-6--666-666--2-2-2-2-2-2-2-1--| (x1)
E|---------------------------------------|

E|------------------------------------------|
B|------------------------------------------|
G|--8-8-888-8--888-888--5-5-555-5--555-555--|
D|--x-x-xxx-x--xxx-xxx--x-x-xxx-x--xxx-xxx--|
A|--6-6-666-6--666-666--3-3-333-3--333-333--| (x1)
E|------------------------------------------|

E|-----------------------------------------------|
B|-----------------------------------------------|
G|--8-8-888-8--888-888--4-4-x-x-x-x-4-x-x-x-x-3--|
D|--x-x-xxx-x--xxx-xxx--x-x-x-x-x-x-x-x-x-x-x-x--|
A|--6-6-666-6--666-666--2-2-x-x-x-x-2-x-x-x-x-1--| (x1)
E|-----------------------------------------------|

post-chorus

E|-------------------------------------------------|
B|-------------------------------------------------|
G|--12-12-12-12--13-12-10---12-12-12-12--10-12--8--|
D|---x--x--x--x---x--x--x----x--x--x--x---x--x--x--|
A|--10-10-10-10--11-10--8---10-10-10-10---8-10--6--| (x1)
E|-------------------------------------------------|

E|-------------------------------------------------|
B|-------------------------------------------------|
G|--12-12-12-12--15-13-10---12-12-12-12--13-15--8--|
D|---x--x--x--x---x--x--x----x--x--x--x---x--x--x--|
A|--10-10-10-10--13-11--8---10-10-10-10--11-13--6--| (x1)
E|-------------------------------------------------|
*play this whole thing twice

outro

E|-----------------------------------------|
B|-----------------------------------------|
G|--8-8-88--8-8-8--888--8-8-88--13-13-12~--|
D|--x-x-xx--x-x-x--xxx--x-x-xx---x--x--x---|
A|--6-6-66--6-6-6--666--6-6-66--11-11-10~--| (x1)
E|-----------------------------------------|

E|-----------------------------------------|
B|-----------------------------------------|
G|--8-8-88--8-8-8--888--8-8-88--131313-12--|
D|--x-x-xx--x-x-x--xxx--x-x-xx---x-x-x--x--|
A|--6-6-66--6-6-6--666--6-6-66--111111-10--| (x1)
E|-----------------------------------------|

11. With Me

Guitar I:
E|----------------------0~-|--------------------0-------------|
B|-------------------------|----------------------------------|
G|-----------4-------------|-----------4------------4~--------|
D|-2-2-------------2-------|----------------------------------|
A|-------------------------|-2-2----------2-------------------|
E|-------------------------|----------------------------------|

E|----------------------0~-|----------------------------------|
B|-------------------------|----------------------4---5-------|
G|------------4------------|------------4-----------------4~--|
D|-------------------------|----------------------------------| x8
A|-4-4-------------4-------|-0-0------------0-----------------|
E|-------------------------|----------------------------------|

Guitar II:
E|---------|----------|--44-4-44-|-----------|
B|-00-0-00-|--22-2-22-|--55-5-55-|--00-0-00--|
G|-11-1-11-|--44-4-44-|--66-6-66-|--22-2-22--|
D|-22-2-22-|--44-4-44-|--66-6-66-|--22-2-22--|
A|-22-2-22-|--22-2-22-|--44-4-44-|--00-0-00--|
E|-00-0-00-|----------|----------|-----------|

Guitar III:
E|-12~--11~---------------12~----11~-----------------12~---------12~--11~--|
B|-----------14~----12~----------------14~-----12~---------12~-------------|
G|-------------------------------------------------------------------------|
D|-------------------------------------------------------------------------|
A|-------------------------------------------------------------------------|
E|-------------------------------------------------------------------------|


Chorus:

Guitars I and II:
E|------------------------------------------------------------|
B|------------------------------------------------------------|
G|-66666666---------------------------44444444--55555555------|
D|-66666666--77777777-----22222222----44444444--66666666------|
A|-44444444--77777777-----22222222----22222222--33333333------|
E|-----------55555555-----00000000----------------------------|

E|-------------------------------------------------------------------------|
B|-------------------------------------------------------------------------|
G|-66666666-------------------44444444-55555555-66666666-------------------|
D|-66666666-77777777-22222222-44444444-66666666-66666666-77777777:---------|
A|-44444444-77777777-22222222-22222222-33333333-44444444-77777777:---------|
E|----------55555555-00000000----------------------------55555555:---------|

Verse:

Guitar I:
e|----------------------0~-|--------------------0-------------|
B|-------------------------|----------------------------------|
G|-----------4-------------|-----------4------------4~--------|
D|-2----2----------2-------|-2-----2------2-------------------|
A|-------------------------|----------------------------------|
E|-------------------------|----------------------------------|

e|----------------------0~-|--------------------0-------------|
B|-------------------------|----------------------------------|
G|-----------4-------------|-----------4------------4~--------|
D|-2----2----------2-------|----------------------------------|
A|-------------------------|-2-----2------2-------------------|
E|-------------------------|----------------------------------|\
                                                                |
e|----------------------0~-|----------------------------------|----| x4
B|-------------------------|----------------------4---5------------|
G|------------4------------|------------4-----------------4~-------|
D|-------------------------|---------------------------------------|
A|-4-----4---------4-------|-0-----0--------0----------------------|
E|-------------------------|---------------------------------------|


Pre-Chorus:


Guitar II:
e|----------------------0~-|--------------------0-------------|
B|-------------------------|----------------------------------|
G|-----------4-------------|-----------4------------4~--------|
D|-2----2----------2-------|----------------------------------|
A|-------------------------|-2-----2------2-------------------|
E|-------------------------|----------------------------------|

e|----------------------0~-|----------------------------------|
B|-------------------------|----------------------4---5-------|
G|------------4------------|------------4-----------------4~--|
D|-------------------------|----------------------------------|
A|-4-----4---------4-------|-0-----0--------0-----------------|
E|-------------------------|----------------------------------|


Guitar I:
e|----------------------------------------------------|
B|----------------------------------------------------|
G|-66666666----22222222----------------44444444-------|
D|-66666666----22222222----22222222----44444444-------|
A|-44444444----00000000----22222222----22222222-------|
E|-------------------------00000000-------------------|
PM ........    ........    ........    ........

Chorus:


Guitars I and II:
e|------------------------------------------------------------|
B|------------------------------------------------------------|
G|-66666666---------------------------44444444--55555555------|
D|-66666666--77777777-----22222222----44444444--66666666------|
A|-44444444--77777777-----22222222----22222222--33333333------|
E|-----------55555555-----00000000----------------------------|

e|-------------------------------------------------------------------------|
B|-------------------------------------------------------------------------|
G|-66666666-------------------44444444-55555555-66666666-------------------|
D|-66666666-77777777-22222222-44444444-66666666-66666666-77777777:---------|
A|-44444444-77777777-22222222-22222222-33333333-44444444-77777777:---------|
E|----------55555555-00000000----------------------------55555555:---------|


Bridge:

Doesn't matter which guitar plays this:
e|------------|
B|------------|
G|------------|
D|-xx-xx------|
A|-xx-xx------|
E|-xx-xx------|


Guitar I:
e|---------------------------------------------------------------|
B|---------------------------------------------------------------|
G|------------------------44-4-44:---6666666---44444444----------|
D|--77-7-77:---22-2-22:---44-4-44:---6666666---44444444----------|
A|--77-7-77:---22-2-22:---22-2-22:---4444444---22222222----------|
E|--55-5-55:---00-0-00:------------------------------------------|

e|-------------------------------------------------------|
B|-------------------------------------------------------|
G|----------------------44444444---66666666--44444444----|
D|--77777777-22222222---44444444---66666666--44444444----|
A|--77777777-22222222---22222222---44444444--22222222----|
E|--55555555-00000000------------------------------------|

e|---------------------------------------------------------------|
B|---------------------------------------------------------------|
G|------------------------44-4-44:---6666666---44444444----------|
D|--77-7-77:---22-2-22:---44-4-44:---6666666---44444444----------|
A|--77-7-77:---22-2-22:---22-2-22:---4444444---22222222----------|
E|--55-5-55:---00-0-00:------------------------------------------|

e|-------------------------------------------------------|
B|-------------------------------------------------------|
G|----------------------44444444---66666666--44444444----|
D|--77777777-22222222---44444444---66666666--44444444----|
A|--77777777-22222222---22222222---44444444--22222222----|
E|--55555555-00000000------------------------------------|


Guitar II:
e|----------------------------------------------------------------------|
B|----------------------------------------------------------------------|
G|--9-9-9-9-9/8\9-9-9-9-9-9-9-9-9-9-9/8\9-9-9-9/11-8-8-8-8-8-8-8-8-8-8--|
D|----------------------------------------------------------------------|
A|--7-7-7-7-7/6\7-7-7-7-7-7-7-7-7-7-7/6\7-7-7-7/9--6-6-6-6-6-6-6-6-6-6--|
E|----------------------------------------------------------------------|

e|------------------------------------------------|
B|------------------------------------------------|
G|-8888888888--11--13-13-13-13-11/13\11--9--------|
D|------------------------------------------------|x4
A|-6666666666--9---11-11-11-11--9/11\9---7--------|
E|------------------------------------------------|


Pre-Chorus:

Guitar I:
e|----------------------0~-|--------------------0-------------|
B|-------------------------|----------------------------------|
G|-----------4-------------|-----------4------------4~--------|
D|-2----2----------2-------|-2-----2------2-------------------|
A|-------------------------|----------------------------------|
E|-------------------------|----------------------------------|


e|----------------------0~-|--------------------0-------------|
B|-------------------------|----------------------------------|
G|-----------4-------------|-----------4------------4~--------|
D|-2----2----------2-------|----------------------------------|
A|-------------------------|-2-----2------2-------------------|
E|-------------------------|----------------------------------|\
                                                                |
e|----------------------0~-|----------------------------------|----| x4
B|-------------------------|----------------------4---5------------|
G|------------4------------|------------4-----------------4~-------|
D|-------------------------|---------------------------------------|
A|-4-----4---------4-------|-0-----0--------0----------------------|
E|-------------------------|---------------------------------------|

Chorus:

Guitars I and II:
e|------------------------------------------------------------|
B|------------------------------------------------------------|
G|-66666666---------------------------44444444--55555555------|
D|-66666666--77777777-----22222222----44444444--66666666------|
A|-44444444--77777777-----22222222----22222222--33333333------|
E|-----------55555555-----00000000----------------------------|

e|-------------------------------------------------------------------------|
B|-------------------------------------------------------------------------|
G|-66666666-------------------44444444-55555555-66666666-------------------|
D|-66666666-77777777-22222222-44444444-66666666-66666666-77777777-xx-xx----|
A|-44444444-77777777-22222222-22222222-33333333-44444444-77777777-xx-xx----|
E|----------55555555-00000000----------------------------55555555-xx-xx----|

e|------------------------------------------------------------|
B|------------------------------------------------------------|
G|-66666666---------------------------44444444--55555555------|
D|-66666666--77777777-----22222222----44444444--66666666------|
A|-44444444--77777777-----22222222----22222222--33333333------|
E|-----------55555555-----00000000----------------------------|

e|-------------------------------------------------------------------------|
B|-------------------------------------------------------------------------|
G|-66666666-------------------44444444-55555555-66666666-------------------|
D|-66666666-77777777-22222222-44444444-66666666-66666666-77777777----------|
A|-44444444-77777777-22222222-22222222-33333333-44444444-77777777----------|
E|----------55555555-00000000----------------------------55555555----------|

End on:

Guitars I and II:
e|--------|
B|--------|
G|--------|
D|---2~---|
A|---2~---|
E|---0~---|

| :  rest (stop the note/chord from ringing)
| .  palm mute note
| /  slide up
| \  slide down
| h  hammer-on
| p  pull-off
| ~  vibrato/let note ring out
| +  harmonic
| x  Mute note
============================================================================

12. Handle This

e|---------------------------------------------------------------------------|
B|---------------------------------------------------------------------------|
G|---------------------------------------------------------------------------|
D|-7-7---4-5-7-----4-5-4------------4-5-4---------------play twice-----------|
A|-5-5---------7-7-------7-7-555555------------------------------------------|
E|-------------5-5-----------333333------------------------------------------|

Verse 1
e|---------------------------------------------------------------------------|
B|---------------------------------------------------------------------------|
G|-7-----------------------------let-----------------------------------------|
D|-7-----------------------------ring----------------------------------------|
A|-5-------------------------------------------------------------------------|
E|---------------------------------------------------------------------------|

Pre-Chorus
e|---------------------------------------------------------------------------|
B|---------------------------------------------------------------------------|
G|--------------------------------77777777777--------------------------------|
D|--777777777---------------------55555555555--------------------------------|
A|--555555555-777777777-99999999---------------------------------------------|
E|------------555555555-77777777---------------------------------------------|
P.M.****************************

Chorus
e|--------------------------------------------------------------------------|
B|--------------------------------------------------------------------------|
G|--------------------------------------------------------------------------|
D|-----------7777------2222------7777------2222-----------------------------|
A|-9999-5555-5555-7777-2222-5555-5555-7777-2222-5555------------------------|
E|-7777-3333------5555-0000-3333------5555-0000-3333------------------------|

Play before Verse 2
e|----------------------------------------------------------------------------|
B|----------------------------------------------------------------------------|
G|----------------------------------------------------------------------------|
D|-7-7---4-5-7-----4-5-4------------4-5-4---------------play twice------------|
A|-5-5---------7-7-------7-7-555555-------------------------------------------|
E|-------------5-5-----------333333-------------------------------------------|

Verse 2
e|---------------------------------------------------------------------------|
B|---------------------------------------------------------------------------|
G|-7------------------------------let----------------------------------------|
D|-7------------------------------ring---------------------------------------|
A|-5-------------------------------------------------------------------------|
E----------------------------------------------------------------------------|

Pre-Chorus 2
	Guitar One
e|--------------------------------------------------------------------------|
B|--------------------------------------------------------------------------|
G|--------------------------------------------------------------------------|
D|--------------------------------------------------------------------------|
A|-7777777777777777-9999999999999999--55555555555555555555555555555555------|
E|-5555555555555555-7777777777777777--33333333333333333333333333333333------|
P.M*********************************
	Guitar Two
e|--------------------------------------------------------------------------|
B|-----23------23-------23------23--------------------7777-8888-10-10-10-10-|
G|-2222-----222-----2222-----222----------------------xxxx-xxxx-x--x--x--x--|
D|----------------------------------------------------4444-5555-7--7--7--7--|
A|--------------------------------------------------------------------------|
E|--------------------------------------------------------------------------|

e|--------------------------------------------------------------------------|
B|-8888---------------------------------------------------------------------|
G|-xxxx---------------------------------------------------------------------|
D|-5555---------------------------------------------------------------------|
A|--------------------------------------------------------------------------|
E|--------------------------------------------------------------------------|

Chorus 2
e|--------------------------------------------------------------------------|
B|--------------------------------------------------------------------------|
G|--------------------------------------------------------------------------|
D|-----------7777------2222------7777------2222-----------------------------|
A|-9999-5555-5555-7777-2222-5555-5555-7777-2222-5555------------------------|
E|-7777-3333------5555-0000-3333------5555-0000-3333------------------------|

Solo
e|-------------14-14-14b-------------------14-14-14b-------------------------|
B|-------17-15-----------15-12-15-17-15-17-----------15-15-12----------------|
G|-11-14------------------------------------------------------14-12-11-12-14-|
D|---------------------------------------------------------------------------|
A|---------------------------------------------------------------------------|
E|---------------------------------------------------------------------------|

e|--------------------------------------------------------------------------|
B|-------------------12-------------------------15--15--15--15--15--15--15--|
G|-14-11-13-14-14-14----14-12-11----11------------14--14--14--14--14--14-14-|
D|-------------------------------14----14-12--------------------------------|
A|--------------------------------------------------------------------------|
E|--------------------------------------------------------------------------|

After Solo
	Guitar One
e|--------------------------------------------------------------------------|
B|----------------3-5-7----3-5-7--------------------------------------------|
G|--------------------------------------------------------------------------|
D|------------77--------77-----------------22222222----------xxxxxxxx-------|
A|-55555555---55--------55--------77777777-22222222-55555555-xxxxxxxx-------|
E|-33333333-----------------------55555555-00000000-33333333-xxxxxxxx-------|
	Guitar Two
e|-------------------------2-3-5--------------------------------------------|
B|--------------------------------------------------------------------------|
G|--------------------------------------------------------------------------|
D|--------------------------------------------------------------------------|
A|--------------------------------------------------------------------------|
E|--------------------------------------------------------------------------|

Chorus 3(a little different then the other two)
e|---------------------------------------------------------------------------|
B|---------------------------------------------------------------------------|
G|---------------------------------------------------------------------------|
D|-----------7777------2222----------------7777------2222------7777----------|
A|-9999-5555-5555-7777-2222-5555-9999-5555-5555-7777-2222-5555-5555-7777-----|
E|-7777-3333------5555-0000-3333-7777-3333------5555-0000-3333------5555-----|

e|--------------------------------------------------------------------------|
B|--------------------------------------------------------------------------|
G|--------------------------------------------------------------------------|
D|--------------------------------------------------------------------------|
A|-5555---------------------------------------------------------------------|
E|-3333---------------------------------------------------------------------|

Outro
e|--------------------------------------------------------------------------|
B|--------------------------------------------------------------------------|
G|--------------------------------------------------------------------------|
D|-7777777777-----------------------777----------play four times------------|
A|-5555555555-7777777777-5555555555-555-77777-------------------------------|
E|------------5555555555-3333333333-----55555-------------------------------|

| /  slide up
| \  slide down
| h  hammer-on
| p  pull-off
| ~  vibrato
| +  harmonic
| x  Mute note


13. Over My Head (Better Off Dead)


 Intro
  Guitar 1
e|----------------------------------|
B|----------------------------------|
G|----------------------------------|  x2
D|----5---9----9--------7-------4---|
A|7-7---7---10---10-9-9---9-5-5---5-|
E|----------------------------------|
pm. .   .   ..   .. . .   . . .   .

  Guitar 2
e|(7)----                -(7)------|
B|--(7)-- after 2nd time ---(7)----|
G|----(7)                -----(7)--|
D|-------                ------4---|
A|-------                --5-5---5-|
E|-------                ----------|

  Verse 1
 Guitar 1
e|----------------------------------|
B|----------------------------------|
G|----------------------------------|  x4
D|----5---9----9--------7-------4---|
A|7-7---7---10---10-9-9---9-5-5---5-|
E|----------------------------------|
pm. .   .   ..   .. . .   . . .   .

e|----------------------------------------------------------------|
B|----------------------------------------------------------------|
G|----------------------------------------------------------------|
D|----2-----2---2-----4-----4---4-----5---9---9-------5---9---9---|
A|3-3---3-3---3---5-5---5-5---5---7-7---7---7---7-7-7---7---7---7-|
E|----------------------------------------------------------------|
pm. .   . .   .   . .   . .   .   . .   .   .   . . .   .   .   .

e|------------------------------------------------------------(7)-----|
B|--------------------------------------------------------------(7)---|
G|--------------------------------------------------------------------|(7)
D|----2-----2---2-----4-----4---4-5-5-5-5-5-5-5-5-5-5-5-5-------------|
A|3-3---3-3---3---5-5---5-5---5---7-7-7-7-7-7-7-7-7-7-7-7-------------|
E|--------------------------------------------------------------------|
pm. .   . .   .   . .   . .   .   . . . . . .

  Chorus
  Guitar 1&2
e|----------------------------------------------------------------|
B|----------------------------------------------------------------|
G|----------------5-5-5-5-5-5-5-5-----------------7-7-7-7-7-7-7-7-|  x2
D|9-9-9-9-9-9-9-9-5-5-5-5-5-5-5-5-5-5-5-5-5-5-5-5-7-7-7-7-7-7-7-7-|
A|7-7-7-7-7-7-7-7-3-3-3-3-3-3-3-3-5-5-5-5-5-5-5-5-5-5-5-5-5-5-5-5-|
E|0-0-0-0-0-0-0-0-----------------3-3-3-3-3-3-3-3-----------------|

e|--------------------------------|
B|--------------------------------|
G|--------5---5-5---------7-7-7-7-|  x2
D|9---9-9-5---5-5-5---5-5-7-7-7-7-|
A|7---7-7-3---3-3-5---5-5-5-5-5-5-|
E|0---0-0---------3---3-3---------|

  Verse 2
  Guitar 1
e|----------------------------------|
B|----------------------------------|
G|----------------------------------|  x4
D|----5---9----9--------7-------4---|
A|7-7---7---10---10-9-9---9-5-5---5-|
E|----------------------------------|
pm. .   .   ..   .. . .   . . .   .

e|----------------------------------------------------------------|
B|----------------------------------------------------------------|
G|----------------------------------------------------------------|
D|----2-----2---2-----4-----4---4-----5---9---9-------5---9---9---|
A|3-3---3-3---3---5-5---5-5---5---7-7---7---7---7-7-7---7---7---7-|
E|----------------------------------------------------------------|
pm. .   . .   .   . .   . .   .   . .   .   .   . . .   .   .   .

e|------------------------------------------------------------(7)-----|
B|--------------------------------------------------------------(7)---|
G|--------------------------------------------------------------------|(7)
D|----2-----2---2-----4-----4---4-5-5-5-5-5-5-5-5-5-5-5-5-------------|
A|3-3---3-3---3---5-5---5-5---5---7-7-7-7-7-7-7-7-7-7-7-7-------------|
E|--------------------------------------------------------------------|
pm. .   . .   .   . .   . .   .   . . . . . .

  Chorus
  Guitar 1&2
e|----------------------------------------------------------------|
B|----------------------------------------------------------------|
G|----------------5-5-5-5-5-5-5-5-----------------7-7-7-7-7-7-7-7-|  x2
D|9-9-9-9-9-9-9-9-5-5-5-5-5-5-5-5-5-5-5-5-5-5-5-5-7-7-7-7-7-7-7-7-|
A|7-7-7-7-7-7-7-7-3-3-3-3-3-3-3-3-5-5-5-5-5-5-5-5-5-5-5-5-5-5-5-5-|
E|0-0-0-0-0-0-0-0-----------------3-3-3-3-3-3-3-3-----------------|

  Bridge 1
  Guitar 1&2
e|--------------------------------------------------------|
B|--------------------------------------------------------|
G|--------------5-5---5-5-5-5---------------7-7---7-7-7-7-|
D|2---2---2-2-2-5-5---5-5-5-5-5---5---5-5-5-7-7---7-7-7-7-|
A|2---2---2-2-2-3-3---3-3-3-3-5---5---5-5-5-5-5---5-5-5-5-|
E|0---0---0-0-0---------------3---3---3-3-3-5-5---5-5-5-5-|

e|--------------------------------------------------------|
B|--------------------------------------------------------|
G|--------------5-5---5-5-5-5-----------------------------|
D|2---2---2-2-2-5-5---5-5-5-5-5---5---5-5-5-5-5---x-x-x-x-|
A|2---2---2-2-2-3-3---3-3-3-3-5---5---5-5-5-5-5---x-x-x-x-|
E|0---0---0-0-0---------------3---3---3-3-3-5-5---x-x-x-x-|

e|--------------------------------------------------------|
B|--------------------------------------------------------|
G|--------------5-5---5-5-5-5---------------7-7---7-7-7-7-|
D|2---2---2-2-2-5-5---5-5-5-5-5---5---5-5-5-7-7---7-7-7-7-|
A|2---2---2-2-2-3-3---3-3-3-3-5---5---5-5-5-5-5---5-5-5-5-|
E|0---0---0-0-0---------------3---3---3-3-3-5-5---5-5-5-5-|

e|--------------------------------------------------|
B|--------------------------------------------------|
G|--------------5-5---5-5-5-5-----------------------|
D|2---2---2-2-2-5-5---5-5-5-5-x-x-5-5-x-x-5-5-x-x-5-|
A|2---2---2-2-2-3-3---3-3-3-3-x-x-5-5-x-x-4-4-x-x-4-|
E|0---0---0-0-0---------------x-x-3-3-x-x-2-2-x-x-2-|

  Bridge 2
  Guitar 1
e|----------------------------------------------------------------|
B|----------------------------------------------------------------|
G|----------------------------------------------------------------|  x4
D|2-2-2-2-2-2-2-2-5-5-5-5-5-5-5-5-5-5-5-5-5-5-5-5-7-7-7-7-7-7-7-7-|
A|2-2-2-2-2-2-2-2-4-4-4-4-4-4-4-4-5-5-5-5-5-5-5-5-7-7-7-7-7-7-7-7-|
E|0-0-0-0-0-0-0-0-2-2-2-2-2-2-2-2-3-3-3-3-3-3-3-3-5-5-5-5-5-5-5-5-|

  Guitar 2
e|----------------------------------------------------------|
B|----------------------------------------------------------|
G|12--12-12-9---9-9-14--14-14-12--12-12-16--16-16-12--12-12-|
D|----------------------------------------------------------|
A|10--10-10-7---7-7-12--12-12-10--10-10-14--14-14-10--10-10-|
E|----------------------------------------------------------|

e|------------------------|
B|------------------------|
G|11-11-12-12-14-14-16-16-|
D|------------------------|
A|-9--9-10-10-12-12-14-14-|
E|------------------------|

e|----------------------------------------------------------|
B|----------------------------------------------------------|
G|12--12-12-9---9-9-14--14-14-12--12-12-16--16-16-12--12-12-|
D|----------------------------------------------------------|
A|10--10-10-7---7-7-12--12-12-10--10-10-14--14-14-10--10-10-|
E|----------------------------------------------------------|

e|--------------------------------------------|
B|--------------------------------------------|
G|11-11-12-12-14-14-16-16-16--16--16-16-16-16-|
D|--------------------------------------------|
A|-9--9-10-10-12-12-14-14-14--14--14-14-14-14-|
E|--------------------------------------------|

  Chorus
  Guitar 1&2
e|----------------------------------------------------------------|
B|----------------------------------------------------------------|
G|----------------5-5-5-5-5-5-5-5-----------------7-7-7-7-7-7-7-7-|  x2
D|9-9-9-9-9-9-9-9-5-5-5-5-5-5-5-5-5-5-5-5-5-5-5-5-7-7-7-7-7-7-7-7-|
A|7-7-7-7-7-7-7-7-3-3-3-3-3-3-3-3-5-5-5-5-5-5-5-5-5-5-5-5-5-5-5-5-|
E|0-0-0-0-0-0-0-0-----------------3-3-3-3-3-3-3-3-----------------|

e|--------------------------------|
B|--------------------------------|
G|--------5---5-5---------7-7-7-7-|  x4
D|9---9-9-5---5-5-5---5-5-7-7-7-7-|
A|7---7-7-3---3-3-5---5-5-5-5-5-5-|
E|0---0-0---------3---3-3---------|


14. Pain For Pleasure


>Guitar 1 [0:00-0:32]
e|------------------|------------------|------------------|------------------|
B|------------------|------------------|------------------|------------------|
G|------------------|------------------|------------------|------------------|
D|------------------|------------------|------------------|------------------|
A|-6-666-666-666666-|-6-666-666-666666-|-6-666-666-666666-|-6-666-666-666666-|
E|------------------|------------------|------------------|-------------- X4 |
   . ... ... ......   . ... ... ......   . ... ... ......   . ... ... ......

e|------------------|------------------|------------------|------------------|
B|------------------|------------------|------------------|------------------|
G|------------------|------------------|------------------|------------------|
D|------------------|------------------|------------------|------------------|
A|-6-666-666-666666-|-6-666-666-666666-|-6-666-666-666666-|-6-66-6-66-6-66-6-|
E|------------------|------------------|------------------|------------------|
   . ... ... ......   . ... ... ......   . ... ... ......     ..   ..   ..

>Guitar 2 [0:00-0:32]
e|------------------|------------------|------------------|------------------|
B|------------------|------------------|------------------|------------------|
G|------------------|------------------|------------------|------------------|
D|------------------|------------------|------------------|------------------|
A|-6-666-666-666666-|-6-666-666-666666-|-6-666-666-666666-|-6-666-666-666666-|
E|------------------|------------------|------------------|-------------- X4 |
   . ... ... ......   . ... ... ......   . ... ... ......   . ... ... ......

e|------------------|------------------|------------------|------------------|
B|------------------|------------------|------------------|------------------|
G|------------------|------------------|------------------|------------------|
D|------------------|------------------|------------------|-6-66-6-66-6-66-6-|
A|-6-666-666-666666-|-8-888-888-888888-|-9-999-999-999999-|------------------|
E|------------------|------------------|------------------|------------------|
   . ... ... ......   . ... ... ......   . ... ... ......     ..   ..   ..

*** 0:34-0:46 ***

>Guitar 1 [0:34-0:40]
e|------------------|------------------|------------------|------------------|
B|------------------|------------------|------------------|------------------|
G|-8-8--------------|-6-6--------------|------------------|------------------|
D|-8-8--------------|-6-6--------------|-9-9--------------|-8-8--------------|
A|-6-6--------------|-4-4--------------|-9-9--------------|-8-8--------------|
E|------------------|------------------|-7-7--------------|-6-6--------------|

>Guitar 2 [0:34-0:40]
e|------------------|------------------|------------------|------------------|
B|------------------|------------------|------------------|------------------|
G|-8-8--------------|-6-6--------------|------------------|------------------|
D|-8-8--------------|-6-6--------------|-9-9--------------|-8-8--------------|
A|-6-6---8h9-8-6----|-4-4---8/9-8-6----|-9-9---8h9-8-6----|-8-8---8h9-8-6----|
E|------------------|------------------|-7-7--------------|-6-6--------------|
               ~                  ~                  ~                  ~

*** 0:40-0:46 ***

>Guitar 1 [0:40-0:46]
e|------------------|------------------|------------------|------------------|
B|------------------|------------------|------------------|------------------|
G|-8-8--------------|-6-6--------------|------------------|-4----------------|
D|-8-8---6h8-6-4----|-6-6---6/8-6-4----|-9-9---6h8-6-4----|-----8---6---4----|
A|-6-6--------------|-4-4--------------|-9-9--------------|------------------|
E|------------------|------------------|-7-7--------------|------------------|
               ~                  ~                         ~

>Guitar 2 [0:40-0:46]
e|------------------|------------------|------------------|------------------|
B|------------------|------------------|------------------|------------------|
G|-8-8--------------|-6-6--------------|------------------|------------------|
D|-8-8--------------|-6-6--------------|-9-9--------------|-6----------------|
A|-6-6---8h9-8-6----|-4-4---8/9-8-6----|-9-9---8h9-8-6----|-----9---8---6----|
E|------------------|------------------|-7-7--------------|------------------|
               ~                  ~                  ~      ~

*** 0:46-0:58 ***

>Guitar 1 [0:46-0:58] Skip first + slide last note the second time
e|---6-4---4--------|-6-4----4---------|--6-4----4--------|-6-4---4----------|
B|-7-----7---7-6----|------7---7-4-----|------7----7-3----|-----7---3-4\-----|
G|------------------|------------------|------------------|------------------|
D|------------------|------------------|------------------|------------------|
A|------------------|------------------|------------------|------------------|
E|------------------|------------------|------------------|-------------- X2 |

>Guitar 2 [0:46-0:58]  Skip first + slide last note the second time
e|------------------|------------------|------------------|------------------|
B|-4-7-6-4-6-4------|-7-6-4-6-4--------|-7-6-4-6-4--------|-7-6-4-6-3-4\-----|
G|-------------6----|-----------4------|-----------3------|------------------|
D|------------------|------------------|------------------|------------------|
A|------------------|------------------|------------------|------------------|
E|------------------|------------------|------------------|-------------- X2 |

>Guitar 3 [0:46-0:58]
e|------------------|------------------|------------------|------------------|
B|------------------|------------------|------------------|------------------|
G|-8----------------|-6----------------|-4----------------|-3----------------|
D|-8----------------|-6----------------|-4----------------|-3----------------|
A|-6-666-666-666666-|-4-444-444-444444-|-2-222-222-222222-|-1-111-111-111111-|
E|------------------|------------------|------------------|-------------- X2 |
     ... ... ......     ... ... ......     ... ... ......     ... ... ......

*** 0:58-1:10 ***

>Guitar 1 [0:58-1:10]
e|------------------|------------------|------------------|------------------|
B|------------------|------------------|------------------|------------------|
G|------------------|------------------|------------------|------------------|
D|-8-888-888-888888-|-6-666-666-666666-|-4-444-444-444444-|-3-333-333-333333-|
A|-6-666-666-666666-|-4-444-444-444444-|-2-222-222-222222-|-1-111-111-111111-|
E|------------------|------------------|------------------|-------------- X2 |
   . ... ... ......   . ... ... ......   . ... ... ......   . ... ... ......

>Guitar 2 [0:58-1:10]
e|------------------|------------------|------------------|------------------|
B|------------------|------------------|------------------|------------------|
G|-8-------------8--|-6--------------6-|-4--------------4-|-3----------------|
D|-x-------------x--|-x--------------x-|-x--------------x-|-x----------------|
A|-6-------------6--|-4--------------4-|-2--------------2-|-1----------------|
E|------------------|------------------|------------------|-------------- X2 |

*** 1:10-1:22 ***

>Guitar 1 [1:10-1:22]
e|------------------|------------------|------------------|------------------|
B|------------------|------------------|------------------|------------------|
G|------------------|------------------|------------------|------------------|
D|-8-888-888-888888-|-6-666-666-666666-|-4-444-444-444444-|-3-333-333-333333-|
A|-6-666-666-666666-|-4-444-444-444444-|-2-222-222-222222-|-1-111-111-111111-|
E|------------------|------------------|------------------|-------------- X2 |
   . ... ... ......   . ... ... ......   . ... ... ......   . ... ... ......

>Guitar 2 [1:10-1:22] Let ring all notes
e|------------------|------------------|------------------|--------------------|
B|------------------|------------------|------------------|--------------------|
G|-8-------------8--|-10------------10-|-11------------11-|-13-----------------|
D|-x-------------x--|-x--------------x-|-x--------------x-|-x------------------|
A|-6-------------6--|-8--------------8-|-9--------------9-|-11-----------------|
E|------------------|------------------|------------------|-------------- X2---|

*** 1:22-1:34 ***

>Guitar 1 [1:22-1:34]
e|------------------|------------------|------------------|--------------------|
B|------------------|------------------|------------------|--------------------|
G|-11---------------|-15-11------------|-11---------------|-8--88---10-1010----|
D|------------------|------------------|------------------|--------------------|
A|------------------|------------------|------------------|--------------------|
E|------------------|------------------|------------------|-------------- X2---|

>Guitar 2 [1:22-1:34]
e|------------------|------------------|------------------|--------------------|
B|------------------|------------------|------------------|--------------------|
G|-8----------------|-11-8-------------|-8----------------|-4--44---6--66------|
D|------------------|------------------|------------------|--------------------|
A|------------------|------------------|------------------|--------------------|
E|------------------|------------------|------------------|-------------- X2---|

>Guitar 3 [1:22-1:34]
e|------------------|------------------|------------------|------------------|
B-----------------|------------------|------------------|--------------------|
G|-8----------------|-11-8-------------|-8----------------|-4--44---6--66----|
D|-8----------------|-11-8-------------|-8----------------|-4--44---6--66----|
A|-6----------------|-9--6-------------|-6----------------|-2--22---4--44----|
E|------------------|------------------|------------------|------------------| X2

*** 1:34-1:40 ***

>Guitar 1 [1:34-1:40]
e|------------------|------------------|------------------|-----------------|
B|------------------|------------------|------------------|-----------------|
G|-8--88---10--1010-|-8--88---10--1010-|-11---------------|-8-6-8-\---------|
D|------------------|------------------|------------------|-----------------|
A|------------------|------------------|------------------|-----------------|
E|------------------|------------------|------------------|-----------------|

>Guitar 2 [1:34-1:40]
e|------------------|------------------|------------------|------------------|
B|------------------|------------------|------------------|------------------|
G|-4--44--6--66-----|-4--44---6--66----|-8----------------|-8-6-8-\----------|
D|------------------|------------------|------------------|------------------|
A|------------------|------------------|------------------|------------------|
E|------------------|------------------|------------------|------------------|

>Guitar 3 [1:34-1:40]
e|------------------|------------------|------------------|------------------|
B|------------------|------------------|------------------|------------------|
G|-4--44---6--66----|-4--44---6--66----|-8----------------|-8-6-8-\----------|
D|-4--44---6--66----|-4--44---6--66----|-8----------------|-8-6-8-\----------|
A|-2--22---4--44----|-2--22---4--44----|-6----------------|-6-4-6-\----------|
E|------------------|------------------|------------------|------------------|
comments
We did not receive enough feedback on this tab! Please rate:
print report bad tab
1 2 3 4 5
3 comments total.
0 reply
1ndguitar wrote on May 15 2010, 07:07 pm

This Tab is do to the hardwork of others, thank you, you know who you are

0 reply
cairby wrote on October 9 2010, 04:06 pm

"The heck song" WTF?

0 reply
1ndguitar wrote on September 22 2011, 07:17 pm

I'm a Christian so I don't really appreciate bad language. Sorry if it inconveniances you in any way.

I want to post or [tab]
guest
You may want to rate the tab now too:
select rating
Please do not post tabs as comments. Select "correction" instead!