Oops, an error
Loading. Please wait.

Chuck Bass Tab

3,924 views 15 this week
3 commentsread comments
1 2 3 4 5
accurate
x 7
add to favorites launch autoscroll
font size
0
reset
Autoscroll
+/-
esc
set tempo
stop
Contributor
WARNING: You are trying to view
                                    content from Ultimate-Guitar.com
                                    in an unauthorized application,
                                    which is prohibited.

                                    Please use an official Ultimate
                                    Guitar Tabs application for iPhone,
                                    iPad or Android to access legitimate
                                    chords, guitar, bass, and drum tabs
                                    from Ultimate-Guitar.com database.

                                    Type "ultimate guitar tabs" in Apple
                                    App Store's or Android Market's
                                    search to find the application.
Band  - Sum 41
Album - Chuck

Tracklist:
1.  Intro
2.  No Reason
3.  We're All to Blame
4.  Angels With Dirty Faces
5.  Some Say
6.  The Bitter End
7.  Open Your Eyes
8.  Slipping Away
9.  I'm Not the One
10. Welcome to Hell
11. Pieces  Sum 41
12. There's No Solution
13. 88
 
**********************************************************************************
2. No Reason.

Intro:
Gb|------------------------------------------------------------------------------|
Db|------------------------------------------------------------------------------|
Ab|--------3----------2-5---------3----------2-5---------------3-----------------|
Eb|------0---3--00----------000-00--3-00----------00------------3--00-00-00------|

Gb|------------------------------------------------------------------------------|
Db|------------------------------------------------------------------------------|
Ab|--2-5--------3333---------------2222-5555---------3333-------------2222-5555--|
Eb|------0000----------3333-0000--------------0000----------3333-0000------------|

Verse:
Gb|------------------------------------------------------------------------------|
Db|------------------------------------------------------------------------------|
Ab|--------------------------------3321---------------------------------3321-----| x4
Eb|----0000-----5543------0000--------------0000-----5543------0000--------------|

Pre-Chorus
Gb|-----------|
Db|-----------|
Ab|-----------|
Eb|-8-7-55/10-|

Chorus:
Gb|------------------------------------------------------------------------------|
Db|------------------------------------------------------------------------------|
Ab|33333333------123----5555555555555555-333333333-------123---55555555--77777777|
Eb|---------33333-----------------------------------33333------------------------|
                                              
Gb|------------------------------------------------------------------------------|
Db|------------------------------------------------------------------------------|
Ab|33333333------123----5555555555555555-333333333-------123---55555555--77777777|
Eb|---------33333-----------------------------------33333------------------------|

Post Chorus:
Gb|----------|
Db|----------|
Ab|----------|
Eb|000----00-| 

Verse:
Gb|------------------------------------------------------------------------------|
Db|------------------------------------------------------------------------------|
Ab|--------------------------------3321---------------------------------3321-----| x4
Eb|----0000-----5543------0000--------------0000-----5543------0000--------------|

Pre-Chorus
Gb|-----------|
Db|-----------|
Ab|-----------|
Eb|-8-7-55/10-|

Chorus:
Gb|------------------------------------------------------------------------------|
Db|------------------------------------------------------------------------------|
Ab|33333333------123----5555555555555555-333333333-------123---55555555--77777777|
Eb|---------33333-----------------------------------33333------------------------|
                                              
Gb|------------------------------------------------------------------------------|
Db|------------------------------------------------------------------------------|
Ab|33333333------123----5555555555555555-333333333-------123---55555555--77777777|
Eb|---------33333-----------------------------------33333------------------------|

Post Chorus:
Gb|--------------------------------|
Db|--------------------------------|
Ab|2-------2-5-2-5-2-------2-5-2-5-|
Eb|--5-3-2-----------5-3-2---------|

Bridge:
Gb|------------------------------------------------------------------------------|
Db|------------------------------------------------------------------------------|
Ab|----------3---------------2-5------------3333------------------2222-5555------|
Eb|----00------3--00-00-00-----------0000----------3333-----0000-----------------|

Gb|------------------------------------------------------------------------------|
Db|------------------------------------------------------------------------------|
Ab|-----------3333--------------------2222---5555-----555555555555555555---------|
Eb|----0000----------3333-----0000-----------------------------------------------|


Chorus:
Gb|------------------------------------------------------------------------------|
Db|------------------------------------------------------------------------------|
Ab|33333333------123----5555555555555555-333333333-------123---55555555--77777777|
Eb|---------33333-----------------------------------33333------------------------|
                                              
Gb|------------------------------------------------------------------------------|
Db|------------------------------------------------------------------------------|
Ab|33333333------123----5555555555555555-333333333-------123---55555555--77777777|
Eb|---------33333-----------------------------------33333------------------------|

Gb|------------------------------------------------------------------------------|
Db|------------------------------------------------------------------------------|
Ab|33333333------123----5555555555555555-333333333-------123---55555555--77777777|
Eb|---------33333-----------------------------------33333------------------------|
                                              
Gb|------------------------------------------------------------------------------|
Db|------------------------------------------------------------------------------|
Ab|33333333------123----5555555555555555-333333333-------123---55555555--77777777|
Eb|---------33333-----------------------------------33333------------------------|

Outro
Gb|-----------|
Db|-----------|
Ab|-----------|
Eb|00-0-00-00-| 

**********************************************************************************
3. We're All to Blame.

Intro:
G|-------------------------------------------------------------------------------|
D|-------------------------------------------------------------------------------|
A|—--2-1-2-4-1-2-------------------------------2-1-2-4-1-2-2-1-2-4-1-2-----------|
D|-----------------111111----111111---111111---------------------------1-1-1-1---|

Verse:
G|-------------------------------------------------------------------------------|
D|-------------------------------------------------------------------------------|
A|-------------------------------------------------------------------------------|
D|—-----1-1-2-1-1-1-2-1-1-1-2-1-2-1-2--------1-1-2-1-1-1-2-1-1-1-2-1-2-1-2-------|

G|-------------------------------------------------------------------------------|
D|-------------------------------------------------------------------------------|
A|----------------------------------------------------------2-1-2-4-1-2----------|
D|---—-1-1-2-1-1-1-2-1-1-1-2-1-2-1-2-----1-1-2-1-1-1-2---1----------------6~-----|

Chorus:
G|-------------------------------------------------6-6-4-4-----------------------|
D|----------------------------------------------------------4-4-4-4--------------|
A|-------------4-4-4-4-----------6-6-4-4-----------------------------6-6-6-6-----|
D|----6-6-6-6-----------4-4-4-4-----------6-6-6-6--------------------------------|

G|-----------------------------------------------------------|
D|-----------------------------------------------------------|
A|-------------4-4-2-2-----------6~---2-1-2-4-1-2------------|
D|---6-6-6-6------------4-4-4-4--------------------1-1-1-1---|

Verse:
G|-------------------------------------------------------------------------------|
D|-------------------------------------------------------------------------------|
A|-------------------------------------------------------------------------------|
D|—-----1-1-2-1-1-1-2-1-1-1-2-1-2-1-2--------1-1-2-1-1-1-2-1-1-1-2-1-2-1-2-------|

G|-------------------------------------------------------------------------------|
D|-------------------------------------------------------------------------------|
A|----------------------------------------------------------2-1-2-4-1-2----------|
D|---—-1-1-2-1-1-1-2-1-1-1-2-1-2-1-2-----1-1-2-1-1-1-2---1----------------6~-----|


Chorus:
G|------------------------------------------------6-6-4-4------------------------|
D|--------------------------------------------------------4-4-4-4----------------|
A|------------4-4-4-4-----------6-6-4-4---------------------------6-6-6-6--------|
D|—--6-6-6-6-----------4-4-4-4-----------6-6-6-6--------------------------6-6-6-6|

G|-----------------------1-1-1-1-------------------------------------------------|
D|-------------------------------2-2-2-2-----------------------------------------|
A|4-4-2-2---------6-6-6-6----------------2-2-2-2----1-2----------------2-2-2-2---|
D|--------4-4-4-4-------------------------------4-4----6-6-6-6-2-2-2-2---------4~|
	
Bridge:
G|-------------------------------------------------------------------------------|
D|------------------------------------2----------------------------------2-------|
A|--------------------------------2-4--------------------------------2-4---------|
D|—--111111-2-111111-2-111111-2-1-------111111-2-111111-2-111111-2-1-------111111|

G|-------------------------------------------------------------------------------|
D|-------------------------------------------------------------------44444444----|
A|----------------------------------------2-----------1-----------2--------------|
D|----111111--1111111----111111--111111------111111------111111------------------|

Chorus:
G|----------------------------------------------------------------1-1-1-1--------|
D|------------------------------------------------4-4-4-4-----------------2-2-2-2|
A|---------4-4-4-4---------6-6-4-4----------4-4-4---------6-4-6------------------|
D|—6-6-6-6---------4-4-4-4---------6-6-6-6----------------------4----------------|

G|---------------------------------------------------1-1-1-1---------------------|
D|-----------------------------------------------------------2-2-2-2---------4-4-|
A|--2-2-2-2-----1-2------------------2-2-2-2-------------------------2-2-2-2-----|
D|----------4-4-----6-6-6--6-2-2-2-2---------4-4-4-4-----------------------------|

G|3-4-------------------------------|--------------------------------------------|
D|----------------------------4-4---|-------------------------------4------------|
A|--------------------2-2-2-2-------|------4---------6---------4---------6-------|
D|----6-6-6-6-2-2-2-2-------------6~|—6---------4-------8--6------------------6~-|

**********************************************************************************
4. Angels With Dirty Faces.

  (0:20)
G|-------------------------------------------------------------------------------|
D|-------------------------------------2---------2-2------------2222-------------|
A|---4-4---4-4--00000000--------22222-----44444------4444-0000------------2222---|
E|------------------------4444---------------------------------------4444--------|

Verse:
G|-------------------------------------------------------------------------------|
D|-------------------------------------222-1-------2-1--------------------2-1----|
A|-444--444--444--444--444---444---444--------4444-----44------2222-4444------44-|
E|--------------------------------------------------------0000-------------------|

G|--------------------------------------------------------4-----4-----4-----4----|
D|---------------2-1-------------------2-1--------------2---2-2---2-4---4-4---4--|
A|-----2222-4444-----44------2222-4444-----44------2222--------------------------|
E|0000------------------0000------------------0000-------------------------------|

Chorus:
G|----------------------22222222------------------------------22222222-----------|
D|------------22222222------------2-4---------------222222222----------2-4-------|
A|--44444444----------------------------2--44444444--------------------------2---|
E|------------------------------------4------------------------------------4-----|

Post-Chorus:
G|---------------------|
D|-----1-2-4---1-2-4---|
A|---4-------4---------|
E|---------------------|

Verse:
G|-------------------------------------------------------------------------------|
D|------2-1-------------------2-1-------------------2-1-------------------2-1----|
A|-4444-----44------2222-4444-----44------2222-4444-----44------2222-4444-----44-|
E|-------------0000------------------0000------------------0000------------------|

G|--------------4-----4-----4-----4-----|
D|------------2---2-2---2-4---4-4---4---|
A|-------2222---------------------------|
E|--0000--------------------------------|

Chorus:
G|----------------------22222222------------------------------22222222-----------|
D|------------22222222------------2-4---------------222222222----------2-4-------|
A|--44444444----------------------------2--44444444--------------------------2---|
E|------------------------------------4------------------------------------4-----|

Bridge:
G|-------------------------------------------------------------------------------|
D|---000---000-----------000-----------------------------------------------------|
A|-------4--------------4-----------4-4444444444444444-4-4-4-4-4-4-4-444444444---|
E|-------------------------------------------------------------------------------|

Chorus:
G|----------------------22222222------------------------------22222222-----------|
D|------------22222222------------2-4---------------222222222----------2-4-------|
A|--44444444----------------------------2--44444444--------------------------2---|
E|------------------------------------4------------------------------------4-----|

G|----------------------22222222------------------------------22222222-----------|
D|------------22222222------------2-4---------------222222222----------2-4-------|
A|--44444444----------------------------2--44444444--------------------------2---|
E|------------------------------------4------------------------------------4-----|

Outro:
G|----------------------------------|
D|-------2222-----2222-----2222-----|
A|---4-4------4-4------4-4------4---|
E|----------------------------------|

**********************************************************************************
5. Some Say.

Intro:
G|--------------------------------------------------|
D|--------------------------------------------------|
A|--1~~--/4~~--/6~~--/9~~----1~~--/4~~--/6~~--/9~~--|
E|--------------------------------------------------|

Verse:
G|-------------------------------------------------------------------------------|
D|-------------------------------------------------------------------------------|
A|-1-1---1-1/4-4--4-4-4-4/6-6--6-6/9-9--9-9-9-1-1---1-1/4-4--4-4-4-4/6-6---6-6/1~|
E|-------------------------------------------------------------------------------|

Pre-Chorus (very fast):
G|--------------------|
D|--------------------|
A|--9999999999999999--|
E|--------------------|

Chorus:
G|-------------------------------------------------------------------------------|
D|-------------------------------------------------------------------------------|
A|1-1-1-1---------4-4-4-4---------6-6-6-6---------4-4-4-4---------6-6-6-6-9-9-9-9|
E|--------2-2-2-2---------4-4-4-4---------2-2-2-2---------4-4-4-4----------------|

Bridge:
G|-------------------------------------------------------------------------------|
D|-------------------------------------------------------------------------------|
A|----1~~--/4~~--/6~~--/9~~----1~~--/4~~--/6~~--/9~~----1~~--/4~~--/6~~--/9~~----|
E|-------------------------------------------------------------------------------|

Verse:
G|-------------------------------------------------------------------------------|
D|-------------------------------------------------------------------------------|
A|-1-1---1-1/4-4--4-4-4-4/6-6--6-6/9-9--9-9-9-1-1---1-1/4-4--4-4-4-4/6-6---6-6/1~|
E|-------------------------------------------------------------------------------|

Pre-Chorus (very fast):
G|-------------------------------------|
D|-------------------------------------|
A|--9999999999999999-9999999999999999--|
E|-------------------------------------|

Chorus:
G|-------------------------------------------------------------------------------|
D|-------------------------------------------------------------------------------|
A|1-1-1-1---------4-4-4-4---------6-6-6-6---------4-4-4-4---------6-6-6-6--------|
E|--------2-2-2-2---------4-4-4-4---------2-2-2-2---------4-4-4-4---------2-2-2-2|

Interlude:
G|-------------------------------------------------------------------------------|
D|-------------------------------------------------------------------------------|
A|--------4-4-4-4---------1-1-1-1---------4-4-4-4---------1-1-1-1---------4-4-4-4|
E|2-2-2-2---------4-4-4-4---------2-2-2-2---------4-4-4-4---------2-2-2-2--------|

G|-------------------------------------------------------------------------------|
D|-------------------------------------------------------------------------------|
A|-------------1-1-1-1-----------4-4-4-4-----------1-1-1-1-----------------------|
E|----4-4-4-4-----------2-2-2-2-----------4-4-4-4-------------2-2-2--2-2-2-2~----|

Bridge
G|--------------------------------------------------|
D|--------------------------------------------------|
A|--1~~--/4~~--/6~~--/9~~----1~~--/4~~--/6~~--/9~~--|
E|--------------------------------------------------|

Verse:
G|-------------------------------------------------------------------------------|
D|-------------------------------------------------------------------------------|
A|-1-1---1-1/4-4--4-4-4-4/6-6--6-6/9-9--9-9-9-1-1---1-1/4-4--4-4-4-4/6-6---6-6/1~|
E|-------------------------------------------------------------------------------|

Pre-Chorus (very fast):
G|--------------------|
D|--------------------|
A|--9999999999999999--|
E|--------------------|

Chorus/Outro:
G|-------------------------------------------------------------------------------|
D|-------------------------------------------------------------------------------|
A|1-1-1-1---------4-4-4-4---------6-6-6-6---------1-1-1-1---------4-4-4-4--------|
E|--------2-2-2-2---------4-4-4-4---------2-2-2-2---------2-2-2-2---------4-4-4-4|

G|-------------------------------------------------------------------------------|
D|-------------------------------------------------------------------------------|
A|-6-6-6-6---------4-4-4-4---------6-6-6-6--------4-4-4-4---------6-6-6-6--------|
E|---------2-2-2-2---------4-4-4-4---------2-2-2-2--------4-4-4-4---------2-2-2-2|

G|--------------------------------------|---------|
D|--------------------------------------|---------|
A|--4-4-4-4-----------6-6-6-6-----------|---------|
E|-----------4-4-4-4-----------2-2-2-2--|----2~~~-|

**********************************************************************************
6. The Bitter End.

G|-------------------------------------------------------------------------------|
D|-------------------------------------------------------------------------------|
A|-------------------------------------------------------------------------------|
E|-----0----0----6-6-----55----0--0--6----0--0--6--0--0--7--0-0-7------6-7-8-----|

G|-------------------------------------------------------------------------------|
D|-------------------------------------------------------------------------------|
A|-------------------------------------------------------------------------------|
E|---6-6--7-6--6-6-8-7-6-6-7-6--7-7-7-8-----6-6-7-6-6-6-8-7-6-6-7-6--7-7-7--8----|

G|-------------------------------------------------------------------------------|
D|-------------------------------------------------------------------------------|
A|-------------------------------------------------------------------------------|
E|-----6----7----8------8-------7------6-------5----7--7--6----8---7---6---5-----|

G|---------------------------------------------------------------|---------------|
D|---------------------------------------------------------------|---------------|
A|---------------------------------------------------------------|---------------|
E|-66-7-6--66-8-7--66-7-6--777-6---66-7-6--66-8-7--66-7-6--777-6-|-8---7---6---5-|

G|-------------------------------------------------------------------------------|
D|-------------------------------------------------------------------------------|
A|-------------------------------------------------------------------------------|
E|-6--5--6--7--(rest)--7-7--6-----7----8--7--6------7---6----8----6-6----7-7-6-8-|

G|-------------------------------------------------------------------------------|
D|-------------------------------------------------------------------------------|
A|-------------------------------------------------------------------------------|
E|-6-6--7--6--6-6-8-7---6-6-7-6---7-7-7--8---6-6-7-6--6-6-8-7--6-6-7-6--7-7-7-8--|

G|---------------------------------------------------------------|---------------|
D|---------------------------------------------------------------|---------------|
A|---------------------------------------------------------------|---------------|
E|-66-7-6--66-8-7--66-7-6--777-8---66-7-6--66-8-7--66-7-6--777-8-|-6-7-8-8-7-6-5-|

G|-------------------------------------------------------------------------------|
D|-------------------------------------------------------------------------------|
A|-------------------------------------------------------------------------------|
E|--6-6--7-6--6-6-8-7--6-6-7-6---7-7-7--8---6-6--7-6--6-6-8-7--6-6-7-6-7-7-7--8--|

G|------------------------------------------------------------------|------------|
D|------------------------------------------------------------------|------------|
A|------------------------------------------------------------------|------------|
E|-0-0-0--6-7-0-6-7-6----0-0-0--6-7-0-6-7-6----0-0-0--6-7--0-6-7-6--|--6-7--5-5--|

**********************************************************************************
7. Open Your Eyes.

Intro:
Gb|------------------------------------------------------------------------------|
Db|------------------------------------------------------------------------------|
Ab|--------5-5----------------------------------5-5------------------------------|
Eb|--2-2-----------5-5----12\\0-00-0-0-0--2-2-----------5-5----12\\0-00-0-0-0----|

Verse:
Gb|------------------------------------------------------------------------------|
Db|------------------------------------------------------------------------------|
Ab|----------------------5555555555555555----------------------------------------|
Eb|-----2222222222222222------------------5555555555555555--0000000000000000-----|

Gb|------------------------------------------------------------------------------|
Db|------------------------------------------------------------------------------|
Ab|----------------------5555555555555555----------------------------------------|
Eb|-----2222222222222222------------------5555555555555555-/-(12-12-12-12)x4-----|

Chorus:
Gb|------------------------------------------------------------------------------|
Db|-----------------------------------------------------77776666-----------------|
Ab|--------------------------55555555-77-555555----------------------------------|
Eb|22222222/-(14-14-14-14)x2--------------------55555555---------0000000000000000|

Gb|------------------------------------------------------------------------------|
Db|-----------------------------------------------------77776666-----------------|
Ab|--------------------------55555555-77-555555----------------------------------|
Eb|22222222/-(14-14-14-14)x2--------------------55555555---------00000000--------|

Gb|--------------------|
Db|----777666777999----|
Ab|--------------------|
Eb|--------------------|

Verse:
Gb|------------------------------------------------------------------------------|
Db|------------------------------------------------------------------------------|
Ab|----------------------5555555555555555----------------------------------------|
Eb|-----2222222222222222------------------5555555555555555--0000000000000000-----|

Gb|------------------------------------------------------------------------------|
Db|------------------------------------------------------------------------------|
Ab|----------------------5555555555555555----------------------------------------|
Eb|-----2222222222222222------------------5555555555555555-/-(12-12-12-12)x4-----|

Chorus:
Gb|------------------------------------------------------------------------------|
Db|-----------------------------------------------------77776666-----------------|
Ab|--------------------------55555555-77-555555----------------------------------|
Eb|22222222/-(14-14-14-14)x2--------------------55555555---------0000000000000000|

Gb|------------------------------------------------------------------------------|
Db|-----------------------------------------------------77776666-----------------|
Ab|--------------------------55555555-77-555555----------------------------------|
Eb|22222222/-(14-14-14-14)x2--------------------55555555---------00000000--------|

Gb|--------------------|
Db|----777666777999----|
Ab|--------------------|
Eb|--------------------|

Bridge:
Gb|------------------------------------------------------------------------------|
Db|------------------------------------------------------------------------------|
Ab|--------------------5-5-----------5-5-----------5-5-----------5-5-------------|
Eb|-------------2-2~----------2-2~----------2-2~----------2-2~-------------------|

Interlude:
Gb|------------------------------------------------------------------------------|
Db|------------------------------------------------------------77776666----------|
Ab|---------------------------------55555555-77775555----------------------------|
Eb|22222222/14-14-14-14-12-12-12-12-------------------55555555----------0000x4---|

Gb|------------------------------------------------------------------------------|
Db|------------------------------------------------------------77776666----------|
Ab|---------------------------------55555555-77775555----------------------------|
Eb|22222222/14-14-14-14-12-12-12-12-------------------55555555----------0000x4---|

Ening:
Gb|------------------------------------------------------------------------------|
Db|----------------------------------------------------77776666------------------|
Ab|--------------------------55555555-7755555------------------------------------|
Eb|22222222/-(14-14-14-14)x2------------------55555555----------0000000000000000-|

Gb|------------------------------------------------------------------------------|
Db|----------------------------------------------------77776666------------------|
Ab|--------------------------55555555-7755555------------------------------------|
Eb|22222222/-(14-14-14-14)x2------------------55555555----------0000000000000000-|

**********************************************************************************
8. Slipping Away.

Main riff:
G|--------|
D|--------|
A|--------|
E|--3-11--|

Chorus:
G|-------------------------------------------------------||-----------|
D|-------------------------------------------------------||-----------|
A|--99999999-12-12-12-12-12-12-12-12-/77777777-55555555--||--77777-5--|
E|-------------------------------------------------------||-----------|

**********************************************************************************
9 I'm Not the One.

Intro:
G|-------------------------------------------------------------------------------|
D|----------------------------------------------------2h4-22\1-------------------|
A|4-44------2-22------4-44------2-22------4-44------22--------4-44------2-22-----|
E|-----5-55------2-22------5-55------2-22------5-55----------------5-55------2-22|

Verse:
G|-------------------------------------------------------------------------------|
D|----2--242-242---------2--242-242---------2--242-242--------2--242-242-2444----|
A|------4---4---4-44-------4---4---4-44-------4---4---4-44------4---4---4--------|
E|-------------------------------------------------------------------------------|

G|-------------------------------------------------------------|
D|----2--242-242---------2--242-242---------2--242-242-2444----|
A|------4---4---4-44-------4---4---4-44-------4---4---4--------|
E|-------------------------------------------------------------|

Chorus:
G|-------------------------------------------------------------------------------|
D|-----------------------------------2h4------------------------------------2h4--|
A|--4444444-------------------0222222------4444444-------------------0222222-----|
E|----------4/5555555\4000000----------------------4/5555555\4000000-------------|

Verse:
G|-------------------------------------------------------------------------------|
D|----2--242-242---------2--242-242---------2--242-242--------2--242-242-2444----|
A|------4---4---4-44-------4---4---4-44-------4---4---4-44------4---4---4--------|
E|-------------------------------------------------------------------------------|

G|-------------------------------------------------------------|
D|----2--242-242---------2--242-242---------2--242-242-2444----|
A|------4---4---4-44-------4---4---4-44-------4---4---4--------|
E|-------------------------------------------------------------|

Chorus:
G|-------------------------------------------------------------------------------|
D|-----------------------------------2h4------------------------------------2h4--|
A|--4444444-------------------0222222------4444444-------------------0222222-----|
E|----------4/5555555\4000000----------------------4/5555555\4000000-------------|

Bridge:
G|-------------------------------------------------------------------------------|
D|-------------------------------------------------------------------------------|
A|---44-44-4454466--44-44-4454466--44-44-4454466--44-44-4454466--44-44-4454466---|
E|-------------------------------------------------------------------------------|
    			 		 	 		 	        
G|-------------------------------------------------------------------------------|
D|-------------------------------------------------------------------------------|
A|---44-44-4454466--44-44-4454466--44-44-4454466--44-44-4454466--44-44-4454466---|
E|-------------------------------------------------------------------------------|

G|-------------------------------------------------------------------------------|  
D|-------------------------------------------------------------------------------|  
A|-44-44-4454466-44444-44445-5-5-44444-44445-5-5-44444-44445-5-5-44444-44445-5-5-|  
E|-------------------------------------------------------------------------------|

Outro:
G|--------------------------|
D|--------------------------|
A|-44-466-44-466-44-466-444-|
E|--------------------------|

**********************************************************************************
10. Welcome to Hell.

Verse:
Gb|------------------------------------------------------------------------------|
Db|------------------------------------------------------------------------------|
Ab|--777-5-777-5-777-5-777-5--------5555-------------777-5-777-5-777-5-777-5-----|
Eb|-----------------------------3333-----3333-0000-------------------------------|

Gb|------------------------------------------------------------------------------|
Db|------------------------------------------------------------------------------|
Ab|--------5555---------------777-5-77-55------5555-----777-5-77-55------5555----|
Eb|----3333-----3333-0000-----------------3333----------------------3333---------|

Gb|------------------------------------------------------------------------------|
Db|------------------------------------------------------------------------------|
Ab|--777-5-777-5-777-5-777-5--------5555-------------777-5-777-5-777-5-777-5-----|
Eb|-----------------------------3333-----3333-0000-------------------------------|

Gb|------------------------------------------------------------------------------|
Db|------------------------------------------------------------------------------|
Ab|--------5555---------------777-5-77-55------5555-----777-5-77-55------5555----|
Eb|----3333-----3333-0000-----------------3333----------------------3333---------|

Chorus:
Gb|------------------------------------------------------------------------------|
Db|------------------------------------------------------------------------------|
Ab|33-3-------5-7-9-10-9-7-5--33-3-------5-7-9-10-9-7-5-33-3-------5-7-9-10-9-7-5|
Eb|-----33-3-----------------------33-3----------------------33-3----------------|

Post-Chorus:
Gb|-----------------------------|
Db|-----------------------------|
Ab|---------2222----------5555--|
Eb|--0000----------3333---------|

Solo:
Gb|------------------------------------------------------------------------------|
Db|------------------------------------------------------------------------------|
Ab|-777799991010101012121212--777799991010101012121212-777799991010101012121212--|
Eb|------------------------------------------------------------------------------|

Gb|------------------|
Db|--99997777555544--|
Ab|------------------|
Eb|------------------|

Verse:
Gb|------------------------------------------------------------------------------|
Db|------------------------------------------------------------------------------|
Ab|--777-5-777-5-777-5-777-5--------5555-------------777-5-777-5-777-5-777-5-----|
Eb|-----------------------------3333-----3333-0000-------------------------------|

Gb|------------------------------------------------------------------------------|
Db|------------------------------------------------------------------------------|
Ab|--------5555---------------777-5-77-55------5555-----777-5-77-55------5555----|
Eb|----3333-----3333-0000-----------------3333----------------------3333---------|

Gb|------------------------------------------------------------------------------|
Db|------------------------------------------------------------------------------|
Ab|--777-5-777-5-777-5-777-5--------5555-------------777-5-777-5-777-5-777-5-----|
Eb|-----------------------------3333-----3333-0000-------------------------------|

Gb|------------------------------------------------------------------------------|
Db|------------------------------------------------------------------------------|
Ab|--------5555---------------777-5-77-55------5555-----777-5-77-55------5555----|
Eb|----3333-----3333-0000-----------------3333----------------------3333---------|

Chorus:
Gb|------------------------------------------------------------------------------|
Db|------------------------------------------------------------------------------|
Ab|33-3-------5-7-9-10-9-7-5--33-3-------5-7-9-10-9-7-5-33-3-------5-7-9-10-9-7-5|
Eb|-----33-3-----------------------33-3----------------------33-3----------------|

Post-Chorus:
Gb|-----------------------------|
Db|-----------------------------|
Ab|---------2222----------5555--|
Eb|--0000----------3333---------|

Bridge:
Gb|------------------------------------------------------------------------------|
Db|------------------------------------------------------------------------------|
Ab|7777-10-7777-10----------------7777-10-7777-10----------------7777-10-7777-10-|
Eb|-----------------0000-3-0000-3------------------0000-3-0000-3-----------------|

Gb|------------------------------------------------------------------------------|
Db|------------------------------------------------------------------------------|
Ab|---------------7777-10-7777-10----------------7777-10-7777-10-----------------|
Eb|-0000-3-0000-3------------------0000-3-0000-3------------------0000-3-0000-3--|

Gb|------------------------------------------------------------------------------|
Db|------------------------------------------------------------------------------|
Ab|-7777-10-7777-10----------------7777-10-7777-10---------------7777-10-7777-10-|
Eb|------------------0000-3-0000-3------------------0000-3-0000-3----------------|

Gb|-----------------|
Db|-----------------|
Ab|-----------------|
Eb|--0000-3-0000-3--|

Chorus:
Gb|------------------------------------------------------------------------------|
Db|------------------------------------------------------------------------------|
Ab|33-3-------5-7-9-10-9-7-5--33-3-------5-7-9-10-9-7-5-33-3-------5-7-9-10-9-7-5|
Eb|-----33-3-----------------------33-3----------------------33-3----------------|

Post-Chorus:
Gb|-----------------------------|
Db|-----------------------------|
Ab|---------2222----------5555--|
Eb|--0000----------3333---------|

Outro:
Gb|-----------------------------------------------|
Db|-----------------------------------------------|
Ab|--77-7-3-5-2----77-7-3-5-2----77-7-3-5-2-------|
Eb|--------------------------------------------0--|

**********************************************************************************
11. Pieces.

Verse: 
G|-------------------------------------| 
D|-------------------------------------| 
A|-55555555-11111111-88888888-77777777-|   
E|-------------------------------------| 

Chorus: 
G|-------------------------------------| 
D|-------------------------------------| 
A|-77777777-99999999-55555555-33333333-|
E|-------------------------------------|  

Bridge: 
G|--------------------------------------------|  
D|--------------------------------------------| 
A|-777-6-777-6-777-9999--44-4-3-33-11-1-44-4--| 
E|--------------------------------------------| 

G|-------------------------------------|
D|-------------------------------------|
A|--44-4-3-33-11-1-44-4---555555555555-|
E|-------------------------------------| 

EndIng:
G|-----| 
D|-----| 
A|--2--| 
E|-----|

**********************************************************************************
12. There's No Solution.

Intro:
Gb|----------4------4-----|
Db|-------------------4~--|
Ab|--3~-5~-----3~---------|
Eb|--------0~----3~-------|

Verse:
Gb|----------------------------|
Db|----------------------------|
Ab|----3~------------3~--------|
Eb|--0~---3~-2~----0~---3~-2~--|

Pre-Chorus:
Gb|------------------------------------------------------------------------------|
Db|------------------------------------------------------------------------------|
Ab|-----33333333-55555555---------------77--33333333-55555555-777777777777777----|
Eb|-----------------------00000000000000-----------------------------------------|

Chorus:
Gb|------------------------------------------------------------------------------|
Db|------------------------------------------------------------------------------|
Ab|--------------------55555555-33333333----------------------55555555-22225555--|
Eb|--00000000-33333333----------------------00000000-33333333--------------------|

Post-Chorus:
Gb|----------------|
Db|------------4~--|
Ab|-----3~---------|
Eb|--0~----/15~----|

Verse:
Gb|----------------------------|
Db|-----------4~--2--------4~--|
Ab|-----3~-----------3~--------|
Eb|--0~----3~------0~---3~-----|

Pre-Chorus:
Gb|------------------------------------------------------------------------------|
Db|------------------------------------------------------------------------------|
Ab|-----33333333-55555555---------------77--33333333-55555555-777777777777777----|
Eb|-----------------------00000000000000-----------------------------------------|

Chorus:
Gb|------------------------------------------------------------------------------|
Db|------------------------------------------------------------------------------|
Ab|--------------------55555555-33333333----------------------55555555-22225555--|
Eb|--00000000-33333333----------------------00000000-33333333--------------------|

Interlude:
Gb|------------------------------------------------------------------------------|
Db|------------------------------------------------------------------------------|
Ab|----33333333-5555555-------------------33333333-55555555-22222222-55555555----|
Eb|--------------------12\\-0-2-3-5-5--------------------------------------------|

Chorus:
Gb|------------------------------------------------------------------------------|
Db|------------------------------------------------------------------------------|
Ab|--------------------55555555-33333333----------------------55555555-22225555--|
Eb|--00000000-33333333----------------------00000000-33333333--------------------|

Outro:
Gb|------------------------------------------------------------------------------|
Db|--------------------------44444444--------------------------------------------|
Ab|---------33333333---------------------------33333333----------22225555--------|
Eb|-00000000--------33333333-----------00000000---------33333333----------0~--00-|

**********************************************************************************
13. 88.

Intro:
Gb|------------------------------------------------------------------------------|
Db|------------------------------------------------------------------------------|
Ab|----------------------3-3-3-3-3-3-3-3----0-0-0-0-0-0-0-0----2-2-2-2-2-2-2-2---|
Eb|---0-0-0-0-0-0-0-0------------------------------------------------------------|

Gb|------------------------------------------------------------------------------|
Db|------------------------------------------------------------------------------|
Ab|----------------------3-3-3-3-3-3-3-3----0-0-0-0-0-0-0-0----2-2-2-2-2-2-2-2---|
Eb|---0-0-0-0-0-0-0-0------------------------------------------------------------|

Verse: (rest)

Chorus:
Gb|------------------------------------------------------------------------------|
Db|------------------------------------------------------------------------------|
Ab|----------------------5-5-5-5-5-5-5-5----3-3-3-3-3-3-3-3----------------------|
Eb|---0-0-0-0-0-0-0-0------------------------------------------3-3-3-3-3-3-3-3---|

Gb|------------------------------------------------------------------------------|
Db|------------------------------------------------------------------------------|
Ab|----------------------5-5-5-5-5-5-5-5----3-3-3-3-3-3-3-3----------------------|
Eb|---0-0-0-0-0-0-0-0------------------------------------------3-3-3-3-3-3-3-3---|
						      
Gb|------------------------------------------------------------------------------|
Db|------------------------------------------------------------------------------|
Ab|---3-3-3-3-3-3-3-3-----------------------5-5-5-5-5-5-5-5----7-7-7-7-7-7-7-7---|
Eb|----------------------3-3-3-3-3-3-3-3-----------------------------------------|
		    		     		      
Gb|------------------------------------------------------------------------------|
Db|------------------------------------------------------------------------------|
Ab|---3-3-3-3-3-3-3-3----5-5-5-5-5-5-5-5-----------------------------------------|
Eb|-----------------------------------------3-3-3-3-3-3-3-3----3-3-3-3-3-3-3-3---|

Bridge:
Gb|------------------------------------------------------------------------------|
Db|------------------------------------------------------------------------------|
Ab|-----------3-3-3-3-------------2-2-2-2-------------5-5-5-5------------2-2-2-2-|
Eb|-0-0-0-0-------------3-3-3-3-------------0-0-0-0-------------3-3-3-3----------|

Gb|------------------------------------------------------------------------------|
Db|------------------------------------------------------------------------------|
Ab|-----------3-3-3-3-------------2-2-2-2-------------5-5-5-5------------2-2-2-2-|
Eb|-0-0-0-0-------------3-3-3-3-------------0-0-0-0-------------3-3-3-3----------|
						      
Verse:
Gb|------------------------------------------------------------------------------|
Db|------------------------------------------------------------------------------|
Ab|----------------------------------------3-3-3-3-3-3-3-3-----------------------|
Eb|---0-*-0-*-0-*-0-*--0-*-0-*-0-*-0-*-------------------------3-3-3-3-3-3-3-3---|
		    		     		      
Gb|------------------------------------------------------------------------------|
Db|------------------------------------------------------------------------------|
Ab|----------------------------------------3-3-3-3-3-3-3-3-----5-5-5-5-5-5-5-5---|
Eb|---0-*-0-*-0-*-0-*--0-*-0-*-0-*-0-*-------------------------------------------|

Chorus:
Gb|------------------------------------------------------------------------------|
Db|------------------------------------------------------------------------------|
Ab|--7-7-7-7-7-7-7-7----5-5-5-5-5-5-5-5----3-3-3-3-3-3-3-3--------------2-2-3-3--|
Eb|-----------------------------------------------------------3-3-3-3------------|
		    		     		      
Gb|------------------------------------------------------------------------------|
Db|------------------------------------------------------------------------------|
Ab|--7-7-7-7-7-7-7-7----5-5-5-5-5-5-5-5----3-3-3-3-3-3-3-3--------------3-3-2-2--|
Eb|-----------------------------------------------------------3-3-3-3------------|
		    		     		      
Gb|------------------------------------------------------------------------------|
Db|------------------------------------------------------------------------------|
Ab|--3-3-3-3-3-3-3-3-----------------------5-5-5-5-5-5-5-5----7-7-7-7-7-7-7-7----|
Eb|---------------------3-3-3-3-3-3-3-3------------------------------------------|
		    		     		      
Gb|----------------------------------|
Db|----------------------------------|
Ab|3-3-3-3-3-3-3-3--5-5-5-5-5-5-5-5--|
Eb|----------------------------------|

Bridge:
Gb|------------------------------------------------------------------------------|
Db|------------------------------------------------------------------------------|
Ab|-------------------------3-3-3-3-3-3-3-3-0-0-0-0-0-0-0-0-2-2-2-2-2-2-2-2------|
Eb|-----0-0-0-0-0-0-0-0----------------------------------------------------------|

Gb|------------------------------------------------------------------------------|
Db|------------------------------------------------------------------------------|
Ab|-------------------------3-3-3-3-3-3-3-3-0-0-0-0-0-0-0-0-2-2-2-2-2-2-2-2------|
Eb|-----0-0-0-0-0-0-0-0----------------------------------------------------------|

Breakdown:
Gb|------------------------------------------------------------------------------|
Db|------------------------------------------------------------------------------|
Ab|------------------------------------------------------------------------------|
Eb|0-0-*-0-0-*-0-0-*-0-0-*-0000*--0000*--0000*--0000*--0000*--0000*--0000*--0000*|
		    		     
Gb|------------------------------------------------------------------------------|
Db|------------------------------------------------------------------------------|
Ab|------------------------------------------------------------------------------|
Eb|-----0000*---0000*-----1111*---1111*------0000*---0000*-----1111*---1111*-----|
		    		     
Gb|------------------------------------------------------------------------------|    
Db|------------------------------------------------------------------------------|    
Ab|------------------------------------------------------------------------------|
Eb|----0000*----0000*-----000000000000*------0000*----0000*-----000000000000*----|    
		    		     
Gb|------------------------------------------------------------------------------|   
Db|------------------------------------------------------------------------------|   
Ab|------------------------------------------------------------------------------|
Eb|----0-0-0-0-3----0-0-0-0-1-----0-0-3------0-0-0-0-3----0-0-0-0-1-----0-0-3----|   

Gb|------------------------------------------------------------------------------|
Db|------------------------------------------------------------------------------|
Ab|------------------------------------------------------------------------------|
Eb|0-0-0-0-3-0-0-0-0-1-0-0-3-0-0-0-0-3-0-0-0-0-1-0-0-3-0-0-0-0-3-0-0-0-0-1-0-0-3-|

Gb|------------------------------------------------------------------------------| 
Db|------------------------------------------------------------------------------| 
Ab|------------------------------------------------------------------------------| 
Eb|---0000*---0000*-----000000000000*----0000*---0000*------000000000000*----0---|
3 comments total.
0 reply
WhiteStripes427 wrote on March 7 2005, 12:00 am

its ok not 100% but some of its good

0 reply
Bizzypunk wrote on December 21 2005, 06:54 am

yeah ^same its good...

0 reply
Sumlover41 wrote on June 4 2006, 04:37 pm

We're all to blame's verse is ****ed up..

I want to post or [tab]
guest
You may want to rate the tab now too:
select rating
Please do not post tabs as comments. Select "correction" instead!