Oops, an error
Loading. Please wait.

Chuck Tab

ver1
ver1

Album

Interactive

More versions @911Tabs.com
27,816 views 21 this week
26 commentsread comments
1 2 3 4 5
worth learning
x 29
Autoscroll
+/-
esc
set tempo
stop
Hey! There's an official Ultimate Guitar app which is ideal
for learning songs when you're away from computer. Get the app
WARNING: You are trying to view
                                    content from Ultimate-Guitar.com
                                    in an unauthorized application,
                                    which is prohibited.

                                    Please use an official Ultimate
                                    Guitar Tabs application for iPhone,
                                    iPad or Android to access legitimate
                                    chords, guitar, bass, and drum tabs
                                    from Ultimate-Guitar.com database.

                                    Type "ultimate guitar tabs" in Apple
                                    App Store's or Android Market's
                                    search to find the application.
song: intro

Tuning: 1/2 step down

{Guitar 1 (slight distortion for both guitars)
{   (Ebm)                       (B)               (C#)
{    Em                          C                 D
{eb|--------------------------------------------------------|
{Bb|--------------------------------------------------------|
{Gb|---------------------------------9--9--9-------2--0-----|
{Db|-----9-10-9----------------------9--10-9-------0--0--4--|
{Ab|-7---7--7-7-------9----10--------7--7--7-------------5--|
{Eb|-0----------------0----0-----8--------------------------|
{
{Guitar 2
{eb|-----------------------------------------------2--------|
{Bb|---------------------------------3--5--3-------3-----3--|
{Gb|-----------------------------4-----------------2-----2--|
{Db|-----------------------------5-----------------0-----0--|
{Ab|-----------------------------3--------------------------|
{Eb|-0------------------------------------------------------|


{Guitar 1
{   (Ebm)                     (B)                 (C#)
{    Em                        C                   D
{eb|-----------------------------------------------------------|
{Bb|-----0-1-0-------0----0------------------------10---8--7---|
{Gb|-----0-2-0-------X----X--------9--9--9---------7----7--7---|
{Db|-2---2-2-2-------7----9--------9--10-9---------0----0--0---|
{Ab|-2---------------9----10-------7--7--7---------------------|
{Eb|-0---------------0----0----8-------------------------------|
{
{Guitar 2
{eb|-0---------------0-------------------------------------3---|
{Bb|-0---------------0-------------3-5-3-----------2-------2---|
{Gb|-0---------------0---------4-------------------3-------3---|
{Db|-2---------------2---------5-------------------0-------0---|
{Ab|-2---------------2---------3-------------------------------|
{Eb|-0---------------0-----------------------------------------|

Repeat all of the above, and this time add in
the parts written below where they are needed.

Guitar 3 (Clean)
eb|------------------------------|-----------------------------|
Bb|------------------------------|-----------12----------------|
Gb|-----------9-11-9-11b12r11----|----9/12------12-9-----------|
Db|---9-10-12--------------------|-----------------------------|
Ab|------------------------------|-----------------------------|
Eb|------------------------------|-----------------------------|

eb|---------------------|--------------------------------------|
Bb|---------------------|--------------------------------------|
Gb|-12\11/12---12/14----|-------------9-11-9-11b12r11----------|
Db|---------------------|-----9-10-12--------------------------|
Ab|---------------------|--------------------------------------|
Eb|---------------------|--------------------------------------|

eb|---------------------|--------------------------------------|
Bb|-------12------------|--------------------------------------|
Gb|-9/12-----12-9-------|-----12\11/12---12/14-----------------|
Db|---------------------|--------------------------------------|
Ab|---------------------|--------------------------------------|
Eb|---------------------|--------------------------------------|

song: no reason

"All of us believe..."
Eb|----------------------|  Intro
Bb|----------------------|
Gb|------5--4------4--7--| {play twice}
Db|---2--5--4--2---4--7--|
Ab|---2--3--2--2---2--5--|
Eb|---0--------0---------|

            "Hey!"
Eb|--------------------------|
Bb|--------------------------|
Gb|-----------------4--7-----| {Play twice}
Db|-------5-5-4-0---4--7--(2)|
Ab|--2-2------------2--5--(2)--->replaces the 2-2 or just use a 2nd guitar
Eb|-----------------------(0)|

Eb|----------------------|2nd guitar
Bb|----------------------| 
Gb|------5--4------4--7--|2nd guitar comes in, plays this during "Hey" part
Db|---2--5--4--2---4--7--|     
Ab|---2--3--2--2---2--5--|
Eb|---0--------0---------|

The verse from what I can tell really only has a little bass and some 2nd guitar
in the background...

You can hear this:           And this little part in the background
Eb|-----------------|          |-----------------------|
Bb|-----------------|          |-----------------------|
Gb|-----------------|          |-----------------------|
Db|-------5-4-0-----|          |-----------------------| (x2)
Ab|-----------------|          |--7-9-10-12-14-12-10-12|
Eb|-----------------|          |-----------------------|

Chorus:
     "Tell me why can't you see, it's not the way.."
Eb|--------------------------------------------|
Bb|--------------------------------------------|
Gb|---5---------7--------5---------7----9------|
Db|---5(x8)5----7(x16)---5(x8)5----7(x8)9(x8)--| x2 or however many times
Ab|---3----5(x8)5--------3----5(x8)5----7------|
Eb|--------3------------------3----------------|


My attempt at the leadout of the chorus: This is how I play it:
It sounds pretty cool:

Eb|--------------------------------|      
Bb|--------------------------------|         
Gb|--------------------------------|      
Db|-------2-4-5--------------------|
Ab|---------------0--2/3\2---------|
Eb|-------------------------0------|

song: we're all to blame

==========================================

DERYCK - RHYTHM GUITAR (Eb Ab Db Gb Bb Eb)

==========================================

INTRO (0:03):
Distortion:
   D#                      E   D#                           E   D#
Eb|--------------------------------|--------------------------------|
Bb|--------------------------------|--------------------------------|
Gb|9---9-9-9---9-9-9---9-9-10--9---|9---9-9-9---9-9-9---9-9-10--9---|
Db|x---x-x-x---x-x-x---x-x-x---x---|x---x-x-x---x-x-x---x-x-x---x---|
Ab|7---7-7-7---7-7-7---7-7-8---7---|7---7-7-7---7-7-7---7-7-8---7---|
Eb|--------------------------------|--------------------------------|
   1 e & a 2 e & a 3 e & a 4 e & a  1 e & a 2 e & a 3 e & a 4 e & a

   D#                      E   D#   B5   A#5  B5   C#5  A#5  B5
Eb|--------------------------------|--------------------------------|
Bb|--------------------------------|--------------------------------|
Gb|9---9-9-9---9-9-9---9-9-10--9---|--------------------------------|
Db|x---x-x-x---x-x-x---x-x-x---x---|10---9----10---12---9----10-----|
Ab|7---7-7-7---7-7-7---7-7-8---7---|10---9----10---12---9----10-----|
Eb|--------------------------------|8----7----8----10---7----8------|
   1 e & a 2 e & a 3 e & a 4 e & a  1    e    a    3    e    a

(0:09):
   D#5 (m)
Eb|--------------------------------|--------------------------------|
Bb|--------------------------------|--------------------------------|
Gb|------------------------12------|------------------------12------|
Db|2-2-2-2-2-2-2-2-2-------x-------|2-2-2-2-2-2-2-2-2-------x-------|
Ab|2-2-2-2-2-2-2-2-2-------10------|2-2-2-2-2-2-2-2-2-------10------|
Eb|0-0-0-0-0-0-0-0-0---------------|0-0-0-0-0-0-0-0-0---------------|
   1 e & a 2 e & a 3 e & a 4 e & a  1 e & a 2 e & a 3 e & a 4 e & a
   . . . . . . . . .                . . . . . . . . .
                                    B5   A#5  B5   C#5  A#5  B5
Eb|--------------------------------|--------------------------------|
Bb|--------------------------------|--------------------------------|
Gb|------------------------12------|--------------------------------|
Db|2-2-2-2-2-2-2-2-2-------x-------|10---9----10---12---9----10-----|
Ab|2-2-2-2-2-2-2-2-2-------10------|10---9----10---12---9----10-----|
Eb|0-0-0-0-0-0-0-0-0---------------|8----7----8----10---7----8------|
   1 e & a 2 e & a 3 e & a 4 e & a  1    e    a    3    e    a
   . . . . . . . . .
   B5   A#5  B5   C#5  A#5  B5     D#5
Eb|--------------------------------|--------------------------------|
Bb|--------------------------------|--------------------------------|
Gb|--------------------------------|.-------.-------.-------.-------|
Db|10---9----10---12---9----10-----|2-------2-------2-------2-------|
Ab|10---9----10---12---9----10-----|2-------2-------2-------2-------|
Eb|8----7----8----10---7----8------|0-------0-------0-------0-------|
   1    e    a    3    e    a       1       2       3       4
   .    .    .    .    .    .



1st VERSE (0:18):
   N.C.
Eb|--------------------------------|--------------------------------|\\
Bb|--------------------------------|--------------------------------| \\
Gb|--------------------------------|--------------------------------|  \\
Db|--------------------------------|--------------------------------|   \\
Ab|--------------------------------|--------------------------------|    \\
Eb|--------------------------------|--------------------------------|     \\
  1 e & a 2 e & a 3 e & a 4 e & a  1 e & a 2 e & a 3 e & a 4 e & a         \\
                                                                            |x3,5
   D#5     F#5 D#5         F5  D#5          E5  D#5     E5  D#5 E5         /
Eb|--------------------------------|--------------------------------|     /
Bb|--------------------------------|--------------------------------|    /
Gb|--------------------------------|--------------------------------|   /
Db|2-----2-5---2---2-----2-4---2---|2-----2-3---2---2---3---2---3---|  /
Ab|2-----2-5---2---2-----2-4---2---|2-----2-3---2---2---3---2---3---| /
Eb|0-----0-3---0---0-----0-2---0---|0-----0-1---0---0---1---0---1---|/
   1 e & a 2 e & a 3 e & a 4 e & a  1 e & a 2 e & a 3 e & a 4 e & a
   .     . .   .   .     . .   .    .     . .   .   .       .

   D#5     F#5 D#5         F5  D#5  B5   A#5  B5   C#5  A#5  B5
Eb|--------------------------------|--------------------------------|
Bb|--------------------------------|--------------------------------|
Gb|--------------------------------|--------------------------------|
Db|2-----2-5---2---2-----2-4---2---|10---9----10---12---9----10-----|
Ab|2-----2-5---2---2-----2-4---2---|10---9----10---12---9----10-----|
Eb|0-----0-3---0---0-----0-2---0---|8----7----8----10---7----8------|
   1 e & a 2 e & a 3 e & a 4 e & a  1    e    a    3    e    a
   .     . .   .   .     . .   .



1st CHORUS (0:42):
Clean Guitar w/ Tremolo effect
   G#m                              C#m
Eb|0~------------------------------|1~------------------------------|
Bb|1~------------------------------|3~------------------------------|
Gb|2~------------------------------|2~------------------------------|
Db|2~------------------------------|0~------------------------------|
Ab|0~------------------------------|--------------------------------|
Eb|--------------------------------|--------------------------------|

   F#                               D#(m)
Eb|3~------------------------------|0~------------------------------|
Bb|3~------------------------------|0~------------------------------|
Gb|0~------------------------------|1~------------------------------|
Db|0~------------------------------|2~------------------------------|
Ab|2~------------------------------|2~------------------------------|
Eb|3~------------------------------|0~------------------------------|

(0:48):
   G#m             C#m              F#              D#(m)
Eb|0---0---0---0-0-1---1---1---1-0-|3---3---3---3-0-0---0---0---0-0-|\\
Bb|1---1---1---1-0-3---3---3---3-0-|3---3---3---3-0-0---0---0---0-0-| \\
Gb|2---2---2---2-0-2---2---2---2-0-|0---0---0---0-0-1---1---1---1-0-|  |x3.
Db|2---2---2---2-0-0---0---0---0-0-|0---0---0---0-0-2---2---2---2-0-|  |
Ab|0---0---0---0-0-----------------|2---2---2---2-0-2---2---2---2-0-| /
Eb|--------------------------------|3---3---3---3-0-0---0---0---0-0-|/
   1 e & a 2 e & a 3 e & a 4 e & a  1 e & a 2 e & a 3 e & a 4 e & a

(1:06):
   D#(m)
Eb|0-------------------------------|
Bb|0-------------------------------|
Gb|1-------------------------------|
Db|2-------------------random------|
Ab|2-------------------slide-------|
Eb|0-------------------------------|
   1 e & a 2 e & a 3 e & a 4 e & a
Distortion:
   B5   A#5  B5   C#5  A#5  B5     D#5
Eb|--------------------------------|--------------------------------|
Bb|--------------------------------|--------------------------------|
Gb|--------------------------------|.-------.-------.-------.-------|
Db|10---9----10---12---9----10-----|2-------2-------2-------2-------|
Ab|10---9----10---12---9----10-----|2-------2-------2-------2-------|
Eb|8----7----8----10---7----8------|0-------0-------0-------0-------|
   1    e    a    3    e    a       1       2       3       4



2nd VERSE (1:11):

Repeat 1st VERSE.



2nd CHORUS (1:34):

Repeat 1st CHORUS. Stop at \"1:06\" and play the below instead (1:59).



BRIDGE (1:59):
   G#m             E                B               F#
Eb|0---0---0---0-0-1---1---1---1-0-|0---0---0---0-0-3---3---3---3-0-|
Bb|1---1---1---1-0-1---1---1---1-0-|1---1---1---1-0-3---3---3---3-0-|
Gb|2---2---2---2-0-2---2---2---2-0-|0---0---0---0-0-0---0---0---0-0-|
Db|2---2---2---2-0-3---3---3---3-0-|2---2---2---2-0-0---0---0---0-0-|
Ab|0---0---0---0-0-3---3---3---3-0-|3---3---3---3-0-2---2---2---2-0-|
Eb|----------------1---1---1---1-0-|----------------3---3---3---3-0-|
   1 e & a 2 e & a 3 e & a 4 e & a  1 e & a 2 e & a 3 e & a 4 e & a

   G#m             E                B               F#
Eb|0---0---0---0-0-1---1---1---1-0-|0---0---0---0-0-3~--------------|
Bb|1---1---1---1-0-1---1---1---1-0-|1---1---1---1-0-3~--------------|
Gb|2---2---2---2-0-2---2---2---2-0-|0---0---0---0-0-0~--------------|
Db|2---2---2---2-0-3---3---3---3-0-|2---2---2---2-0-0~--------------|
Ab|0---0---0---0-0-3---3---3---3-0-|3---3---3---3-0-2~--------------|
Eb|----------------1---1---1---1-0-|----------------3~--------------|
   1 e & a 2 e & a 3 e & a 4 e & a  1 e & a 2 e & a 3 e & a 4 e & a
                                                                F#5
Eb|(3)-----------------------------|(3)-----------------------------|
Bb|(3)-----------------------------|(3)-----------------------------|
Gb|(0)-----------------------------|(0)-----------------------------|
Db|(0)-----------------------------|(0)-------------------------5---|
Ab|(2)-----------------------------|(2)-------------------------5---|
Eb|(3)-----------------------------|(3)-------------------------3---|
   1 e & a 2 e & a 3 e & a 4 e & a  1 e & a 2 e & a 3 e & a 4 e & a



3rd VERSE (2:13):
Deryck probably doesn\'t play this part, but I\'ll tab it out anyways.

   D#5         F#5 D#5         F5   D#5         F5  D#5 F#5 G#5 E
Eb|--------------------------------|--------------------------------|
Bb|--------------------------------|--------------------------------|
Gb|--------------------------------|----------------------------10--|
Db|2-----------5---2-----------4---|2-----------4---2---5---7---x---|
Ab|2-----------5---2-----------4---|2-----------4---2---5---7---8---|
Eb|0---0-0-0-0-3---0---0-0-0-0-2---|0---0-0-0-0-2---0---3---5-------|
   1 e & a 2 e & a 3 e & a 4 e & a  1 e & a 2 e & a 3 e & a 4 e & a
       . . . .         . . . .          . . . .
   D#5         F#5 D#5         F5   D#5         F5  D#5 F#5 G#5 E
Eb|--------------------------------|--------------------------------|
Bb|--------------------------------|--------------------------------|
Gb|--------------------------------|----------------------------10--|
Db|2-----------5---2-----------4---|2-----------4---2---5---7---x---|
Ab|2-----------5---2-----------4---|2-----------4---2---5---7---8---|
Eb|0---0-0-0-0-3---0---0-0-0-0-2---|0---0-0-0-0-2---0---3---5-------|
   1 e & a 2 e & a 3 e & a 4 e & a  1 e & a 2 e & a 3 e & a 4 e & a
       . . . .         . . . .          . . . .

(2:19):
   D#5
Eb|--------------------------------|--------------------------------|
Bb|--------------------------------|--------------------------------|
Gb|--------------------------------|--------------------------------|
Db|2---2-2-2-2-2-2-2---------------|2---2-2-2-2-2-2-2---------------|
Ab|2---2-2-2-2-2-2-2---------------|2---2-2-2-2-2-2-2---------------|
Eb|0---0-0-0-0-0-0-0---------------|0---0-0-0-0-0-0-0---------------|
   1 e & a 2 e & a 3 e & a 4 e & a  1 e & a 2 e & a 3 e & a 4 e & a
       . . . . . .                      . . . . . .         N.C.
Eb|--------------------------------|--------------------------------|
Bb|--------------------------------|--------------------------------|
Gb|--------------------------------|--------------------------------|
Db|2---2-2-2-2-2-2-2---------------|2---2-2-2-2-2-2-2-------random--|
Ab|2---2-2-2-2-2-2-2---------------|2---2-2-2-2-2-2-2-------slide---|
Eb|0---0-0-0-0-0-0-0---------------|0---0-0-0-0-0-0-0---------------|
   1 e & a 2 e & a 3 e & a 4 e & a  1 e & a 2 e & a 3 e & a 4 e & a
       . . . . . .                      . . . . . .
   D#5                     B        D#5                     A#
Eb|--------------------------------|--------------------------------|
Bb|--------------------------------|--------------------------------|
Gb|------------------------5-------|------------------------4-------|
Db|2---2-2-2-2-2-2-2-------x-------|2---2-2-2-2-2-2-2-------x-------|
Ab|2---2-2-2-2-2-2-2-------3-------|2---2-2-2-2-2-2-2-------2-------|
Eb|0---0-0-0-0-0-0-0---------------|0---0-0-0-0-0-0-0---------------|
   1 e & a 2 e & a 3 e & a 4 e & a  1 e & a 2 e & a 3 e & a 4 e & a
       . . . . . .                      . . . . . .
   D#5                     B        F#5
Eb|--------------------------------|----------------|----------------|
Bb|--------------------------------|----------------|----------------|
Gb|------------------------5-------|----------------|----------------|
Db|2---2-2-2-2-2-2-2-------x-------|5-5-5-5-5-5-5-5-|5-5-5-5-5-5-5-5-|
Ab|2---2-2-2-2-2-2-2-------3-------|5-5-5-5-5-5-5-5-|5-5-5-5-5-5-5-5-|
Eb|0---0-0-0-0-0-0-0---------------|3-3-3-3-3-3-3-3-|3-3-3-3-3-3-3-3-|
   1 e & a 2 e & a 3 e & a 4 e & a  1 & 2 & 3 & 4 &  1 & 2 & 3 & 4 &
       . . . . . .                  . . . . . . . .  . . .



3rd CHORUS (2:31):
   G#m             C#m              F#              D#(m)
Eb|0---0---0---0-0-1---1---1---1-0-|3---3---3---3-0-0---0---0---0-0-|\\
Bb|1---1---1---1-0-3---3---3---3-0-|3---3---3---3-0-0---0---0---0-0-| \\
Gb|2---2---2---2-0-2---2---2---2-0-|0---0---0---0-0-1---1---1---1-0-|  |x2.
Db|2---2---2---2-0-0---0---0---0-0-|0---0---0---0-0-2---2---2---2-0-|  |
Ab|0---0---0---0-0-----------------|2---2---2---2-0-2---2---2---2-0-| /
Eb|--------------------------------|3---3---3---3-0-0---0---0---0-0-|/
   1 e & a 2 e & a 3 e & a 4 e & a  1 e & a 2 e & a 3 e & a 4 e & a

(2:42):
   G#m             E                B               F#
Eb|0---0---0---0-0-1---1---1---1-0-|0---0---0---0-0-3---3---3---3-0-|\\
Bb|1---1---1---1-0-1---1---1---1-0-|1---1---1---1-0-3---3---3---3-0-| \\
Gb|2---2---2---2-0-2---2---2---2-0-|0---0---0---0-0-0---0---0---0-0-|  |x4.
Db|2---2---2---2-0-3---3---3---3-0-|2---2---2---2-0-0---0---0---0-0-|  |
Ab|0---0---0---0-0-3---3---3---3-0-|3---3---3---3-0-2---2---2---2-0-| /
Eb|----------------1---1---1---1-0-|----------------3---3---3---3-0-|/
   1 e & a 2 e & a 3 e & a 4 e & a  1 e & a 2 e & a 3 e & a 4 e & a



OUTRO (3:06):
Acoustic Guitar:
   G#m                              C#m
Eb|0~------------------------------|1~------------------------------|
Bb|1~------------------------------|3~------------------------------|
Gb|2~------------------------------|2~------------------------------|
Db|2~------------------------------|0~------------------------------|
Ab|0~------------------------------|--------------------------------|
Eb|--------------------------------|--------------------------------|

   F#                               D#(m)
Eb|3~------------------------------|0~------------------------------|
Bb|3~------------------------------|0~------------------------------|
Gb|0~------------------------------|1~------------------------------|
Db|0~------------------------------|2~------------------------------|
Ab|2~------------------------------|2~------------------------------|
Eb|3~------------------------------|0~------------------------------|

   G#m             C#m              F#              D#(m)
Eb|0---0---0---0-0-1---1---1---1-0-|3---3---3---3-0-0---0---0---0-0-|\\
Bb|1---1---1---1-0-3---3---3---3-0-|3---3---3---3-0-0---0---0---0-0-| \\
Gb|2---2---2---2-0-2---2---2---2-0-|0---0---0---0-0-1---1---1---1-0-|  |x3.
Db|2---2---2---2-0-0---0---0---0-0-|0---0---0---0-0-2---2---2---2-0-|  |
Ab|0---0---0---0-0-----------------|2---2---2---2-0-2---2---2---2-0-| /
Eb|--------------------------------|3---3---3---3-0-0---0---0---0-0-|/
   1 e & a 2 e & a 3 e & a 4 e & a  1 e & a 2 e & a 3 e & a 4 e & a

   G#m
Eb|0~------------------------------||
Bb|1~------------------------------||
Gb|2~------------------------------||
Db|2~------------------------------||
Ab|0~------------------------------||
Eb|--------------------------------||





================================

DAVE - LEAD GUITAR (D A D G B E)

================================

INTRO (0:03):
Distortion:
  D#                      E   D#                           E   D#
E|--------------------------------|--------------------------------|
B|--------------------------------|--------------------------------|
G|8---8-8-8---8-8-8---8-8-9---8---|8---8-8-8---8-8-8---8-8-9---8---|
D|x---x-x-x---x-x-x---x-x-x---x---|x---x-x-x---x-x-x---x-x-x---x---|
A|6---6-6-6---6-6-6---6-6-7---6---|6---6-6-6---6-6-6---6-6-7---6---|
D|--------------------------------|--------------------------------|
  1 e & a 2 e & a 3 e & a 4 e & a  1 e & a 2 e & a 3 e & a 4 e & a

  D#                      E   D#   B5   A#5  B5   C#5  A#5  B5
E|--------------------------------|--------------------------------|
B|--------------------------------|--------------------------------|
G|8---8-8-8---8-8-8---8-8-9---8---|4----3----4----6----3----4------|
D|x---x-x-x---x-x-x---x-x-x---x---|4----3----4----6----3----4------|
A|6---6-6-6---6-6-6---6-6-7---6---|2----1----2----4----1----2------|
D|--------------------------------|--------------------------------|
  1 e & a 2 e & a 3 e & a 4 e & a  1    e    a    3    e    a
                          *random slide
(0:09):
  D#5 (m)
E|--------------------------------|--------------------------------|
B|--------------------------------|--------------------------------|
G|------------------------11------|------------------------11------|
D|1-1-1-1-1-1-1-1-1-------x-------|1-1-1-1-1-1-1-1-1-------x-------|
A|1-1-1-1-1-1-1-1-1-------9-------|1-1-1-1-1-1-1-1-1-------9-------|
D|1-1-1-1-1-1-1-1-1---------------|1-1-1-1-1-1-1-1-1---------------|
  1 e & a 2 e & a 3 e & a 4 e & a  1 e & a 2 e & a 3 e & a 4 e & a
  . . . . . . . . .                . . . . . . . . .
                                   B5   A#5  B5   C#5  A#5  B5
E|--------------------------------|--------------------------------|
B|--------------------------------|--------------------------------|
G|------------------------11------|4----3----4----6----3----4------|
D|1-1-1-1-1-1-1-1-1-------x-------|4----3----4----6----3----4------|
A|1-1-1-1-1-1-1-1-1-------9-------|2----1----2----4----1----2------|
D|1-1-1-1-1-1-1-1-1---------------|--------------------------------|
  1 e & a 2 e & a 3 e & a 4 e & a  1    e    a    3    e    a
  . . . . . . . . .
  B5   A#5  B5   C#5  A#5  B5      D#5
E|--------------------------------|--------------------------------|
B|--------------------------------|--------------------------------|
G|4----3----4----6----3----4------|.-------.-------.-------.-------|
D|4----3----4----6----3----4------|1-------1-------1-------1-------|
A|2----1----2----4----1----2------|1-------1-------1-------1-------|
D|--------------------------------|1-------1-------1-------1-------|
  1    e    a    3    e    a       1 e & a 2 e & a 3 e & a 4 e & a
  .    .    .    .    .    .



1st VERSE (0:18):
  D#                      A#       C#              B
E|--------------------------------|--------------------------------|
B|--------------------------------|--------------------------------|
G|8-8-8-8-8-8-8-8-8-8-8-8-3-3-3-3-|6-6-6-6-6-6-6-6-4-4-4-4-4-4-4-4-|
D|x-x-x-x-x-x-x-x-x-x-x-x-x-x-x-x-|x-x-x-x-x-x-x-x-x-x-x-x-x-x-x-x-|
A|6-6-6-6-6-6-6-6-6-6-6-6-1-1-1-1-|4-4-4-4-4-4-4-4-2-2-2-2-2-2-2-2-|
D|--------------------------------|--------------------------------|
  1 e & a 2 e & a 3 e & a 4 e & a  1 e & a 2 e & a 3 e & a 4 e & a

  D#5     F#5 D#5         F5  D#5          E5  D#5     E5  D#5 E5
E|--------------------------------|--------------------------------|
B|--------------------------------|--------------------------------|
G|--------------------------------|--------------------------------|
D|1-----1-4---1---1-----1-3---1---|1-----1-2---1---1---2---1---2---|
A|1-----1-4---1---1-----1-3---1---|1-----1-2---1---1---2---1---2---|
D|1-----1-4---1---1-----1-3---1---|1-----1-2---1---1---2---1---2---|
  1 e & a 2 e & a 3 e & a 4 e & a  1 e & a 2 e & a 3 e & a 4 e & a
  .     . .   .   .     . .   .    .     . .   .   .       .
  D#                      A#       B               C#
E|--------------------------------|--------------------------------|
B|--------------------------------|--------------------------------|
G|8-8-8-8-8-8-8-8-8-8-8-8-3-3-3-3-|4-4-4-4-4-4-4-4-6-6-6-6-6-6-6-6-|
D|x-x-x-x-x-x-x-x-x-x-x-x-x-x-x-x-|x-x-x-x-x-x-x-x-x-x-x-x-x-x-x-x-|
A|6-6-6-6-6-6-6-6-6-6-6-6-1-1-1-1-|2-2-2-2-2-2-2-2-4-4-4-4-4-4-4-4-|
D|--------------------------------|--------------------------------|
  1 e & a 2 e & a 3 e & a 4 e & a  1 e & a 2 e & a 3 e & a 4 e & a

  D#5     F#5 D#5         F5  D#5          E5  D#5     E5  D#5 E5
E|--------------------------------|--------------------------------|
B|--------------------------------|--------------------------------|
G|--------------------------------|--------------------------------|
D|1-----1-4---1---1-----1-3---1---|1-----1-2---1---1---2---1---2---|
A|1-----1-4---1---1-----1-3---1---|1-----1-2---1---1---2---1---2---|
D|1-----1-4---1---1-----1-3---1---|1-----1-2---1---1---2---1---2---|
  1 e & a 2 e & a 3 e & a 4 e & a  1 e & a 2 e & a 3 e & a 4 e & a
  .     . .   .   .     . .   .    .     . .   .   .       .

(0:30):
  D#          F#          F            C#          F
E|--------------------------------|--------------------------------|
B|--------------------------------|--------------------------------|
G|8-8-8-8-8-8-11111111111110101010|10106-6-6-6-6-6-1010101010101010|
D|x-x-x-x-x-x-x-x-x-x-x-x-x-x-x-x-|x-x-x-x-x-x-x-x-x-x-x-x-x-x-x-x-|
A|6-6-6-6-6-6-9-9-9-9-9-9-8-8-8-8-|8-8-4-4-4-4-4-4-8-8-8-8-8-8-8-8-|
D|--------------------------------|--------------------------------|
  1 e & a 2 e & a 3 e & a 4 e & a  1 e & a 2 e & a 3 e & a 4 e & a

  D#5     F#5 D#5         F5  D#5          E5  D#5     E5  D#5 E5
E|--------------------------------|--------------------------------|
B|--------------------------------|--------------------------------|
G|--------------------------------|--------------------------------|
D|1-----1-4---1---1-----1-3---1---|1-----1-2---1---1---2---1---2---|
A|1-----1-4---1---1-----1-3---1---|1-----1-2---1---1---2---1---2---|
D|1-----1-4---1---1-----1-3---1---|1-----1-2---1---1---2---1---2---|
  1 e & a 2 e & a 3 e & a 4 e & a  1 e & a 2 e & a 3 e & a 4 e & a
  .     . .   .   .     . .   .    .     . .   .   .       .
  D#          F#          C#       G#              F#
E|--------------------------------|--------------------------------|
B|--------------------------------|--------------------------------|
G|8-8-8-8-8-8-1111111111116-6-6-6-|13131313131313131111111111111111|
D|x-x-x-x-x-x-x-x-x-x-x-x-x-x-x-x-|x-x-x-x-x-x-x-x-x-x-x-x-x-x-x-x-|
A|6-6-6-6-6-6-9-9-9-9-9-9-4-4-4-4-|11111111111111119-9-9-9-9-9-9-9-|
D|--------------------------------|--------------------------------|
  1 e & a 2 e & a 3 e & a 4 e & a  1 e & a 2 e & a 3 e & a 4 e & a

  D#5     F#5 D#5         F5  D#5  B5   A#5  B5   C#5  A#5  B5
E|--------------------------------|--------------------------------|
B|--------------------------------|--------------------------------|
G|--------------------------------|4----3----4----6----3----4------|
D|1-----1-4---1---1-----1-3---1---|4----3----4----6----3----4------|
A|1-----1-4---1---1-----1-3---1---|2----1----2----4----1----2------|
D|1-----1-4---1---1-----1-3---1---|--------------------------------|
  1 e & a 2 e & a 3 e & a 4 e & a  1    e    a    3    e    a
  .     . .   .   .     . .   .



1st CHORUS (0:42):
  G#5
E|--------------------------------|--------------------------------|
B|--------------------------------|--------------------------------|
G|--------------------------------|--------------------------------|
D|6~------------------------------|(6)-----------------------------|
A|6~------------------------------|(6)-----------------------------|
D|6~------------------------------|(6)-----------------------------|
Rest for two more measures.

(0:48):
  G#m             C#m              F#              D#m
E|--------------------------------|--------------------------------|\\
B|9~------------------------------|--------7~--------------7~------| \\
G|----8~------8~------8~--9~--8~--|----6~------6~--8~--------------|  |x3
D|--------9~------6~--------------|4~------------------8~------8~--|  |
A|--------------------------------|--------------------------------| /
D|--------------------------------|--------------------------------|/
  1 e & a 2 e & a 3 e & a 4 e & a  1 e & a 2 e & a 3 e & a 4 e & a

(1:06):
  D#
E|--------------------------------|
B|--------------------------------|
G|--------------------------------|
D|--------------------random------|
A|--------------------slide-------|
D|--------------------------------|
  1 e & a 2 e & a 3 e & a 4 e & a

  B5   A#5  B5   C#5  A#5  B5      D#5
E|--------------------------------|--------------------------------|
B|--------------------------------|--------------------------------|
G|4----3----4----6----3----4------|.-------.-------.-------.-------|
D|4----3----4----6----3----4------|1-------1-------1-------1-------|
A|2----1----2----4----1----2------|1-------1-------1-------1-------|
D|--------------------------------|1-------1-------1-------1-------|
  1    e    a    3    e    a       1 e & a 2 e & a 3 e & a 4 e & a



2nd VERSE (1:11):

Repeat 1st VERSE.



2nd CHORUS (1:34):

Repeat 1st CHORUS. Stop at \"1:06\" and play the below instead (1:59).



BRIDGE (1:59):
Piano part:
  G#m             E                B               F#
E|--------------------------------|--------------------------------|
B|9~--9~--9~--9~--11~-11~-11~-11~-|12~-12~-12~-12~-7~--7~--7~--7~--|
G|8~--8~--8~--8~--10~-10~-10~-10~-|11~-11~-11~-11~-6~--6~--6~--6~--|Play one
D|--------------------------------|--------------------------------|octave higher
A|--------------------------------|--------------------------------|
D|--------------------------------|--------------------------------|
  1 e & a 2 e & a 3 e & a 4 e & a  1 e & a 2 e & a 3 e & a 4 e & a

  G#m             E                B               F#
E|--------------------------------|--------------------------------|
B|9~--9~--9~--9~--11~-11~-11~-11~-|12~-12~-12~-12~-7~--------------|
G|8~--8~--8~--8~--10~-10~-10~-10~-|11~-11~-11~-11~-6~--------------|
D|--------------------------------|--------------------------------|
A|--------------------------------|--------------------------------|
D|--------------------------------|--------------------------------|
  1 e & a 2 e & a 3 e & a 4 e & a  1 e & a 2 e & a 3 e & a 4 e & a
                                                               F#5
E|--------------------------------|--------------------------------|
B|--------------------------------|--------------------------------|
G|--------------------------------|--------------------------------|
D|--------------------------------|----------------------------4---|
A|--------------------------------|----------------------------4---|
D|--------------------------------|----------------------------4---|
  1 e & a 2 e & a 3 e & a 4 e & a  1 e & a 2 e & a 3 e & a 4 e & a



3rd VERSE (2:13):
  D#5         F#5 D#5         F5   D#5         F5  D#5 F#5 G#5 E
E|--------------------------------|--------------------------------|
B|--------------------------------|--------------------------------|
G|--------------------------------|----------------------------9---|
D|1-----------4---1-----------3---|1-----------3---1---4---6---x---|
A|1-----------4---1-----------3---|1-----------3---1---4---6---7---|
D|1---1-1-1-1-4---1---1-1-1-1-3---|1---1-1-1-1-3---1---4---6-------|
  1 e & a 2 e & a 3 e & a 4 e & a  1 e & a 2 e & a 3 e & a 4 e & a
      . . . .         . . . .          . . . .
  D#5         F#5 D#5         F5   D#5         F5  D#5 F#5 G#5 E
E|--------------------------------|--------------------------------|
B|--------------------------------|--------------------------------|
G|--------------------------------|----------------------------9---|
D|1-----------4---1-----------3---|1-----------3---1---4---6---x---|
A|1-----------4---1-----------3---|1-----------3---1---4---6---7---|
D|1---1-1-1-1-4---1---1-1-1-1-3---|1---1-1-1-1-3---1---4---6-------|
  1 e & a 2 e & a 3 e & a 4 e & a  1 e & a 2 e & a 3 e & a 4 e & a
      . . . .         . . . .          . . . .

(2:19):
  D#5
E|--------------------------------|--------------------------------|
B|--------------------------------|--------------------------------|
G|--------------------------------|--------------------------------|
D|1---1-1-1-1-1-1-1---------------|1---1-1-1-1-1-1-1---------------|
A|1---1-1-1-1-1-1-1---------------|1---1-1-1-1-1-1-1---------------|
D|1---1-1-1-1-1-1-1---------------|1---1-1-1-1-1-1-1---------------|
  1 e & a 2 e & a 3 e & a 4 e & a  1 e & a 2 e & a 3 e & a 4 e & a
      . . . . . .                      . . . . . .         N.C.
E|--------------------------------|--------------------random------|
B|--------------------------------|--------------------slide-by----|
G|--------------------------------|--------------------2nd-guitar--|
D|1---1-1-1-1-1-1-1---------------|1---1-1-1-1-1-1-1---------------|
A|1---1-1-1-1-1-1-1---------------|1---1-1-1-1-1-1-1-------1-------|
D|1---1-1-1-1-1-1-1---------------|1---1-1-1-1-1-1-1---------4-3-4-|   <= ...?
  1 e & a 2 e & a 3 e & a 4 e & a  1 e & a 2 e & a 3 e & a 4 e & a
      . . . . . .                      . . . . . .
  D#5                     B        D#5                     A#
E|--------------------------------|--------------------------------|
B|--------------------------------|--------------------------------|
G|------------------------4-------|------------------------3-------|
D|1---1-1-1-1-1-1-1-------x-------|1---1-1-1-1-1-1-1-------x-------|
A|1---1-1-1-1-1-1-1-------2-------|1---1-1-1-1-1-1-1-------1-------|
D|1---1-1-1-1-1-1-1---------------|1---1-1-1-1-1-1-1---------------|
  1 e & a 2 e & a 3 e & a 4 e & a  1 e & a 2 e & a 3 e & a 4 e & a
      . . . . . .                      . . . . . .
  D#5                     B        F#5
E|--------------------------------|----------------|----------------|
B|--------------------------------|----------------|----------------|
G|------------------------4-------|----------------|----------------|
D|1---1-1-1-1-1-1-1-------x-------|4-4-4-4-4-4-4-4-|4-4-4-4-4-4-4-4-|
A|1---1-1-1-1-1-1-1-------2-------|4-4-4-4-4-4-4-4-|4-4-4-4-4-4-4-4-|
D|1---1-1-1-1-1-1-1---------------|4-4-4-4-4-4-4-4-|4-4-4-4-4-4-4-4-|
  1 e & a 2 e & a 3 e & a 4 e & a  1 & 2 & 3 & 4 &  1 & 2 & 3 & 4 &
      . . . . . .                  . . . . . . . .  . . .



3rd CHORUS (2:31):
  G#m             C#m              F#              D#m
E|--------------------------------|--------------------------------|\\
B|9~------------------------------|--------7~--------------7~------| \\
G|----8~------8~------8~--9~--8~--|----6~------6~--8~--------------|  |x2.
D|--------9~------6~--------------|4~------------------8~------8~--|  |
A|--------------------------------|--------------------------------| /
D|--------------------------------|--------------------------------|/
  1 e & a 2 e & a 3 e & a 4 e & a  1 e & a 2 e & a 3 e & a 4 e & a

(2:42):
Not completed.
  G#m             E                B               F#
E|--------------------------------|--------------------------------|\\
B|--------------------------------|--------------------------------| \\
G|--------------------------------|--------------------------------|  |x4.
D|--------------------------------|--------------------------------|  |
A|--------------------------------|--------------------------------| /
D|--------------------------------|--------------------------------|/
  1 e & a 2 e & a 3 e & a 4 e & a  1 e & a 2 e & a 3 e & a 4 e & a



OUTRO (3:06):
  G#5
E|--------------------------------|--------------------------------|
B|--------------------------------|--------------------------------|
G|--------------------------------|--------------------------------|
D|6~------------------------------|(6)-----------------------------|
A|6~------------------------------|(6)-----------------------------|
D|6~------------------------------|(6)-----------------------------| 
Rest for two more measures.

Acoustic Sounding Guitar:
  G#m             C#m              F#              D#m
E|--------------------------------|--------------------------------|
B|9~------------------------------|--------7~----------------------|
G|----8~------8~------8~--9~--8~--|----6~------6~--9~--9~------6~--|
D|--------9~------6~--------------|4~----------------------9~------|
A|--------------------------------|--------------------------------|
D|--------------------------------|--------------------------------|
  1 e & a 2 e & a 3 e & a 4 e & a  1 e & a 2 e & a 3 e & a 4 e & a
  G#m             C#m              F#              D#m
E|--------------------------------|--------------------------------|
B|--------------------------------|--------7~----------------------|
G|----8~------8~------8~--9~--8~--|----6~------6~--8~--------------|
D|9~------9~------6~--------------|4~------------------8~------8~--|
A|--------------------------------|------------------------9~------|
D|--------------------------------|--------------------------------|
  1 e & a 2 e & a 3 e & a 4 e & a  1 e & a 2 e & a 3 e & a 4 e & a
  G#m             C#m              F#              D#m
E|--------------------------------|--------------------------------||
B|--------------------------------|--------7~----------------------||
G|----8~------8~------8~--9~--8~--|----6~------6~--9~--8~------6~--||
D|6~------9~------6~--------------|4~----------------------9~------||
A|--------------------------------|--------------------------------||
D|--------------------------------|-----------ritard (slow down)...||
  1 e & a 2 e & a 3 e & a 4 e & a  1 e & a 2 e & a 3 e & a 4 e & a

song: angels with dirty faces

Intro (0:00) (Gtr.1, play mostly with the words)  
                                      play 2x|
||------------------------------------------||
||*----------------------------------------*||
||------------------------------------------||
||*----------------------------------------*||
||------------1--------------------0--------||
||-0--5-2-3------5-2-3-2-0--5-2-3-----2-3-2-||

Post-Intro (0:20) (tempo back up to 200) (Gtrs.1+2)
|---------------------------------------------------------------------
|---------------------------------------------------------------------
|-------10101010--------10101010---------12-12-12-12---------9-9-9-9--
|--0--0--x-x-x-x--0--0--x-x-x-x--8-8-8-8-x--x--x--x--7-7-7-7-x-x-x-x--
|--0--0--8-8-8-8--0--0--8-8-8-8--8-8-8-8-10-10-10-10-7-7-7-7-7-7-7-7--
|--0--0-----------0--0-----------8-8-8-8-------------7-7-7-7----------

|-------------------------------------------------------------------|
|-------------------------------------------------------------------|
|-10\-----------1010\-------------------12-12-12-12---------9-9-9-9-|
|--x-\--0-0-0-0--x-x-\--0-0-0-0-8-8-8-8--x--x--x--x-7-7-7-7-x-x-x-x-|
|--8--\-0-0-0-0--8-8--\-0-0-0-0-8-8-8-8-10-10-10-10-7-7-7-7-7-7-7-7-|
|-------0-0-0-0---------0-0-0-0-8-8-8-8-------------7-7-7-7---------|

Pre-verse 1 (0:30) (Gtrs.1+2, still tabbing the third guitar's part here)
           ||        play 6x|
|----------||--------------||-----------------|
|----------||*------------*||-----------------|
|----------||--------------||-----------------|
|--0-0-0-R-||--0-0-0-0--R--||--0-0-5-3-2-2--R-|
|--0-0-0---||*-0-0-0-0----*||--0-0-5-3-2-2----|
|--0-0-0---||--0-0-0-0-----||--0-0-5-3-2-2----|
pm * * *       * * * *         * * * * *

Verse 1 (0:40) (Gtrs. 1+2)
||                             play 4x|
||-----------------------------------||
||----------------------------------*||
||--------------------------5-5-5-5--||
||--0-0-0-0-8-7-7-7-3-3-3-3-5-5-5-5--||
||--0-0-0-0-8-7-7-7-3-3-3-3-3-3-3-3-*||
||--0-0-0-0-8-7-7-7-3-3-3-3----------||

Pre-Chorus (0:50) (Gtrs.1+2)
||                    play 2x|                    play 2x|
||--------------------------|||-------------------------||
||*------------------------*|||*-----------------------*||
||---10--10-10-10-10-10-10--|||--12--12-12-12-12-12-12--|| *(GTR 3. PICKSLIDES
||---10--10-10-10-10-10-10--|||--12--12-12-12-12-12-12--||  INTO CHORUS)
||*--8----8--8--8--8--8--8-*|||*-10--10-10-10-10-10-10-*||
||---8----8--8--8--8--8--8--|||--10--10-10-10-10-10-10--||

Chorus (0:55) (Gtrs.1+2)
||                                                             play 2x|
||-------------------------------------------------------------------||
||*-----------------------------------------------------------------*||
||-------------------------------------------------------------------||
||--0-0-0-0-0-0-0-0-3-3-3-3-3-3-3-3-8-8-8-8-8-8-8-10-10-8-8-7-7-5-5--||
||*-0-0-0-0-0-0-0-0-3-3-3-3-3-3-3-3-8-8-8-8-8-8-8-10-10-8-8-7-7-5-5-*||
||--0-0-0-0-0-0-0-0-3-3-3-3-3-3-3-3-8-8-8-8-8-8-8-10-10-8-8-7-7-5-5--||

Pre-Verse 2 (1:06) (Gtr.1 only)
|----------------------------------------------|
|----------------------------------------------|
|----------------------------------------------|
|--0-~-2-~-3-~-5-~-0-~-2-~-3-~-5-5-5-5-5-5-5-5-|
|--0-~-2-~-3-~-5-~-0-~-2-~-3-~-5-5-5-5-5-5-5-5-|
|--0-~-2-~-3-~-5-~-0-~-2-~-3-~-5-5-5-5-5-5-5-5-|
`
~ Verse 2 (1:16) (Gtrs.1+2)

~ Pre-Chorus (1:26) (Gtrs.1+2)

~ Chorus 2 (1:31) (Gtrs.1+2)

Bridge (1:40) (Gtrs.1+2)
         ||        play 3x|
|--------||---------------||----------------------------------------------------------------------|
|--------||*-------------*||----------------------------------------------------------------------|
|--------||---------------||----------------------------------------------------------------------|
|-0_--R--||--0-0-0-0--R---||--0-0-0-0-0-0-0-0-0-0-0-0-0-0-0-0--0--0--0--0--0--0--0000000000000000-|
|-0_-----||*-0-0-0-0-----*||--0-0-0-0-0-0-0-0-0-0-0-0-0-0-0-0--0--0--0--0--0--0--0000000000000000-|
|-0_-----||--0-0-0-0------||--0-0-0-0-0-0-0-0-0-0-0-0-0-0-0-0--0--0--0--0--0--0--0000000000000000-|
          pm * * * *          * * * * * * * * * * * * * * * *  *  *  *  *  *  *  ****************
                                           ^    ^              ^  ^  ^  ^  ^  ^          ^
                                          1/8 notes            1/4 note triplets      1/16 notes

~ Final Chorus (1:56) (Gtrs.1+2, twice as long)

 Ending (2:16) (Gtrs.1+2)
|---------------------------------------------------|
|---------------------------------------------------|
|-------10101010-------10101010-------10101010------|
|--0--0--x-x-x-x--0--0--x-x-x-x--0--0--x-x-x-x--0---|
|--0--0--8-8-8-8--0--0--8-8-8-8--0--0--8-8-8-8--0---|
|--0--0-----------0--0-----------0--0-----------0---|

song; some say

Tuning: Eb

Intro/Verse (Clean w/ some crazy backwards looping effect)
Listen for the Strumming and Chord Changes, not too difficult...
      
      Bm       D       Em        G
eb|----2-------2--------0--------3----|
Bb|----3-------3--------0--------3----|
Gb|----4-------2--------0--------0----|
Db|----4-------0--------2--------0----|
Ab|----2----------------2--------2----|
Eb|----2----------------0--------3----|

Chorus (Distortion)
Think before you make up your mind...

eb|----------------------------|
Bb|----------------------------|
Gb|---4-------7----------------|
Db|---4---5---7---7---2---5----|
Ab|---2---5---5---7---2---5----|
Eb|-------3-------5---0---3----|

And if I fall...
eb|----------------------------|
Bb|----------------------------|
Gb|---7------------------------|
Db|---7---7---2---5------------|
Ab|---5---7---2---5------------|
Eb|-------5---0---3------------|

Solo
Part One (x2)
eb|----------------------------------------------------------|
Bb|-------10--7h8p7h8-7----5-5-5-5-7-7-7-7-8-8-8-8--7h8p7----|
Gb|---6/7----------------------------------------------------|
Db|----------------------------------------------------------|
Ab|----------------------------------------------------------|
Eb|----------------------------------------------------------|

Part Two (x2)
eb|----------------------------------------------------------------|
Bb|------------7-7-8-7--7h8-7----------------------------7h8-7-----|
Gb|---7-7-9-9------------------9-9-9-9-7-7-7-7-9-9-9-9----------9--|
Db|----------------------------------------------------------------|
Ab|----------------------------------------------------------------|
Eb|----------------------------------------------------------------|

End Solo With...
eb|------------------|
Bb|------------------|
Gb|---7-7-7h8-7~-----|
Db|------------------|
Ab|------------------|
Eb|------------------|

Outro (x2)
Believe me, it's alright...

eb|-------------------|
Bb|-------------------|
Gb|---4-------7-------|
Db|---4---5---7---7---|
Ab|---2---5---5---7---|
Eb|-------3-------5---|

End on 

eb|--------|
Bb|--------|
Gb|--------|
Db|---5~---|
Ab|---5~---|
Eb|---3~---|

song: the bitter end

          F5                  B5/C#
      2 4 4 x x x        10 10 10 x x x

Gtr I (D# G# C# F# A# D#) - 'Rhythm guitar 1'
Gtr II (D# G# C# F# A# D#) - 'Rhythm guitar 2'
Gtr III (D# G# C# F# A# D#) - 'Lead guitar'
Gtr IV (D# G# C# F# A# D#) - 'Octaver for gtr 1'

   Intro
    Fast Rock Q=204
    F#5        E5         D5           C#5        A5     G#5
   4/4
    Gtrs I, II
    W          S S S S q  S S S S q    W          E E Q  E E Q
||-----------|-----------------------|----------|------------------||
||o----------|-----------------------|----------|-----------------o||
||-----------|-9-9-9-9-9--7-7-7-7-7--|-6--------|------------------||
||--4--------|-9-9-9-9-9--7-7-7-7-7--|-6--------|-7-7----6-6-------||
||o-4--------|-7-7-7-7-7--5-5-5-5-5--|-4--------|-7-7----6-6------o||
||--2--------|-----------------------|----------|-5-5----4-4-------||


  Main Riff
   F5N.C.
   Gtr II
   q   H.            W                 W                 W
   |
   /

   Gtr I
   PM|     PM|       PM|   PM--|   PM----|     PM|       PM|   PM--|   PM
   E E E E E E E E   E E E E E E E E   E E E E E E E E   E E E E E E E E
||-----------------|-----------------|-----------------|-----------------|
||-----------------|-----------------|-----------------|-----------------|
||-----------------|-----------------|-----------------|-----------------|
||-----------------|-----------------|-----------------|-----------------|
||-----5s4-----5s4-|-----5-------4---|-----5s4-----5s4-|-----5-------4---|
||-0-2-3s2-0-2-3s2-|-0-2---2-0-2---2-|-0-2-3s2-0-2-3s2-|-0-2---2-0-2---2-|


    Gtrs I, II
    PM|     PM|       PM|   PM--|   PM
    E E E E E E E E   E E E E E E E E  4x
||------------------|------------------||
||o-----------------|-----------------o||
||------------------|------------------||
||------------------|------------------||
||o-----5s4-----5s4-|-----5-------4---o||
||--0-2-3s2-0-2-3s2-|-0-2---2-0-2---2--||


   Pre-Verse
    (G5(F#5)                  (G5(F#5)
    Gtr I
     E  E  E  E  E  E  E  E    E  E  E  E  E  E  E  E
||--------------------------|-------------------------|
||o-------------------------|-------------------------|
||--12-11-11-11-11-11-11-11-|-12-11-11-11-11-11-11-11-|
||---x--x--x--x--x--x--x--x-|--x--x--x--x--x--x--x--x-|
||o-10--9--9--9--9--9--9--9-|-10--9--9--9--9--9--9--9-|
||--------------------------|-------------------------|
|
|   Gtr II
|    W                         W
||--------------------------|-------------------------|
||o-------------------------|-------------------------|
||--------------------------|-------------------------|
||--------------------------|-------------------------|
||o-------------------------|-------------------------|
||--------------------------|-------------------------|


                           1.            2.
  (G5(F#5)                  N.C.
                           2/4
                            PM-------------------|
   E  E  E  E  E  E  E  E   E E E  E     E E  E   E
|-------------------------|-----------||------------||
|-------------------------|----------o||------------||
|-12-11-11-11-11-11-11-11-|-----------||------------||
|--x--x--x--x--x--x--x--x-|-----------||------------||
|-10--9--9--9--9--9--9--9-|----------o||------------||
|-------------------------|-7-8-9-10--||-7-8--9--10-||
|
|  W                        H            Q    Q
|-------------------------|-----------||------------||
|-------------------------|----------o||------------||
|-------------------------|-----------||------------||
|-------------------------|-----------||-----10\----||
|-------------------------|----------o||-----10\----||
|-------------------------|-----------||-----10\----||


   Verse 1 (and 2, 3)
    F#5               A5    C5    B5   F#5       C5B5
   4/4
    Gtrs I, II
    PM|   PM--|   PM    PM|   PM|      PM|   PM|
    E E E E E E E E   E E E E E E Q    E E E E E E E E
||------------------|----------------|-----------------|
||o-----------------|----------------|-----------------|
||------------------|-------5-----4--|-----------5-4-4-|
||------4-------4---|-7-----5-----4--|-----4-----5-4-4-|
||o-----4-------4---|-7-----3-3-3-2--|-----4-----3-2-2-|
||--2-2-2-2-2-2-2-2-|-5-5-5----------|-2-2-2-2-2-------|


 1.                   2.
  F#5       A5        F#5       A5
  PM|   PM|           PM|   PM|
  E E E E E E E E     E E E E E Q.
|------------------||-----------------|
|-----------------o||-----------------|
|------------------||-----------------|
|-----4-----7-7-7--||-----4-----7-----|
|-----4-----7-7-7-o||-----4-----7-----|
|-2-2-2-2-2-5-5-5--||-2-2-2-2-2-5-----|


  $
  $$
  F#5         E5           D5         A5      (C#5)   (F#(F5)
  Gtrs I, II
      PM----|    PM----|      PM----|         PM----|
   Q  S S S S Q  S S S S   Q  S S S S Q  Q    E E E E  E  E Q
|------------------------|------------------|------------------|
|------------------------|------------------|------------------|
|-11----------9----------|-7----------------|---------11-10----|
|-11----------9----------|-7----------7--7--|----------x--x----|
|--9--9-9-9-9-7--7-7-7-7-|-5--5-5-5-5-7--7--|-4-4-4-4--9--8----|
|------------------------|------------5--5--|------------------|


  (G5(F#5)                  (G5(F#5)
  Gtr I
   E  E  E  E  E  E  E  E    E  E  E  E  E  E  E  E
|-------------------------|-------------------------|
|-------------------------|-------------------------|
|-12-11-11-11-11-11-11-11-|-12-11-11-11-11-11-11-11-|
|--x--x--x--x--x--x--x--x-|--x--x--x--x--x--x--x--x-|
|-10--9--9--9--9--9--9--9-|-10--9--9--9--9--9--9--9-|
|-------------------------|-------------------------|


  (G5(F#5)                  N.C.
                           2/4
                            PM----|
   E  E  E  E  E  E  E  E   E E E  E
|-------------------------|----------|
|-------------------------|----------|
|-12-11-11-11-11-11-11-11-|----------|
|--x--x--x--x--x--x--x--x-|----------|
|-10--9--9--9--9--9--9--9-|----------|
|-------------------------|-7-8-9-10-|


  F#5         E             D5          A
 4/4
  Gtr I
   Q  Q        Q  Q          Q  Q       Q  Q
|-------------------------|-------------------|
|-------------------------|-------------------|
|-11----------13----------|-14----------6--6--|
|--x-----------x----------|--x----------x--x--|
|--9----------11----------|-12----------4--4--|
|-------------------------|-------------------|
|
| Gtr II
|     PM----|     PM----|       PM----|
|  Q  S S S S  Q  S S S S    Q  S S S S Q  Q
|-------------------------|-------------------|
|-------------------------|-------------------|
|-11-----------9----------|--7----------------|
|-11-----------9----------|--7----------7--7--|
|--9--9-9-9-9--7--7-7-7-7-|--5--5-5-5-5-7--7--|
|-------------------------|-------------5--5--|


           To Coda
           To Coda
  (C#5)   (F#(F5)    F#5
                                  Gtr III
  PM----|
  E E E E  E  E Q    E E Q  E E E  E
|------------------|------------------||
|------------------|--------------19--||
|---------11-10----|------------------||
|----------x--x----|-4-4----4-4-------||
|-4-4-4-4--9--8----|-4-4----4-4-------||
|------------------|-2-2----2-2-------||
|
| PM----|
| E E E E  E  E Q    E E Q  E E Q
|------------------|------------------||
|------------------|------------------||
|---------11-10----|------------------||
|----------x--x----|-4-4----4-4-------||
|-4-4-4-4--9--8----|-4-4----4-4-------||
|------------------|-2-2----2-2-------||


  Guitar Break
   F#5
   Gtr III
    |--3--|  |---3----|  |--3--|  |---3----|
    E  E  E  S  S  E  E  E  E  E  S  S  E  E
||-19p17p14-19-19p17p14-19p17p14-19-19p17p14-|
||-------------------------------------------|
||-------------------------------------------|
||-------------------------------------------|
||-------------------------------------------|
||-------------------------------------------|
|
|  Gtr II
|   W
||-------------------------------------------|
||-------------------------------------------|
||-------------------------------------------|
||--4----------------------------------------|
||--4----------------------------------------|
||--2----------------------------------------|


  E5
   |--3--|  |---3----|           |---3----|
   E  E  E  S  S  E  E  Q       +E   +E   E
|-19p17p14-19-19p17p14-17b19===(17)r(17)-14-|
|-------------------------------------------|
|-------------------------------------------|
|-------------------------------------------|
|-------------------------------------------|
|-------------------------------------------|
|
|  W
|-------------------------------------------|
|-------------------------------------------|
|-------------------------------------------|
|--2----------------------------------------|
|--2----------------------------------------|
|--0----------------------------------------|


  A5                                    G#5               G5
   |--3--|  |--3--|  |--3--|  |--3--|    |--3--|  |--3--|
   E  E  E  E  E  E  E  E  E  E  E  E    E  E  E  E  E  E  E  E  E  E
|-17p14p12-14p12----17p14p12-14p12----|-------------------------------||
|----------------14----------------14-|-17p14p12-14p12----12-14-12----||
|-------------------------------------|----------------14----------14-||
|-------------------------------------|-------------------------------||
|-------------------------------------|-------------------------------||
|-------------------------------------|-------------------------------||
|
|  W                                     H                 Q     Q
|-------------------------------------|-------------------------------||
|-------------------------------------|-------------------------------||
|-------------------------------------|-------------------------------||
|--7----------------------------------|--6-----------------5-----5----||
|--7----------------------------------|--6-----------------5-----5----||
|--5----------------------------------|--4-----------------3-----3----||


  Verse 2
   F#5                     A5    C5    B5   F#5       C5B5    F#5       A5
  4/4
    ~~~~~~~~~~~~~~~~~~~
    H.            +Q       W                W                 W
||-----------------------|----------------|-----------------|------------------|
||-----------------------|----------------|-----------------|------------------|
||-11------------(11)\---|----------------|-----------------|------------------|
||-----------------------|----------------|-----------------|------------------|
||-----------------------|----------------|-----------------|------------------|
||-----------------------|----------------|-----------------|------------------|
|
|  Gtrs I, II
|   PM-|   PM--|       PM    PM|   PM|      PM|   PM|         PM|   PM|
|   E  E E E E E   E   E   E E E E E E Q    E E E E E E E E   E E E E E E E E
||-----------------------|----------------|-----------------|------------------|
||-----------------------|----------------|-----------------|------------------|
||-----------------------|-------5-----4--|-----------5-4-4-|------------------|
||-------4---------4-----|-7-----5-----4--|-----4-----5-4-4-|-----4-----7-7-7--|
||-------4---------4-----|-7-----3-3-3-2--|-----4-----3-2-2-|-----4-----7-7-7--|
||--2--2-2-2-2-2---2---2-|-5-5-5----------|-2-2-2-2-2-------|-2-2-2-2-2-5-5-5--|


                                                        D.S. al Coda
  F#5               A5    C5    B5   F#5       C5B5    F#5       A5
  Gtrs I, II
  PM|   PM--|   PM    PM|   PM|      PM|   PM|         PM|   PM|
  E E E E E E E E   E E E E E E Q    E E E E E E E E   E E E E E Q.
|-----------------|----------------|-----------------|-----------------|
|-----------------|----------------|-----------------|-----------------|
|-----------------|-------5-----4--|-----------5-4-4-|-----------------|
|-----4-------4---|-7-----5-----4--|-----4-----5-4-4-|-----4-----7-----|
|-----4-------4---|-7-----3-3-3-2--|-----4-----3-2-2-|-----4-----7-----|
|-2-2-2-2-2-2-2-2-|-5-5-5----------|-2-2-2-2-2-------|-2-2-2-2-2-5-----|


                     Interlude
  &
  F#5
  Gtr I               Gtrs I, IV
  E E Q    H          H.       Q     S   S  +E   +Q    E  E  E E
|------------------||-------------|------------------------------|
|------------------||-------------|------------------------------|
|------------------||-------------|------------------------------|
|-4-4--------------||-------------|------------------------------|
|-4-4--------------||-9-------11--|-11h=12-(12)-(12)--11h12p11p9-|
|-2-2----/14\------||-------------|------------------------------|
|
| Gtr II
|                                                            PM|
| E E Q    E  E Q     W             +H.                      E E
|------------------||-------------|------------------------------|
|------------------||-------------|------------------------------|
|------------------||-------------|------------------------------|
|-4-4------4--4----||-4-----------|-(4)--------------------------|
|-4-4------4--4----||-4-----------|-(4)----------------------4-4-|
|-2-2------2--2----||-2-----------|-(2)----------------------2-2-|


  C#5
  H    +E  +E   Q     S   S  +E   +Q    Q   Q
|------------------|---------------------------|
|------------------|---------------------------|
|------------------|---------------------------|
|------------------|---------------------------|
|-7----(7)-(7)S11--|-11s=14-(14)-(14)--12--11--|
|------------------|---------------------------|
|
| W                  +W
|------------------|---------------------------|
|------------------|---------------------------|
|-6----------------|-(6)-----------------------|
|-6----------------|-(6)-----------------------|
|-4----------------|-(4)-----------------------|
|------------------|---------------------------|


  F#5
           |--3---|
  H.       E  +E  E    H        Q.       +E
|-------------------|------------------------|
|-------------------|------------------------|
|-------------------|------------------------|
|-------------------|------------------------|
|-9-------11-(11)p9-|-11b12----11b12r===(11)-|
|-------------------|------------------------|
|
|                                     PM|
| W                   +H.             E   E
|-------------------|------------------------|
|-------------------|------------------------|
|-------------------|------------------------|
|-4-----------------|-(4)--------------------|
|-4-----------------|-(4)-------------4---4--|
|-2-----------------|-(2)-------------2---2--|


  C#5
  H    +E  +E   Q     S   S  +E   +Q    Q.      E
|------------------|-------------------------------||
|------------------|-------------------------------||
|------------------|-------------------------------||
|------------------|-------------------------------||
|-7----(7)-(7)S11--|-11s=14-(14)-(14)--12\---------||
|------------------|-------------------------------||
|
| W                  +H                 E   Q.
|------------------|-------------------------------||
|------------------|-------------------------------||
|-6----------------|-(6)---------------------------||
|-6----------------|-(6)---------------11--11\-----||
|-4----------------|-(4)---------------11--11\-----||
|------------------|--------------------9---9\-----||


  Pre-Solo
   F#5                                 C#5                            E5
   Gtr III
                                                                      |-3--|
    H     Q   Q     Q    Q   Q   Q     Q   Q  E  E  E  E    Q      Q  Q  Q Q
||---------------|-------------------|-------------------|--------------------|
||---------------|-------------------|----------------10-|-10b12--10--9-10-9--|
||-11----13--14--|-11---13--14--11---|-9--13--9-11-13----|--------------------|
||---------------|-------------------|-------------------|--------------------|
||---------------|-------------------|-------------------|--------------------|
||---------------|-------------------|-------------------|--------------------|
|
|  Gtr II
|                                PM|                                  PM---|
|                                                                     |-3--|
|   W              +H.           E E   W                   +H         Q  Q Q
||---------------|-------------------|-------------------|--------------------|
||---------------|-------------------|-------------------|--------------------|
||---------------|-------------------|-6-----------------|-(6)----------------|
||--4------------|-(4)---------------|-6-----------------|-(6)----------------|
||--4------------|-(4)-----------4-4-|-4-----------------|-(4)--------2--2-2--|
||--2------------|-(2)-----------2-2-|-------------------|------------0--0-0--|


   F#5
    ~~
    H     Q   Q     Q    Q   Q   Q
||---------------|-------------------|
||---------------|-------------------|
||-11----13--14--|-11---13--14--11---|
||---------------|-------------------|
||---------------|-------------------|
||---------------|-------------------|
|
|                                PM|
|   W              +H.           E E
||---------------|-------------------|
||---------------|-------------------|
||---------------|-------------------|
||--4------------|-(4)---------------|
||--4------------|-(4)-----------4-4-|
||--2------------|-(2)-----------2-2-|


  C#5
                 ~~~
  Q  +E  +E     +H        E   E  E  E  E  E  E  E
|----------------------|-----------------------12-|
|----------------------|-----------12----12-14----|
|-9--(9)-(9)b11r(9)----|-11--13-14----14----------|
|----------------------|--------------------------|
|----------------------|--------------------------|
|----------------------|--------------------------|
|
| W                      +W
|----------------------|--------------------------|
|----------------------|--------------------------|
|-6--------------------|-(6)----------------------|
|-6--------------------|-(6)----------------------|
|-4--------------------|-(4)----------------------|
|----------------------|--------------------------|


  Main Solo
   F#5
  4/4
    S  S  S  S  S  S E  S  S  S  S  S  S E
||-14-14-14-14-14-14s9s14-14-14-14-14-14s9s|
||-----------------------------------------|
||-----------------------------------------|
||-----------------------------------------|
||-----------------------------------------|
||-----------------------------------------|
|
|   PM---|           PM------|           PM
|   E     E     E    E  E     E     E    E
||-----------------------------------------|
||-----------------------------------------|
||-----------------------------------------|
||--------------4-------------------4------|
||--------------4-------------------4------|
||--2-----2-----2----2--2-----2-----2----2-|


  A5                C5            B5
   S  S  S  S  S  S E  S  S  S  S  S  S  S  S
|-14-14-14-14-14-14s9s14-14-14-14-14-14-14-14-|
|---------------------------------------------|
|---------------------------------------------|
|---------------------------------------------|
|---------------------------------------------|
|---------------------------------------------|
|
|        PM---|        PM---|
|  E     E     E    E  E     E     Q
|---------------------------------------------|
|---------------------------------------------|
|-------------------5--------------4----------|
|--7----------------5--------------4----------|
|--7----------------3--3-----3-----2----------|
|--5-----5-----5------------------------------|


  F#5                           C5    B5
   S  S  S  S  S  S  S  S  S  S  S  S  S  S  S  S
|-19-19-17p14-19-19-17p14-19-19-17p14-19-19-17p14-|
|-------------------------------------------------|
|-------------------------------------------------|
|-------------------------------------------------|
|-------------------------------------------------|
|-------------------------------------------------|
|
|  PM---|            PM---|
|  E     E     E     E     E     E     E     E
|-------------------------------------------------|
|-------------------------------------------------|
|--------------------------------5-----4-----4----|
|--------------4-----------------5-----4-----4----|
|--------------4-----------------3-----2-----2----|
|--2-----2-----2-----2-----2----------------------|


  F#5                           A5
   S  S  S  S  S  S  S  S  Q.        S  S
|-19-19-17p14-19-19-17p14-19b21-----17p14--|
|------------------------------------------|
|------------------------------------------|
|------------------------------------------|
|------------------------------------------|
|------------------------------------------|
|
|  PM---|            PM---|
|  E     E     E     E     E    Q.
|------------------------------------------|
|------------------------------------------|
|------------------------------------------|
|--------------4----------------7----------|
|--------------4----------------7----------|
|--2-----2-----2-----2-----2----5----------|


  F#5
 4/4
   |---3---|  |---3---|  |---3---|  |---3---|
   E  E    E  E  E    E  E  E    E  E  E    E
|-17p14------14-------------------------------|
|---------17----17---14-17p14------14---------|
|-------------------------------16----16---14-|
|---------------------------------------------|
|---------------------------------------------|
|---------------------------------------------|
|
|  PM---|          PM---------|          PM
|  E    E     E    E     E    E     E    E
|---------------------------------------------|
|---------------------------------------------|
|---------------------------------------------|
|-------------4---------------------4---------|
|-------------4---------------------4---------|
|--2----2-----2----2-----2----2-----2----2----|


  A5               C5              B5
   |---3---|  |---3---|  |---3---|  |--3--|
   E  E    E  E  E    E  E  E    E  E  E  E
|--------------------------------------------|
|--------------------------------------------|
|-16p14------14------------------------------|
|---------16----16---14h16-14------14--------|
|-------------------------------16----16-14--|
|--------------------------------------------|
|
|       PM---|           PM---|
|  E    E     E    E     E    E     Q
|--------------------------------------------|
|--------------------------------------------|
|------------------5----------------4--------|
|--7---------------5----------------4--------|
|--7---------------3-----3----3-----2--------|
|--5----5-----5------------------------------|


  F#5                         C5   B5
                         PM--------------------
   |---3---|  |---3---|  |---3---|  |---3---|
   E  E    E  E  E    E  E  E    E  E  E    E
|---------------------------------------------|
|---------------------------------------------|
|---------------------------------------------|
|---------------------------------------------|
|-16p14------14--------------------14------14-|
|---------17----17---16-14-16---17----17------|
|
|  PM---|          PM---|
|  E    E     E    E     E    E     E    E
|---------------------------------------------|
|---------------------------------------------|
|-----------------------------5-----4----4----|
|-------------4---------------5-----4----4----|
|-------------4---------------3-----2----2----|
|--2----2-----2----2-----2--------------------|


  F#5                       A5
 --------------------|   ~~~
   |---3---|  |---3---|
   E  E    E  E  E    E  Q.     E
|---------------------------------|
|---------------------------------|
|---------------------------------|
|------------14------14-16--------|
|-16-14---16----16----------------|
|---------------------------------|
|
|  PM---|          PM---|
|  E    E     E    E     E  Q.
|---------------------------------|
|---------------------------------|
|---------------------------------|
|-------------4-------------7-----|
|-------------4-------------7-----|
|--2----2-----2----2-----2--5-----|


  F#5
 4/4
   |---3---|  |---3---|  |---3---|  |---3---|
   E  E    E  E  E    E  E  E    E  E  E    E
|-21p17---17---------17-21p17--------------17-|
|---------------19--------------19----19------|
|------------18--------------------18---------|
|---------------------------------------------|
|---------------------------------------------|
|---------------------------------------------|
|
|  PM---|          PM---------|          PM
|  E    E     E    E     E    E     E    E
|---------------------------------------------|
|---------------------------------------------|
|---------------------------------------------|
|-------------4---------------------4---------|
|-------------4---------------------4---------|
|--2----2-----2----2-----2----2-----2----2----|


  A5               C5              B5
   |---3---|  |---3---|  |---3---|  |--3--|
   E  E    E  E  E    E  E  E    E  E  E  E
|-21p17--------------17-21p17------------17--|
|---------19----19--------------19----19-----|
|------------18--------------------18--------|
|--------------------------------------------|
|--------------------------------------------|
|--------------------------------------------|
|
|       PM---|           PM---|
|  E    E     E    E     E    E     Q
|--------------------------------------------|
|--------------------------------------------|
|------------------5----------------4--------|
|--7---------------5----------------4--------|
|--7---------------3-----3----3-----2--------|
|--5----5-----5------------------------------|


  F#5                         C5   B5
   |---3---|  |---3---|  |---3---|  |---3---|
   E  E    E  E  E    E  E  E    E  E  E    E
|-21p17--------------17-21p17--------------17-|
|---------19----19--------------19----19------|
|------------18--------------------18---------|
|---------------------------------------------|
|---------------------------------------------|
|---------------------------------------------|
|
|  PM---|          PM---|
|  E    E     E    E     E    E     E    E
|---------------------------------------------|
|---------------------------------------------|
|-----------------------------5-----4----4----|
|-------------4---------------5-----4----4----|
|-------------4---------------3-----2----2----|
|--2----2-----2----2-----2--------------------|


  F#5                      A5
   |---3---|  |---3---|
   E  E    E  E  E    E  E  S   S  S  S  S  S
|-21p17--------------17-21-17--17-17-17-17-17-|
|---------19----19----------------------------|
|------------18-------------------------------|
|---------------------------------------------|
|---------------------------------------------|
|---------------------------------------------|
|
|  PM---|          PM---|
|  E    E     E    E     E  Q.
|---------------------------------------------|
|---------------------------------------------|
|---------------------------------------------|
|-------------4-------------7-----------------|
|-------------4-------------7-----------------|
|--2----2-----2----2-----2--5-----------------|


  F#5
 4/4
   E  S  S  E  S  S  E  S  S  S  S  S  S
|-21-17-17-22-17-17-21-17-19-19-19-19-19-|
|----------------------------------------|
|----------------------------------------|
|----------------------------------------|
|----------------------------------------|
|----------------------------------------|
|
|  PM|         PM------|            PM
|  E  E     E  E     E  E     E     E
|----------------------------------------|
|----------------------------------------|
|----------------------------------------|
|-----------4-----------------4----------|
|-----------4-----------------4----------|
|--2--2-----2--2-----2--2-----2-----2----|


  A5                C5                B5
   S  S  S  S  S  S  S  S  S  S  S  S  E  E
|-17-17-19-19-19-19-19-19-17-17-19-19-16----|
|----------------------------------------19-|
|-------------------------------------------|
|-------------------------------------------|
|-------------------------------------------|
|-------------------------------------------|
|
|        PM---|            PM---|
|  E     E     E     E     E     E     Q
|-------------------------------------------|
|-------------------------------------------|
|--------------------5-----------------4----|
|--7-----------------5-----------------4----|
|--7-----------------3-----3-----3-----2----|
|--5-----5-----5----------------------------|


  F#5                     C5    B5
   E  S  S  S  S  S  S  E  S  S  S  S  S  S
|-17-19-19-19-19-19-19-17-19-19-19-19-19-19-|
|-------------------------------------------|
|-------------------------------------------|
|-------------------------------------------|
|-------------------------------------------|
|-------------------------------------------|
|
|  PM|            PM---|
|  E  E     E     E     E  E     E     E
|-------------------------------------------|
|-------------------------------------------|
|--------------------------5-----4-----4----|
|-----------4--------------5-----4-----4----|
|-----------4--------------3-----2-----2----|
|--2--2-----2-----2-----2-------------------|


  F#5                        A5
   E  S  S  S  S  S  S  S  S  S   S  S  S  S  S
|-21-19-19-19-19-19-19-21-21-19--19-22-22-19-19--||
|------------------------------------------------||
|------------------------------------------------||
|------------------------------------------------||
|------------------------------------------------||
|------------------------------------------------||
|
|  PM|            PM---|
|  E  E     E     E     E     Q.
|------------------------------------------------||
|------------------------------------------------||
|------------------------------------------------||
|-----------4-----------------7------------------||
|-----------4-----------------7------------------||
|--2--2-----2-----2-----2-----5------------------||


  Breakdown
   F#5
  4/4
    Q       +H      +E.  +S
||-24b26===(24)----(24)r(24)-|
||---------------------------|
||---------------------------|
||---------------------------|
||---------------------------|
||---------------------------|
|
|   W
||---------------------------|
||---------------------------|
||---------------------------|
||--4------------------------|
||--4------------------------|
||--2------------------------|


  E5         D5           C#5        A5     G#5
  W                       W          W
|-----------------------|----------|-----------------|
|-----------------------|----------|-----------------|
|-----------------------|----------|-----------------|
|-----------------------|----------|-----------------|
|-----------------------|----------|-----------------|
|-----------------------|----------|-----------------|
|
| S S S S q  S S S S q    W          E E Q  E E Q
|-----------------------|----------|-----------------|
|-----------------------|----------|-----------------|
|-9-9-9-9-9--7-7-7-7-7--|-6--------|-----------------|
|-9-9-9-9-9--7-7-7-7-7--|-6--------|-7-7----6-6------|
|-7-7-7-7-7--5-5-5-5-5--|-4--------|-7-7----6-6------|
|-----------------------|----------|-5-5----4-4------|


  (E5)F#(EG5(EB5(E5)G5(EF#(EG5(EF#5  (E5)F#(EG5(EB5(E5)G5(EF#(EG5
  Gtrs I, II
  PM|   PM  PM  PM    PM  PM  PM     PM|   PM  PM  PM    PM  PM
  E E E E E E E E   E E E E E E Q    E E E E E E E E   E E E E E. S Q
|-----------------|----------------|-----------------|------------------||
|-----------------|----------------|-----------------|------------------||
|-------------4---|----------------|-------------4---|------------------||
|-----4---5---4---|-5---4---5---4--|-----4---5---4---|-5---4---5----5---||
|-----4---5---2---|-5---4---5---4--|-----4---5---2---|-5---4---5----5---||
|-0-0-2-0-3-0---0-|-3-0-2-0-3-0-2--|-0-0-2-0-3-0---0-|-3-0-2-0-3----3---||


   Verse 3
    F#5               A5    C5    B5   F#5       C5B5
    PM|   PM--|   PM    PM|   PM|      PM|   PM|
    E E E E E E E E   E E E E E E Q    E E E E E E E E
||------------------|----------------|-----------------|
||o-----------------|----------------|-----------------|
||------------------|-------5-----4--|-----------5-4-4-|
||------4-------4---|-7-----5-----4--|-----4-----5-4-4-|
||o-----4-------4---|-7-----3-3-3-2--|-----4-----3-2-2-|
||--2-2-2-2-2-2-2-2-|-5-5-5----------|-2-2-2-2-2-------|


 1.                   2.
                D.S.S. al Dbl. Coda
  F#5       A5        F#5       A5
  PM|   PM|           PM|   PM|
  E E E E E E E E     E E E E E Q.
|------------------||-----------------|
|-----------------o||-----------------|
|------------------||-----------------|
|-----4-----7-7-7--||-----4-----7-----|
|-----4-----7-7-7-o||-----4-----7-----|
|-2-2-2-2-2-5-5-5--||-2-2-2-2-2-5-----|


   Main Riff
    &&
    N.C.
    PM|     PM|       PM|   PM--|   PM----|     PM|
    E E E E E E E E   E E E E E E E E   E E E E E E E E
||------------------|-----------------|-----------------|
||o-----------------|-----------------|-----------------|
||------------------|-----------------|-----------------|
||------------------|-----------------|-----------------|
||o-----5s4-----5s4-|-----5-------4---|-----5s4-----5s4-|
||--0-2-3s2-0-2-3s2-|-0-2---2-0-2---2-|-0-2-3s2-0-2-3s2-|


                      F#5
  PM|   PM--|   PM
  E E E E E E E E     E. S Q  E. S Q
|------------------||------------------||
|-----------------o||------------------||
|------------------||------------------||
|------------------||-4-------4--------||
|-----5-------4---o||-4-------4--------||
|-0-2---2-0-2---2--||-2-------2--------||


   Outro
                                                        1.
    (E5)F#(EG5(EB5(E5)G5(EF#(EG5(EF#5  (E5)F#(EG5(EB5(E5)G5(EF#(EG5
    Gtrs I, II
    PM|   PM  PM  PM    PM  PM  PM     PM|   PM  PM  PM    PM  PM
    E E E E E E E E   E E E E E E Q    E E E E E E E E   E E E E E. S Q
||------------------|----------------|-----------------|------------------||
||o-----------------|----------------|-----------------|-----------------o||
||--------------4---|----------------|-------------4---|------------------||
||------4---5---4---|-5---4---5---4--|-----4---5---4---|-5---4---5----5---||
||o-----4---5---2---|-5---4---5---4--|-----4---5---2---|-5---4---5----5--o||
||--0-0-2-0-3-0---0-|-3-0-2-0-3-0-2--|-0-0-2-0-3-0---0-|-3-0-2-0-3----3---||


  2.
  G5(EF#(EG5   G5F#5         A5        G#5     G5
    PM  PM
  E E E E E. S E E   E. S Q  E. S Q    E. S Q  E. S Q
|------------------|-----------------|-----------------*|
|------------------|-----------------|-----------------*|
|------------------|-----------------|-----------------*|
|-5---4---5----5s4-|-4-------7-------|-6-------5-------*|
|-5---4---5----5s4-|-4-------7-------|-6-------5-------*|
|-3-0-2-0-3----3s2-|-2-------5-------|-4-------3-------*|


Duration Legend
---------------
W - whole; H - half; Q - quarter; E - 8th; S - 16th; T - 32nd; X - 64th; a - acciaccatura
+ - note tied to previous; . - note dotted; .. - note double dotted
Uncapitalized letters represent notes that are staccato (1/2 duration)
Irregular groupings are notated above the duration line
Duration letters will always appear directly above the note/fret number it represents the
duration for.  Duration letters with no fret number below them represent rests.  Multi-
bar rests are notated in the form Wxn, where n is the number of bars to rest for.  Low
melody durations appear below the staff

Tablature Legend
----------------
 h   - hammer-on
 p   - pull-off
 b   - bend
 pb  - pre-bend
 r   - bend release (if no number after the r, then release immediately)
 /\  - slide into or out of (from/to "nowhere")
 s   - legato slide
 S   - shift slide
  - natural harmonic
[n]  - artificial harmonic
n(n) - tapped harmonic
 ~   - vibrato
 tr  - trill
 T   - tap
 TP  - trem. picking
 PM  - palm muting
\n/  - tremolo bar dip; n = amount to dip
 \n  - tremolo bar down
 n/  - tremolo bar up
/n\  - tremolo bar inverted dip
 =   - hold bend; also acts as connecting device for hammers/pulls
 <>  - volume swell (louder/softer)
 x   - on rhythm slash represents muted slash
 o   - on rhythm slash represents single note slash

Misc Legend
-----------
 |  - bar
||  - double bar
||o - repeat start
o|| - repeat end
*|  - double bar (ending)
 :  - bar (freetime)
 $  - Segno
 &  - Coda
Tempo markers -  = BPM(8/16=s8/s16), where s8 = swing 8ths, s16 = swing 16ths

song: open your eyes
Intro

e:-----------------|
B:-----------------|
G:-----6-6-----3-3-|
D:-3-3-4-4-6-6-3-3-| X2
A:-3-3-4-4-4-4-1-1-|
E:-1-1-----4-4-----|
  (Lately....delusion)
  (Don't u...apart)

Verse

e:---------|
B:---------|
G:---6---3-|
D:-3-6-6-3-|
A:-3-4-6-1-|
E:-1---4---|
  p.m............. listen for strumming
  (If...see)
  (As...reality)

Chorus

e:-----------------|
B:-----------------|
G:-----6-----------|
D:-3---6---6---8---|
A:-3---4---6---8---|
E:-1-------4---6---|
  listen for strumming again
  (This...real)
  (This...through)

Repeat Verse
Repeat Chorus

Riff/Pre-Solo            Solo

e:---------------------------------------------------------------|
B:---------------------------------------------------------------|
G:-----6-6---------------11/1-9b-11b-10b-11b-14b-12b-14b-12b-16b-|X2
D:-3-3-6-6-X4----------------------------------------------------|
A:-3-3-4-4-------------------------------------------------------|
E:-1-1-----------------------------------------------------------|
  (Its...up)

Repeat Chorus

song: slipping away


tune down half a step...

lets call this chord C minor    e-x
                                b-x
                                g-2
                                d-2
                                a-4
                                E-x

intro:

D major,E minor,G major,E minor,G major.  x2

verse:

D major,C# minor,G major,E minor,G major.  x4

you also play this during the verse a few times

e---------------------------------------|
b----------------*12--------------------|  * harmonics
g--7-7-7-7-----------*12----------------|
d--5-5-5-5------------------------------|
a---------------------------------------|
E---------------------------------------|

and on the 3rd time round on the verse a second guitar plays a lead

e------0-------0-------2-------2-------5-----5---------3-------2---|
b----3---3---3---3---3---3---3---3---3---3-----3-----3---3---3---3-|
g--0-------0-------0-------0-------0-------0-----0-4-------3-------|  x2
d------------------------------------------------------------------|
a------------------------------------------------------------------|
E------------------------------------------------------------------|

chorus:

E minor,G major,D major,C# minor x2

E minor,G major

then you palm mute thes notes

e-------------------------------------|
b-------------------------------------|
g-------------------------------------|
d--7-7-7-7-7-7-7-7-6-6-6-6-6-6-6-66---|
a--5-5-5-5-5-5-5-5-4-4-4-4-4-4-4-44-5-|
E-----------------------------------3-|  play these last notes open

now a celo just plays the chorus again...a beautiful song by sum 41...

song: i'm not the one

Guitar two (play 2 times then while guitar one plays)   (just strum this part)
e|---------------------------------------------|-----------------------------|
B|---------------------------------------------|-----------------------------|
G|-6~-6~-xx----------8~-8~-xx------------------|-6---------8-----------------|
D|-6~-6~-xx-7~-7~-xx-8~-8~-xx-9~-9~-xx---------|-6----7----8----9------------|
A|-4~-4~-xx-7~-7~-xx-6~-6~-xx-9~-9~-xx---------|-4----7----6----9------------|
E|----------5~-5~-xx----------7~-7~-xx---------|------5---------7------------|
                                               |                             |
Guitar one                                     | repeat 4 times              |
e|---4---------4---------4---4---------4-------|-4---4---------4---4-9-------|
B|-----5---5-----5---5-----5---5-----5---5---5-|---5---5---5-----5-----5-----|
G|-6-----6---6-----6---6---------6-6-------6---|---------6---6---------------|
D|---------------------------------------------|-----------------------------|
A|---------------------------------------------|-----------------------------|

heres the solo

Solo .=palm mute
e|---------------------------------------------------------------------------|
B|---------------------------------------------------------------------------|
G|---------------------------------------------------------------------------|
D|-----6-----6-4-3-4-----6-----7-6-5-6---(X2)--------------------------------|
A|-4-4---4-4---------4-4---4-4-----------------------------------------------|
E|---------------------------------------------------------------------------|
   . .   . .         . .   . .

heres the bass

Solo .=palm mute
e|---------------------------------------------------------------------------|
B|---------------------------------------------------------------------------|
G|---------------------------------------------------------------------------|
D|-----6-----6-4-3-4-----6-----7-6-5-6---(X2)--------------------------------|
A|-4-4---4-4---------4-4---4-4-----------------------------------------------|
E|---------------------------------------------------------------------------|
   . .   . .         . .   . .

song: welcome to hell

Tuning: Down 1/2 step 

Guitars must be tuned down a half-step, alternate tuning is necessary 
in order to play the forth measure in each verse correctly. Example:
eb|----------------|
Bb|----------------|
Gb|----------------|
Db|--------9-9-9-9-|
Ab|--------7-7-7-7-|
Eb|--------0-0-0-0-|
         Eb^ ^ ^ ^

In this tab, chord names are written out
according to sound, not fret position.

Intro
   Eb5              F#5     C#5      Eb5              F#5     C#5
eb|----------------|----------------|----------------|----------------|
Bb|----------------|----------------|----------------|----------------|
Gb|----------------|----------------|----------------|----------------|
Db|9-9-977-9-9-777-|--------7-7-7777|9-9-977-9-9-777-|--------7-7-----|
Ab|7-7-755-7-7-555-|5-5-55555-5-5555|7-7-755-7-7-555-|5-5-55555-5-----|
Eb|----------------|3-3-3333--------|----------------|3-3-3333--------|
   1 + 2e+ 3 + 4e+ 

Verse
   Eb5                               F#5     C#5      F#5     Eb5
eb|----------------|----------------|----------------|----------------|
Bb|----------------|----------------|----------------|----------------|
Gb|----------------|----------------|----------------|----------------| x2
Db|9-9-9-7-9-9-9-7-|9-9-9-7-9-9-9-7-|--------7-7-7-7-|--------9-9-9-9-|
Ab|7-7-7-5-7-7-7-5-|7-7-7-5-7-7-7-5-|5-5-5-5-5-5-5-5-|5-5-5-5-7-7-7-7-|
Eb|----------------|----------------|3-3-3-3---------|3-3-3-3-0-0-0-0-|

Similar to intro      
   Eb5              F#5     C#5      Eb5              F#5     C#5
eb|----------------|----------------|----------------|----------------|
Bb|----------------|----------------|----------------|----------------|
Gb|----------------|----------------|----------------|----------------|
Db|9-9-977-9-9-777-|--------7-7-7777|9-9-977-9-9-977-|--------7-7-7---|
Ab|7-7-755-7-7-555-|5-5-55555-5-5555|7-7-755-7-7-755-|5-5-55555-5-5---|
Eb|----------------|3-3-3333--------|----------------|3-3-3333--------|

Verse 2
   Eb5                               F#5     C#5      F#5     Eb5
eb|----------------|----------------|----------------|----------------|
Bb|----------------|----------------|----------------|----------------|
Gb|----------------|----------------|----------------|----------------| 
Db|9-9-9-7-9-9-9-7-|9-9-9-7-9-9-9-7-|--------7-7-7-7-|--------9-9-9-9-|
Ab|7-7-7-5-7-7-7-5-|7-7-7-5-7-7-7-5-|5-5-5-5-5-5-5-5-|5-5-5-5-7-7-7-7-|
Eb|----------------|----------------|3-3-3-3---------|3-3-3-3-0-0-0-0-|

   Eb5                               F#5     C#5      F#5     Eb5
eb|----------------|----------------|----------------|----------------|
Bb|----------------|----------------|----------------|----------------|
Gb|----------------|----------------|----------------|----------------| 
Db|9-9-9-7-9-9-9-7-|9-9-9-7-9-9-9-7-|--------7-7-7-7-|----------------|
Ab|7-7-7-5-7-7-7-5-|7-7-7-5-7-7-7-5-|5-5-5-5-5-5-5-5-|5-5-5-5-2-2-2-2-|
Eb|----------------|----------------|3-3-3-3---------|3-3-3-3-0-0-0-0-|

Bridge
   B5      F#5      C#      Ebm      B5      F#5      C#5     Ebm
eb|----------------|----------------|----------------|----------------|
Bb|----------------|7-7-7-7-8-8-8-8-|----------------|7-7-7-7-8-8-8-8-|
Gb|5-5-5-5---------|7-7-7-7-9-9-9-9-|5-5-5-5---------|7-7-7-7-9-9-9-9-|  
Db|5-5-5-5-5-5-5-5-|7-7-7-7-9-9-9-9-|5-5-5-5-5-5-5-5-|7-7-7-7-9-9-9-9-|
Ab|3-3-3-3-5-5-5-5-|5-5-5-5-7-7-7-7-|3-3-3-3-5-5-5-5-|5-5-5-5-7-7-7-7-|
Eb|--------3-3-3-3-|----------------|--------3-3-3-3-|----------------|

   B5      F#5      C#      Ebm      Eb5     Bb5      F#5     C#5
eb|----------------|----------------|----------------|----------------|
Bb|----------------|----------------|----------------|----------------|
Gb|5-5-5-5---------|7-7-7-7-9-9-9-9-|--------4-4-4-4-|--------7-7-7-7-|  
Db|5-5-5-5-5-5-5-5-|7-7-7-7-9-9-9-9-|2-2-2-2-4-4-4-4-|5-5-5-5-7-7-7-7-|
Ab|3-3-3-3-5-5-5-5-|5-5-5-5-7-7-7-7-|2-2-2-2-2-2-2-2-|5-5-5-5-5-5-5-5-|
Eb|--------3-3-3-3-|----------------|0-0-0-0---------|3-3-3-3---------|

   Eb5 {Bass solo.....................................................}
eb|----------------|----------------|----------------|----------------|
Bb|----------------|----------------|----------------|----------------|
Gb|9\--------------|----------------|----------------|----------------|  
Db|9\--------------|----------------|----------------|------------X---|
Ab|7\--------------|----------------|----------------|------------X---|
Eb|----------------|----------------|----------------|------------X---|
                                                      pick scrape ^
Verse 3
   Eb5                               F#5     C#5      F#5     Eb5
eb|----------------|----------------|----------------|----------------|
Bb|----------------|----------------|----------------|----------------|
Gb|----------------|----------------|----------------|----------------| x2
Db|9-9-9-7-9-9-9-7-|9-9-9-7-9-9-9-7-|--------7-7-7-7-|--------9-9-9-9-|
Ab|7-7-7-5-7-7-7-5-|7-7-7-5-7-7-7-5-|5-5-5-5-5-5-5-5-|5-5-5-5-7-7-7-7-|
Eb|----------------|----------------|3-3-3-3---------|3-3-3-3-0-0-0-0-|


Repeat Bridge


After repeating the bridge, hold this Eb5 for a long time. There are
16 measures of bass, drums, weird sound effects, and feedback here.
   Eb5             {      x15       }    
eb|----------------|----------------|
Bb|----------------|----------------|
Gb|9~~~~~~---------|----------------| 
Db|9~~~~~~---------|----------------|
Ab|7~~~~~~---------|----------------|
Eb|----------------|----------------|


Repeat Bridge
 

   Eb5    B5 C#5 B5 Eb5    B5 C#5 B5 Eb5    B5 C#5 B5 Eb5
eb|----------------|----------------|----------------|----------------|
Bb|----------------|----------------|----------------|----------------|
Gb|----------------|----------------|----------------|9---------------|  
Db|9999--995--7--5-|9999--995--7--5-|9999--995--7--9-|9---------------|
Ab|7777--773--5--3-|7777--773--5--3-|7777--773--5--9-|7---------------|
Eb|----------------|----------------|--------------7-|----------------|
   1e+a  +a3  a  +                  palm mute this ^ 
                                             
song: pieces


Standard tuning

Intro/verse (try figure out e strum pattern urself)
e|----------------------------------------------|
B|----------------------------------------------|
G|-7-7-7777----------------------5-5-5555-------|
D|-7-7-7777--8-8-8888--3-3-3333--5-5-5555-------|
A|-5-5-5555--8-8-8888--3-3-3333--3-3-3333-------|
E|-----------6-6-6666--1-1-1111-----------------|

Chorus (0:31 & 1:24)(downstroke)
e|--------------------------------------------------------------|
B|--------------------------------------------------------------|
G|-7777-7777-7777-7777—-10101010-10101010-----------------------|
D|-7777-7777-7777-7777--10101010-10101010---10101010-10101010---|
A|-5555-5555-5555-5555--8-8-8-8—-8—8—8-8----10101010-10101010---|
E|------------------------------------------8-8-8-8—-8-8-8-8----|
   If you believe... ...soul, I'd say... ...all the words...
e|--------------------------------------------------------------|
B|--------------------------------------------------------------|
G|-7777-7777-7777-7777—-10101010-10101010-----------------------|
D|-7777-7777-7777-7777--10101010-10101010---10101010-10101010---|
A|-5555-5555-5555-5555--8-8-8-8—-8—8—8-8----10101010-10101010---|
E|------------------------------------------8-8-8-8—-8-8-8-8----|

e|----------------------------------------|
B|----------------------------------------|
G|----------------------------------------|
D|-8~-------------------------------------|
A|-8~-------------------------------------|
E|-6~-that I'm better off on my own-------|

repeat intro/verse
repeat chorus

bridge (1:48)
e|------------------------------------------------------|
B|------------------------------------------------------|
G|-10-10-10-12--10-10-10-12--10-10-10-12--14-14-14-14---|
D|-10-10-10-10--10-10-10-10--10-10-10-10--10-10-10-10---|
A|------------------------------------------------------|
E|------------------------------------------------------|x2

e|-----------------------------------------------------|
B|-------10-----------10-------------------------------|
G|-10-----------10----------------10---------10--------|
D|----10----10-----10----10---8----------8-------------|
A|------------------------------8-----8-----8----8-----|
E|-----------------------------------------------------|

e|-----------------------------------------------------|
B|-----------------------------------------------------|
G|-------10---------10---------10--------10------------|
D|-10----------10----------8---------8-----------------|
A|-----8----8-----8----8-----8----8----8----8----------|
E|-----------------------------------------------------|

e|--------------------------------|
B|--------------------------------|
G|-99999999-1414141414141414------|
D|-xxxxxxxx-xxxxxxxxxxxxxxxx------|
A|-77777777-1212121212121212------|
E|--------------------------------|

then repeat verse
& chorus

End on: e|--------|
        B|--------|
        G|--------|
        D|-3~-----|
        A|-3~-----|
        E|-1~-----|

songe: there's no solution

Drop D

Guitar One
Intro 8x
E|-6---6---6----6-6--7--------------------------------------------------|
B|---4---4---4----------------------------------------------------------|
G|----------------------------------------------------------------------|
D|----------------------------------------------------------------------|
A|----------------------------------------------------------------------|
D|----------------------------------------------------------------------|

Verse
Play intro 8x

Prechorus 1x
E|---------------------------------6-6-6-6-6-6-6-6-6-6-6-6-6-6-6-6------|
B|-7-7-7-7-7-7-7-9-6-6-6-6-6-6-6-6--------------------------------------|
G|----------------------------------------------------------------------|
D|----------------------------------------------------------------------|
A|----------------------------------------------------------------------|
D|----------------------------------------------------------------------|

E|----------------------------------------------------------------------|
B|--7-7-7-7-7-7-7-9-6-6-6-6-6-6-6-6-------------------------------------|
G|----------------------------------8-8-8-8-8-8-8-8-8-8-8-8-8-----------|
D|----------------------------------------------------------------------|
A|----------------------------------------------------------------------|
D|----------------------------------------------------------------------|

Chorus 1x
E|----------------------------------------------------------------------|
B|----------------------------------------------------------------------|
G|--8-8-8-8-8-8-8-8-----------------6-6-6-6-6-6-6-6-4-4-4-4-4-4-4-4-----|
D|--8-8-8-8-8-8-8-8-4-4-4-4-4-4-4-4-6-6-6-6-6-6-6-6-4-4-4-4-4-4-4-4-----|
A|--6-6-6-6-6-6-6-6-4-4-4-4-4-4-4-4-4-4-4-4-4-4-4-4-2-2-2-2-2-2-2-2-----|
D|------------------4-4-4-4-4-4-4-4-------------------------------------|

E|---------------------------------------------------------------------------|
B|---------------------------------------------------------------------------|
G|--8-8-8-8-8-8-8-8-----------------6-6-6-6-6-6-6-6-10-10-10-10-10-10-10-10--|
D|--8-8-8-8-8-8-8-8-4-4-4-4-4-4-4-4-6-6-6-6-6-6-6-6-10-10-10-10-10-10-10-10--|
A|--6-6-6-6-6-6-6-6-4-4-4-4-4-4-4-4-4-4-4-4-4-4-4-4-8--8--8--8--8--8--8--8---|
D|------------------4-4-4-4-4-4-4-4------------------------------------------|

Intro

Verse

Prechorus

Chorus

Bridge 1x (listen for timing)
E|--------------------------------------------------------------------------|
B|--------------------------------------------------------------------------|
G|-11-11-11-11-11-11-11-11-10-10-10-10-10-10-10-10-10-----------------------|
D|-x--x--x--x--x--x--x--x--x--x--x--x--x--x--x--x--x------------------------|
A|-9--9--9--9--9--9--9--9--8--8--8--8--8--8--8--8--8------------------------|
D|--------------------------------------------------------------------------|

E|--------------------------------------------------------------------------|
B|--------------------------------------------------------------------------|
G|-11-11-11-11-10-10-10-10-11-11-11-11--13--11--10--------------------------|
D|-x--x--x--x--x--x--x--x--x--x--x--x---x---x---x---------------------------|
A|-9--9--9--9--8--8--8--8--9--9--9--9---11--9---8---------------------------|
D|--------------------------------------------------------------------------|

E|--------------------------------------------------------------------------|
B|--------------------------------------------------------------------------|
G|-11-11-11-11-11-11-11-11-13-13-13-13-13-13-13-13-13-----------------------|
D|-x--x--x--x--x--x--x--x--x--x--x--x--x--x--x--x--x------------------------|
A|-9--9--9--9--9--9--9--9--11-11-11-11-11-11-11-11-11-----------------------|
D|--------------------------------------------------------------------------|

E|--------------------------------------------------------------------------|
B|--------------------------------------------------------------------------|
G|-10-10-10-10-10-10-10-10-11-10-10-10-10-10-10-10-10-----------------------|
D|-x--x--x--x--x--x--x--x--x--x--x--x--x--x--x--x--x------------------------|
A|-8--8--8--8--8--8--8--8--9--8--8--8--8--8--8--8--8------------------------|
D|--------------------------------------------------------------------------|

Chorus 1x

Outro (keep playing this till the end)
E|-6---6---6----6-6--7--------------------------------------------------|
B|---4---4---4----------------------------------------------------------|
G|----------------------------------------------------------------------|
D|----------------------------------------------------------------------|
A|----------------------------------------------------------------------|
D|----------------------------------------------------------------------|

Guitar Two
First 2 intros dont play then:
E|-------------------------------------------------------------------------|
B|-------------------------------------------------------------------------|
G|-4-------------------------6---------------------------------------------|
D|-4-------------------------6---------------------------------------------|
A|-2-------------------------4---------------------------------------------|
D|-------------------------------------------------------------------------|
then

Intro 4x
E|-------------------------------------------------------------------------|
B|-------------------------------------------------------------------------|
G|-8---------4----------------6--------------------------------------------|
D|-6---------4-------4--------6--------------------------------------------|
A|-6---------2-------4--------4--------------------------------------------|
D|-------------------4-----------------------------------------------------|

Verse
same as intro

Prechorus
No guitar two

Chorus
E|----------------------------------------------------------------------|
B|----------------------------------------------------------------------|
G|--8-8-8-8-8-8-8-8-----------------6-6-6-6-6-6-6-6-4-4-4-4-4-4-4-4-----|
D|--8-8-8-8-8-8-8-8-4-4-4-4-4-4-4-4-6-6-6-6-6-6-6-6-4-4-4-4-4-4-4-4-----|
A|--6-6-6-6-6-6-6-6-4-4-4-4-4-4-4-4-4-4-4-4-4-4-4-4-2-2-2-2-2-2-2-2-----|
D|------------------4-4-4-4-4-4-4-4-------------------------------------|

Intro

Verse

Prechorus

Chorus

Bridge
No guitar 2

Chorus 1x
E|--------------------------------------------------------------------------|
B|--------------------------------------------------------------------------|
G|--8-8-8-8-8-8-8-8-----------------6-6-6-6-6-6-6-6-4-4-4-4-4-4-4-4---------|
D|--8-8-8-8-8-8-8-8-4-4-4-4-4-4-4-4-6-6-6-6-6-6-6-6-4-4-4-4-4-4-4-4---------|
A|--6-6-6-6-6-6-6-6-4-4-4-4-4-4-4-4-4-4-4-4-4-4-4-4-2-2-2-2-2-2-2-2---------|
D|------------------4-4-4-4-4-4-4-4-----------------------------------------|

E|--------------------------------------------------------------------------|
B|--------------------------------------------------------------------------|
G|--8-8-8-8-8-8-8-8-----------------6-6-6-6-6-6-6-6-10-10-10-10-10-10-10-10-|
D|--8-8-8-8-8-8-8-8-4-4-4-4-4-4-4-4-6-6-6-6-6-6-6-6-10-10-10-10-10-10-10-10-|
A|--6-6-6-6-6-6-6-6-4-4-4-4-4-4-4-4-4-4-4-4-4-4-4-4-8--8--8--8--8--8--8--8--|
D|------------------4-4-4-4-4-4-4-4-----------------------------------------|

Outro (keep playing till end)
E|-------------------------------------------------------------------------|
B|-------------------------------------------------------------------------|
G|-8---------4----------------6--------------------------------------------|
D|-6---------4-------4--------6--------------------------------------------|
A|-6---------2-------4--------4--------------------------------------------|
D|-------------------4-----------------------------------------------------|

song: 88

Tunning: C# 

Guitar 1 (intro) *distortion* 
e------------------------------------------------------------------|
G------------------------------------------------------------------|
B--------------------------------------------22--------------------| Play
D----5-4-22------5-4-22------4-5-44------4-5-----------------------|  4x
A-------------3-3-3-3-----0-0-0-0-----2-2-2-2----------------------|
E-0-0-0-0----------------------------------------------------------|

Guitar 2 (intro) *semi clean* - come in with bass and drums
e--7~--------------------------------------|      e----------------------|
G--8~-----10---10--12-12-12-12-12-12-12-12-|      G-12-8x-13-8x-10-8x-12-|
B--9~--------9------9--9--9--9--9--9--9--9-| then B--9-----9-----9-----9-|
D--9~--------------------------------------| play D----------------------|
A--7~--------------------------------------| this A----------------------|
E------------------------------------------|  2x  E----------------------|

Guitar 1 *clean* "Wait......"
e-----0-----0-----0-----|                           e---0---|
G-----0-----1-----1-----|   Find Strumming Pattern  G---0---|
B-----0-----0-----2-----|                           B---0---|
D-----2-----2-----2-----|                   End On  D---2---|
A-----2-----3-----0-----|                           A---2---|
E-----0-----x-----x-----|                           E---0---|

Guitar 1 *distortion* "Cuz I feel like..."
e---------------------------------------------|     
G---------------------------------------------|     
B---------------7-7-7-7-7-5-5-5-5-5-----------|Play 
D---2-2-2-2-2-2-7-7-7-7-7-5-5-5-5-5-5-5-5-5-5-| 2x  
A---2-2-2-2-2-2-5-5-5-5-5-3-3-3-3-3-5-5-5-5-5-|     
E---0-0-0-0-0-0---------------------3-3-3-3-3-|     

..continued
e-----------------------------------------------------------------------|
G-----------------------------------------------------------------------|
B---5-5-5-5-5-----------7-7-7-7-7-9-9-9-9-9--5----7---------------------|
D---5-5-5-5-5-5-5-5-5-5-7-7-7-7-7-9-9-9-9-9--5-8x-7-8x-5555-5555-5555-5-|
A---3-3-3-3-3-5-5-5-5-5-5-5-5-5-5-7-7-7-7-7--3----5----5555-5555-5555-5-|
E-------------3-3-3-3-3--------------------------------3330-3330-3330-3-|

Guitar 1 *palm muted*
e------------------------------------------------------------------|
G--------------------------play-twice------------------------------|
B------------------------------------------------------------------|
D--2-2-2-2-4-4-4-4-2-2-2-2-4-4-4-4-5-5-5-5-2-2-2-2-2-2-2-2-4-4-4-4-|
A--2-2-2-2-2-2-2-2-2-2-2-2-2-2-2-2-3-3-3-3-0-0-0-0-0-0-0-0-2-2-2-2-|
E--0-0-0-0---------0-0-0-0-----------------------------------------|

Guitar 1 *distortion*
e--------------------------------------------------------------------------|
G--------------------------------------------------------------------------|
B------------------5-5-5-5-5----------------------------5-5-5-5-5-7-7-7-7-7|
D-2.2.2.2.2.2.2.2.-5-5-5-5-5-5-5-5-5-5-2.2.2.2.2.2.2.2.-5-5-5-5-5-7-7-7-7-7|
A-2.2.2.2.2.2.2.2.-3-3-3-3-3-5-5-5-5-5-2.2.2.2.2.2.2.2.-3-3-3-3-3-5-5-5-5-5|
E-0.0.0.0.0.0.0.0.-----------3-3-3-3-3-0.0.0.0.0.0.0.0.--------------------|

song: noots ( bonus u.k. track)

tune up half step
Intro 00:00
Guitar1
----9—-9--9--9-9---10-10-10-1010-| x2
---10-10-10-1010---10-10-10-1111-|
---11-11-11-1010---11-11-11-1111-|
---------------------------------|
---------------------------------|
---------------------------------|
pm

Riff1 00:05
Guitar1
----9—-9--9--9-9---10-10-10-1010---7-7-7-77--7-7-77-| x2
---10-10-10-1010---10-10-10-1111---9-9-9-99--9-9-99-|
---11-11-11-1010---11-11-11-1111---9-9-9-99--9-9-99-|
----------------------------------------------------|
----------------------------------------------------|
----------------------------------------------------|
pm
Guitar2
----------------------------------------| x2
----------------------------------------|
----------------------------------------|
---4-(x8)-7-(x8)--2-(x8)-7-(x4)-6-(x4)--|
---4------7-------2------7------6-------|
---2------5-------0------5------4-------|
pm
Guitar3
----------------------------------------| x2
----------------------------------------|
------------------------1-2-4-2-1-------|
---4-6-7-6--4-6-7-6--2—4---------2------|
----------------------------------------|
----------------------------------------|
pm

Verse 00:16
Guitar1
--------------------------------------------------------------------|
--------------------------------------------------------------------|
------------------9------------------------------------------7------|
---4-(x8)-7-(x8)--9-(x16)-4-(x8)-7-(x8)-9-(x4)-7-(x4)-9-(x4)-7-(x4)-|
---4------7-------7-------4------7------9------7------9------5------|
---2------5---------------2------5------7------5------7-------------|
pm ,,,,,,,,,,,,,,,,,,,,,,,,,,,,,,,,,,,,,,,,,,,,,,,,,,,,,,,,,,,,,,,,,

--------------------------------------------------------------------|
--------------------------------------------------------------------|
-----------------9--------------------------------------------------|
---4-(x8)-7-(x8)-9-(x16)-4-(x8)-7-(x8)-9-(x4)-7-(x4)-9-(x4)-11-(x4)-|
---4------7------7-------4------7------9------7------9------11------|
---2------5--------------2------5------7------5------7------9-------|
pm ,,,,,,,,,,,,,,,,,,,,,,,,,,,,,,

Guitar2 between 00:27 and 00:29
---10------10------12-------|
---11-(x2)-11-(x2)-12-(x8)--|
---12------12------12-------|
----------------------------|
----------------------------|
----------------------------|
pm

Riff2 00:37
Guitar1
---------------------------------|
---------------------------------|
---------------------------------|
-------------------------------6-|
---7-7-5/7-7-5/7/9-7/5--7-7-5/7--|
---------------------------------|
pm

Chorus 00:42
Guitar1
----------------------------------------| x2
----------------------------------------|
----------7-----------------------------|
---4-(x8)-7-(x8)--7-(x8)-2-(x8)---------|
---4------5-------7------2--------------|
---2--------------5------0--------------|

----------------------------------------| x2
----------------------------------------|
---7------------------------------------|
---7-(x8)-4-(x8)--7-(x8)-2-(x8)---------|
---5------4-------7------2--------------|
----------2-------5------0--------------|

Riff1 01:04 x1
Verse 01:09
Riff2 01:30
Chorus 01:35

01:57
Guitar1
--------------------------------------------------------------|
--------------------------------------------------------------|
-11------7-------------9------11------7-----------------------|
-11-(x8)-7-(x8)-7-(x8)-9-(x8)-11-(x8)-7-(x8)-7-(x8)-7-(x8)--4-|
--9------5------7------7-------9------5------7------7-------4-|
----------------5----------------------------5------4-------2-|

02:07
Guitar1 (ska rhythm)
--9-------7------5------4------|x2
-10-(x11)-7-(x5)-6-(x3)-5-(x3)-|
-11-------7------6------6------|
-------------------------------|
-------------------------------|
-------------------------------|


-5------4--5------4--9------7------| x4
-6-(x5)-6--6-(x5)-6--9-(x8)-9-(x8)-|
-6------6--6------6--9------9------|
-----------------------------------|
-----------------------------------|
-----------------------------------|

Chorus 02:42

Riff3 03:04

Guitar1
------------------------|x3-------|
------------------------|---------|
----------7-------------|---------|
---4-(x8)-7-(x4)--2-(x4)|-2-(x16)-|
---4------5-------2-----|-2-------|
---2--------------0-----|-0-------|
pm

Guitar2
---------------------------------------------------------------------|
---------------------------------------------------------------------|
-----------------------------3-1-0-----------------------0-3-1-0-2-2-|
---4-6-7-6--4-6-7-6--4-6-7-4------2--4-6-7-6--4-6-7-4—2-4-2----------|
---------------------------------------------------------------------|
---------------------------------------------------------------------|
pm

song: moron (japan bonus track)

Tuning:Db-Ab-Db-Gb-Bb-Eb

intro:
e|--------------------------------------------------------------------------|
B|--------------------------------------------------------------------------|
G|--------------------------------------------------------------------------|
D|--2222----2222----2222----2222~-------------------------------------------|
A|--2222----2222----2222----2222~-------------------------------------------|
E|--2222----2222----2222----2222~--pick slide-------------------------------|
pm: ....    ....    ....    ...

verse:
e|--------------------------------------------------------------------------|
B|--------------------------------------------------------------------------|
G|-----------5555-7777------------------------------------------------------|
D|-2222-5555-5555-7777------------------------------------------------------|
A|-2222-5555-3333-5555------------------------------------------------------|
E|-2222-5555----------------------------------------------------------------|

chorus (rhythm):
e|--------------------------------------------------------------------------|
B|--------------------------------------------------------------------------|
G|------5555----------------------------------------------------------------|
D|-2222-5555-5555-5555------------------------------------------------------|
A|-2222-3333-5555-5555------------------------------------------------------|
E|-2222------5555-4444------------------------------------------------------|

chorus (lead):
e|--------------------------------------------------------------------------|
B|--------------------------------------------------------------------------|
G|-9999-5555-12121212-11111111----------------------------------------------|
D|-xxxx-xxxx-x-x-x-x--x-x-x-x-----------------------------------------------|
A|-7777-3333-10101010-9-9-9-9-----------------------------------------------|
E|--------------------------------------------------------------------------|

bridge:
e|--------------------------------------------------------------------------|
B|--------------------------------------------------------------------------|
G|--------------------------------------------------------------------------|
D|--202-2202-3-202 22023-2~-------------------------------------------------|
A|--202-2202-3-202-22023-2~-------------------------------------------------|
E|--202-2202-3-202 22023-2~-------------------------------------------------|

ending:
e|--------------------------------------------------------------------------|
B|--------------------------------------------------------------------------|
G|--------------------------------------------------------------------------|
D|-202-202------------------------------------------------------------------|
A|-202-202------------------------------------------------------------------|
E|-202-202------------------------------------------------------------------|


order:
intro x1
verse x4
chorus x4
bridge x1
verse x4
chorus x4
verse x4
ending x1

song: subject to change (japan bonus track)

oh sorryyy this song is difficult and if u wankers think im chatting shit well there is another
bonus sum41 track...but u diks have 2 tab it cos im not botherd...

have fun!...(wankers..)
comments
print report bad tab
26 comments total. Showing first comments.
0 reply
NO_BRAINS41 wrote on January 10 2005, 12:00 am

THIS WAS JUST A COMPLMATION OF ALLL THE OTHER TABS THT WERE OUT THERE!!!U CANT TAB FOR ***

0 reply
Penguin_x wrote on January 11 2005, 12:00 am

yes, that's all he did. 1 star!!

0 reply
Torico wrote on January 11 2005, 12:00 am

Lol, he left off the bonus track because he had no-one to steal it from. Pathetic.

I want to post or [tab]
guest
You may want to rate the tab now too:
select rating
Please do not post tabs as comments. Select "correction" instead!