Oops, an error
Loading. Please wait.

Chuck Tab

ver2
ver2

Album

More versions @911Tabs.com
4,775 views 3 this week
no commentswrite comment
1 2 3 4 5
worth learning
x 1
add to favorites launch autoscroll
font size
0
reset
Autoscroll
+/-
esc
set tempo
stop
Contributor
WARNING: You are trying to view
                                    content from Ultimate-Guitar.com
                                    in an unauthorized application,
                                    which is prohibited.

                                    Please use an official Ultimate
                                    Guitar Tabs application for iPhone,
                                    iPad or Android to access legitimate
                                    chords, guitar, bass, and drum tabs
                                    from Ultimate-Guitar.com database.

                                    Type "ultimate guitar tabs" in Apple
                                    App Store's or Android Market's
                                    search to find the application.
Sum 41
Chuck
2004 Aquarius Records
Submitted by: paramore_fans@yahoo.com

Tracklist:
1.) Intro
2.) No Reason
3.) We're All To Blame
4.) Angels With Dirty Faces
5.) Some Say
6.) The Bitter End
7.) Open Your Eyes
8.) Slipping Away
9.) I'm Not The One
10.) Welcome To Hell
11.) Pieces
12.) There's No Solution
13.) 88
14.) Noots
15.) Subject To Change
16.) Moron


_____________________________________________________

1.) Intro

Key: F#


Deryck Whibley = Guitar 1
Dave Baksh = Guitar 2


Tuning: Standard EADGBe


Chords used:
Ebm - x68876
B -   x24442
C# -  x46664
F# -  244322


Part 1:
Deryck:
      Ebm           B      C#
e|-------------|----------|---|
B|-------------|----2-4-2-|---|
G|-8---------8-|-4--------|-6-|
D|-8--8-9-8--8-|-4--------|-6-|
A|-6---------6-|-2--------|-4-|
E|-------------|----------|---|

Dave:
      Ebm          B       C#
e|-------------|-2----|----------|
B|-------------|-4----|----------|
G|-------------|-4----|----------|
D|--------3--4-|------|-----4--3-|
A|-------------|------|----------|
E|-------------|------|----------|


Part 2:
Deryck:
      Ebm           B      C#
e|-------------|----------|---|
B|-------------|----2-4-2-|---|
G|-8---------8-|-4--------|-6-|
D|-8--8-9-8--8-|-4--------|-6-|
A|-6---------6-|-2--------|-4-|
E|-------------|----------|---|

Dave:
      Ebm           B        C#
e|----------------|-2----|----------|
B|----------------|-4----|----------|
G|-8--------------|-4----|----------|
D|-8--3-5-3--3--4-|------|-----4--3-|
A|-6--------------|------|----------|
E|----------------|------|----------|


Part 3: x2
Deryck:
      Ebm           B      C#
e|-------------|----------|---|
B|-------------|----2-4-2-|---|
G|-8---------8-|-4--------|-6-|
D|-8--8-9-8--8-|-4--------|-6-|
A|-6---------6-|-2--------|-4-|
E|-------------|----------|---|

Dave:
          Ebm                B           C#
e|----------------------|-----6h7p6-|---2h4-|
B|----------6-6h7-------|-7-9-------|-2-----|
G|-8----6-8-------------|-----------|-------|
D|-8--8------------3--4-|-----------|-------|
A|-6--------------------|-----------|-------|
E|----------------------|-----------|-------|


____________________________________________________

2.) No Reason

Key: F#

Tuning: Standard EADGBe

Chords used:
Ebm -  x68876
B -    x24442
F# -   244322
C# -   x46664
Bbm -  x13321
C#/F - 143xxx
G#m -  466444


Intro:

Deryck Speaks:
Ebm      B  F#     Ebm
  All of us believe that
Bbm         C#    Ebm
this is not up to you
    B           F#
The fact of the matter
Ebm            Bbm   C#
is really it's up to me
Ebm             B F#
   Hey, Hey, Hey
Ebm             Bbm C#
   Hey, Hey, Hey
      Ebm--B-F#-Ebm--Bbm-C# x2
Let's go !


Dave: on "Hey"
       Ebm        B  F#
e|--------------|---|---|
B|--------------|---|---|
G|--------------|-4-|---|
D|-----4--4p3---|-4-|-4-|
A|-6-6--------4-|-2-|-4-|
E|--------------|---|-2-|
       x3

       Ebm       Bbm  C#
e|--------------|---|---|
B|--------------|---|---|
G|--------------|-3-|-6-|
D|-----4--4p3---|-3-|-6-|
A|-6-6--------4-|-1-|-4-|
E|--------------|---|---|
       x3


Verse 1:
Ebm(All the Way)
  How can we fake this anymore (anymore)
We turn our backs away and choose
to just ignore (choose to just ignore)
(Some say) Some say it's ignorance
It makes me feel some innocence
(Some say) It takes away a
part of me But I won't let go


Dave: While doing Verses "Some say it's ignorance"
e|----1--2--4--6--4--2--4-|
B|-4----------------------|
G|------------------------|
D|------------------------| x2
A|------------------------|
E|------------------------|


Cone: While Doing Verses
G|--------------------------------|
D|------------------------4-3-----|
A|-6-6-6--2-2-1-1--6-6-6------4-4-| x8
E|--------------------------------|


Chorus:
       B         F#
So why can't you see it’s
C#
not the way (not the way)
        B        F#
When we all fall down
        C#     Ebm
it will be too late
       B        F#     C#
Why is there no reason we
can't change (no reason)
        B        F#
When we all fall down who
     C#       Ebm
will take the blame


Post Chorus:
             Ebm
What will it take


Dave: While doing Post Chorus
e|---------------------------------|
B|---------------------------------|
G|---------------------------------|
D|-----------3-----4---------------|
A|-6-6-6-6-6---6-6---6-6-----4-----|
E|-----------------------1h2---1h2-|


Verse 2:
Ebm(all the way)
  If nothing could ever be
this real (be this real)
A life unsatisfied that I
could never feel (could never feel)
(Some say) This future's not so bright
Some can't make the sacrifice
(Some say) It's much more
than just black and white
And I won't follow


(Repeat Chorus)


Bridge:
Ebm   C#   B
Times like these
F#   Bbm  C# Bbm C#
I've come to see how
Ebm C#/F F#    G#m
Eve-ry---thing but
C#/F G#m Bbm C#
time is  run-ning out


Ebm             B F#
   Hey, Hey, Hey
Ebm             Bbm C#
   Hey, Hey, Hey


Dave: on "Hey"
       Ebm        B  F#
e|--------------|---|---|
B|--------------|---|---|
G|--------------|-4-|---|
D|-----4--4p3---|-4-|-4-|
A|-6-6--------4-|-2-|-4-|
E|--------------|---|-2-|
       x3

       Ebm       Bbm  C#
e|--------------|---|---|
B|--------------|---|---|
G|--------------|-3-|-6-|
D|-----4--4p3---|-3-|-6-|
A|-6-6--------4-|-1-|-4-|
E|--------------|---|---|
       x3


Verse 3:
Ebm    B  F# Ebm
All of us be-lieve
   Bbm  C# Ebm
in what we need
B    F# Ebm
What we have's
     Bbm C#
what we  don't see


(Repeat Chorus)


Outro: While singing Chorus
B            F#            C#
  So how long has this gone on
I don't see this ending
B              F#
  It's too late we can't change
C#         Ebm
  What has now begun
B            F#
  We act like it's not right
C#
  Why are we pretending
B                 F#
  We've been wrong for so long
C#                 Ebm  Ebm(hold)
  We've known this all along

_____________________________________________

3.) We're All To Blame

Key: B

Tuning:

Deryck: Drop D
Ebm - 111xxx
E -   222xxx
G#m - 666xxx
Eb -  111xxx
C#m - x46654
C# -  x466xx
F# -  444xxx
B -   x24442 or x244xx
Bbm - x133xx
F  -  333xxx

Dave: Drop D

Chords used: For Standard Tuning
Ebm - x68876 or x688xx
E -   022100 or 079900
G#m - 466444 or x-11-13-13-x-x
Eb -  x68886
C#m - x46654
C# -  x466xx
F# -  244322 or x-9-11-11-x-x
B -   x24442 or x244xx
Bbm - x133xx
F  -  133211 or x-8-10-10-x-x


Intro: Ebm--E-Ebm x3

B    Bbm B  C#
Take eve-ry-thing
Bbm  B    Ebm
left from me
   Ebm  Ebm     
x2, Ebm-Ebm-Ebm-Ebm
ALL   TO   BLAME


Dave: Intro
      E  S S E  S S E  E  E  E     
 E  S S E  S S E  E  E  E
E||------------------------------||----------------------------|
B||------------------------------||----------------------------|
G||*--8--8-8-8--8-8-8--8--9--8--*||--8--8-8-8--8-8-8--8--9--8--|
D||*----------------------------*||----------------------------|
A||---6--6-6-6--6-6-6--6--7--6---||--6--6-6-6--6-6-6--6--7--6--|
D||------------------------------||----------------------------|

  |----3----|     |----3----|
  Q    Q    Q     Q    Q    Q       S S S S S S S S Q     Q
---------------------------------|-----------------------------|
---------------------------------|-----------------------------|
---------------------------------|-----------------------11----|
--9----8----9----11----8----9----|--1-1-1-1-1-1-1-1------------|
--9----8----9----11----8----9----|--1-1-1-1-1-1-1-1-------9----|
--9----8----9----11----8----9----|--1-1-1-1-1-1-1-1------------|

  S S S S S S S S Q     Q       S S S S S S S S Q     Q
-----------------------------|-----------------------------|
-----------------------------|-----------------------------|
-----------------------11----|-----------------------11----|
--1-1-1-1-1-1-1-1------------|--1-1-1-1-1-1-1-1------------|
--1-1-1-1-1-1-1-1-------9----|--1-1-1-1-1-1-1-1-------9----|
--1-1-1-1-1-1-1-1------------|--1-1-1-1-1-1-1-1------------|

                                    PM   PM   PM    PM   PM   PM
  |----3----|     |----3----|       |----3----|     |----3----|
  Q    Q    Q     Q    Q    Q       Q    Q    Q     Q    Q    Q
---------------------------------|---------------------------------|
---------------------------------|---------------------------------|
---------------------------------|---------------------------------|
--9----8----9----11----8----9----|--9----8----9----11----8----9----|
--9----8----9----11----8----9----|--9----8----9----11----8----9----|
--9----8----9----11----8----9----|--9----8----9----11----8----9----|

  E  E  E  E  E  E  E  E
--------------------------|
--------------------------|
--------------------------|
--1-----1-----1-----1-----|
--1-----1-----1-----1-----|
--1-----1-----1-----1-----|


Verse 1:
Ebm
How can we still succeed
                     Ebm--Ebm-F#--Ebm--Ebm--Ebm-F--Ebm--Ebm--Ebm-E--Ebm--Ebm-E-Ebm-E
taking what we don't need?
Ebm
Telling lies as alibis
selling all the
             Ebm--Ebm-F#--Ebm--Ebm--Ebm-F--Ebm--Ebm--Ebm-E--Ebm--Ebm-E-Ebm-E
hate that we breed
Ebm                Ebm--
SUPERSIZE OUR TRAGEDIES
           F# Ebm
(You can’t de-fine
  F Ebm     E Ebm E Ebm   E
me    or justify    greed)
Ebm
Bought in the
            Ebm--
land of the free
F# Ebm F Ebm
  (LAND, FREE)
B  Bbm B C#   Bbm B
and      we're


Dave: Verses
   S S S S S S S S S S S S S S S S
----------------------------------|
----------------------------------|
--8-8-8-8-8-8-8-8-8-8-8-8-3-3-3-3-|
----------------------------------|
--6-6-6-6-6-6-6-6-6-6-6-6-1-1-1-1-|
----------------------------------|

  S S S S S S S S S S S S S S S S    E  S S S S S S E  S S S S S S
----------------------------------|--------------------------------|
----------------------------------|--------------------------------|
--6-6-6-6-6-6-6-6-4-4-4-4-4-4-4-4-|--------------------------------|
----------------------------------|--1----1-4---1---1----1-3---1---|
--4-4-4-4-4-4-4-4-2-2-2-2-2-2-2-2-|--1----1-4---1---1----1-3---1---|
----------------------------------|--1----1-4---1---1----1-3---1---|

  E  S S S S S S E  E  S S E     S S S S S S S S S S S S S S S S
------------------------------|----------------------------------|
------------------------------|----------------------------------|
------------------------------|--8-8-8-8-8-8-8-8-8-8-8-8-3-3-3-3-|
--1----1-2---1---1--2--x---2--|----------------------------------|
--1----1-2---1---1--2--x---2--|--6-6-6-6-6-6-6-6-6-6-6-6-1-1-1-1-|
--1----1-2---1---1--2--x---2--|----------------------------------|

  S S S S S S S S S S S S S S S S    E  S S S S S S E  S S S S S S
----------------------------------|--------------------------------|
----------------------------------|--------------------------------|
--4-4-4-4-4-4-4-4-6-6-6-6-6-6-6-6-|--------------------------------|
----------------------------------|--1----1-4---1---1----1-3---1---|
--2-2-2-2-2-2-2-2-4-4-4-4-4-4-4-4-|--1----1-4---1---1----1-3---1---|
----------------------------------|--1----1-4---1---1----1-3---1---|

  E  S S S S S S E  E  S S E     S S S S S S  S  S  S  S  S  S  S  S  S  S
------------------------------|--------------------------------------------|
------------------------------|--------------------------------------------|
------------------------------|--8-8-8-8-8-8-11-11-11-11-11-11-10-10-10-10-|
--1----1-2---1---1--2--x---2--|--------------------------------------------|
--1----1-2---1---1--2--x---2--|--6-6-6-6-6-6--9--9--9--9--9--9--8--8--8--8-|
--1----1-2---1---1--2--x---2--|--------------------------------------------|

   S  S S S S S S  S  S  S  S  S  S  S  S  S    E  S S S S S S E  S S S S S S
---------------------------------------------|--------------------------------|
---------------------------------------------|--------------------------------|
--10-10-6-6-6-6-6-10-10-10-10-10-10-10-10-10-|--------------------------------|
---------------------------------------------|--1----1-4---1---1----1-3---1---|
---8--8-4-4-4-4-4--8--8--8--8--8--8--8--8--8-|--1----1-4---1---1----1-3---1---|
---------------------------------------------|--1----1-4---1---1----1-3---1---|

  E  S S S S S S E  E  S S E     S S S S S S  S  S  S  S  S  S S S S S
------------------------------|----------------------------------------|
------------------------------|----------------------------------------|
------------------------------|--8-8-8-8-8-8-11-11-11-11-11-11-6-6-6-6-|
--1----1-2---1---1--2--x---2--|----------------------------------------|
--1----1-2---1---1--2--x---2--|--6-6-6-6-6-6--9--9--9--9--9--9-4-4-4-4-|
--1----1-2---1---1--2--x---2--|----------------------------------------|

   S  S  S  S  S  S  S  S  S  S  S  S  S  S  S  S
--------------------------------------------------|
--------------------------------------------------|
--13-13-13-13-13-13-13-13-11-11-11-11-11-11-11-11-|
--------------------------------------------------|
--11-11-11-11-11-11-11-11--9--9--9--9--9--9--9--9-|
--------------------------------------------------|

                                   |----3----|     |----3----|
  E  S S S S S S E  S S S S S S    Q    Q    Q     Q    Q    Q
--------------------------------|---------------------------------|
--------------------------------|---------------------------------|
--------------------------------|---------------------------------|
--1----1-4---1---1----1-3---1---|--9----8----9----11----8----9----|
--1----1-4---1---1----1-3---1---|--9----8----9----11----8----9----|
--1----1-4---1---1----1-3---1---|--9----8----9----11----8----9----|

Chorus 1:
G#m C#m F#
all to  blame
      Eb       G#m
We've gone too far
     C#m      F#
From pride to shame
      Eb        G#m
We're trying so hard
      C#m      F#
We're dying in vain
      Eb
We're hopelessly
             G#m
blissful and blind
   C#m    F#
to all we are
   Eb      (hold) B Bbm
We want it all
B    C# Bbm B  Ebm-Ebm-Ebm-Ebm
With no sa--crifice!!


Dave: Chorus 1
  W                   H        H           W
-------------------|--------------------|-------------------|
-------------------|--------------------|-------------------|
-------------------|--------------------|-------------------|
--6----------------|--L-----------------|-------------------|
--6----------------|--------------------|-------------------|
--6----------------|--L-----------------|-------------------|

  W                   Q    Q    Q    Q       Q    Q    Q    Q
-------------------|----------------------|--9---------9---------|
-------------------|--9---------9---------|-------9---------9----|
-------------------|-------8---------8----|-------8----9----8----|
-------------------|------------9---------|--6-------------------|
-------------------|----------------------|----------------------|
-------------------|----------------------|----------------------|

  Q    Q    Q    Q       Q    Q    Q    Q       Q    Q    Q    Q
--6---------6---------|--6---------6---------|----------------------|
-------7----7----7----|-------8---------8----|--9---------9---------|
-------6---------6----|--8-------------------|-------8---------8----|
--4-------------------|-------8----8----8----|------------9---------|
----------------------|----------------------|----------------------|
----------------------|----------------------|----------------------|

  Q    Q    Q    Q       Q    Q    Q    Q       Q    Q    Q    Q
--9---------9---------|--6---------6---------|--6---------6---------|
-------9---------9----|-------7----7----7----|-------8---------8----|
-------8----9----8----|-------6---------6----|--8-------------------|
--6-------------------|--4-------------------|-------8----8----8----|
----------------------|----------------------|----------------------|
----------------------|----------------------|----------------------|

  Q    Q    Q    Q       Q    Q    Q    Q       Q    Q    Q    Q
----------------------|--9---------9---------|--6---------6---------|
--9---------9---------|-------9---------9----|-------7----7----7----|
-------8---------8----|-------8----9----8----|-------6---------6----|
------------9---------|--6-------------------|--4-------------------|
----------------------|----------------------|----------------------|
----------------------|----------------------|----------------------|

                        |----3----|     |----3----|
  Q    Q    H           Q    Q    Q     Q    Q    Q
--6---------6--------|---------------------------------|
-------8-------------|---------------------------------|
--8------------------|---------------------------------|
-------8----8--------|--9----8----9----11----8----9----|
---------------------|--9----8----9----11----8----9----|
---------------------|--9----8----9----11----8----9----|

Verse 2:
Ebm
Realize we spend our lives
                       Ebm--Ebm-F#--Ebm--Ebm--Ebm-F--Ebm--Ebm--Ebm-E--Ebm--Ebm-E-Ebm-E
living in a culture of fear
 Ebm
Stand to salute say thanks
                  Ebm--Ebm-F#--Ebm--Ebm--Ebm-F--Ebm--Ebm--Ebm-E--Ebm--Ebm-E-Ebm-E
to the man of the year
Ebm
How did we all come to this?
           F# Ebm
(You can’t de-fine
  F Ebm     E Ebm E Ebm   E
me    or justify    greed)
     Ebm
This greed that we
             Ebm
just can't resist!
F#   Ebm F     Ebm
  (RE-----SIST)
B  Bbm B C#   Bbm B
and      we're


Chorus 2:
G#m C#m F#
all to  blame
      Eb       G#m
We've gone too far
     C#m      F#
From pride to shame
      Eb        G#m
We're trying so hard
      C#m      F#
We're dying in vain
      Eb
We're hopelessly
             G#m
blissful and blind
   C#m    F#
to all we are
   Eb      G#m E B
We want it all
 F#  G#m E       B
everyone want it all
F#(hold)     
x2
with no SACRIFICE!!


Dave: Chorus 2:
  W                   H        H           W
-------------------|--------------------|-------------------|
-------------------|--------------------|-------------------|
-------------------|--------------------|-------------------|
--6----------------|--L-----------------|-------------------|
--6----------------|--------------------|-------------------|
--6----------------|--L-----------------|-------------------|

  W                   Q    Q    Q    Q       Q    Q    Q    Q
-------------------|----------------------|--9---------9---------|
-------------------|--9---------9---------|-------9---------9----|
-------------------|-------8---------8----|-------8----9----8----|
-------------------|------------9---------|--6-------------------|
-------------------|----------------------|----------------------|
-------------------|----------------------|----------------------|

  Q    Q    Q    Q       Q    Q    Q    Q       Q    Q    Q    Q
--6---------6---------|--6---------6---------|----------------------|
-------7----7----7----|-------8---------8----|--9---------9---------|
-------6---------6----|--8-------------------|-------8---------8----|
--4-------------------|-------8----8----8----|------------9---------|
----------------------|----------------------|----------------------|
----------------------|----------------------|----------------------|

  Q    Q    Q    Q       Q    Q    Q    Q       Q    Q    Q    Q
--9---------9---------|--6---------6---------|--6---------6---------|
-------9---------9----|-------7----7----7----|-------8---------8----|
-------8----9----8----|-------6---------6----|--8-------------------|
--6-------------------|--4-------------------|-------8----8----8----|
----------------------|----------------------|----------------------|
----------------------|----------------------|----------------------|

  Q    Q    Q    Q       Q    Q    Q    Q       Q    Q    Q    Q
----------------------|--9---------9---------|--6---------6---------|
--9---------9---------|-------9---------9----|-------7----7----7----|
-------8---------8----|-------8----9----8----|-------6---------6----|
------------9---------|--6-------------------|--4-------------------|
----------------------|----------------------|----------------------|
----------------------|----------------------|----------------------|

  Q    Q    H           Q    Q    Q    Q       Q    Q    Q    Q
--6---------6--------|----------------------|--9---------9---------|
-------8-------------|--9---------9---------|-------9---------9----|
--8------------------|-------8---------8----|-------8----9----8----|
-------8----8--------|------------9---------|--6-------------------|
---------------------|----------------------|----------------------|
---------------------|----------------------|----------------------|

  Q    Q    Q    Q       Q    Q    Q    Q       Q    Q    Q    Q
--6---------6---------|--6---------6---------|----------------------|
-------7----7----7----|-------8---------8----|--9---------9---------|
-------6---------6----|--8-------------------|-------8---------8----|
--4-------------------|-------8----8----8----|------------9---------|
----------------------|----------------------|----------------------|
----------------------|----------------------|----------------------|

  Q    Q    Q    Q       Q    Q    Q    Q       Q    Q    Q    Q
--9---------9---------|--6---------6---------|--6---------6---------|
-------9---------9----|-------7----7----7----|-------8---------8----|
-------8----9----8----|-------6---------6----|--8-------------------|
--6-------------------|--4-------------------|-------8----8----8----|
----------------------|----------------------|----------------------|
----------------------|----------------------|----------------------|

                      pm(SACRIFICE!!!!)
  W                   E  S S S S E  E  S S S S E     E  S S S S E  E  E  E  E
-------------------|------------------------------|----------------------------|
--4----------------|------------------------------|----------------------------|
--4----------------|------------------------------|-------------------------9--|
--6----------------|--1----------4--1----------3--|--1----------3--1--4--6-----|
--6----------------|--1--1-1-1-1-4--1--1-1-1-1-3--|--1--1-1-1-1-3--1--4--6--7--|
--6----------------|--1--1-1-1-1-4--1--1-1-1-1-3--|--1--1-1-1-1-3--1--4--6-----|

  pm
  E  S S S S E  E  S S S S E     E  S S S S E  E  E  E  E
------------------------------|----------------------------|
------------------------------|----------------------------|
------------------------------|-------------------------9--|
--1----------4--1----------3--|--1----------3--1--4--6-----|
--1--1-1-1-1-4--1--1-1-1-1-3--|--1--1-1-1-1-3--1--4--6--7--|
--1--1-1-1-1-4--1--1-1-1-1-3--|--1--1-1-1-1-3--1--4--6-----|


Bridge:
Ebm
Tell me now what have
we done? We don't know!
I can't allow what has
begun to tear me
down Believe me now
we have no choice left
                           F#
With our backs against the wall!!!


Dave: Bridge
     pm
  E  S  S S S S S S E.  Q       E  S S S S S S S E.  Q
-----------------------------|----------------------------|
-----------------------------|----------------------------|
-----------------------------|----------------------------|
--1--1--1-1-1-1-1-1----------|--1--1-1-1-1-1-1-1----------|
--1--1--1-1-1-1-1-1----------|--1--1-1-1-1-1-1-1----------|
--1--1--1-1-1-1-1-1----------|--1--1-1-1-1-1-1-1----------|

  E  S S S S S S S E.  Q       E  S S S S S S S E.  S S S S
----------------------------|-------------------------------|
----------------------------|-------------------------------|
----------------------------|-------------------------------|
--1--1-1-1-1-1-1-1----------|--1--1-1-1-1-1-1-1-------------|
--1--1-1-1-1-1-1-1----------|--1--1-1-1-1-1-1-1-----1-------|
--1--1-1-1-1-1-1-1----------|--1--1-1-1-1-1-1-1-------4-3-4-|

  E  S S S S S S S E.  Q       E  S S S S S S S E.  Q
----------------------------|----------------------------|
----------------------------|----------------------------|
-----------------------4----|-----------------------3----|
--1--1-1-1-1-1-1-1----------|--1--1-1-1-1-1-1-1----------|
--1--1-1-1-1-1-1-1-----2----|--1--1-1-1-1-1-1-1-----1----|
--1--1-1-1-1-1-1-1----------|--1--1-1-1-1-1-1-1----------|

                               PM PM PM PM PM PM PM PM
  E  S S S S S S S E.  Q       E  E  E  E E  E  E  E
----------------------------|--------------------------|
----------------------------|--------------------------|
-----------------------4----|--------------------------|
--1--1-1-1-1-1-1-1----------|--4--4--4--4--4--4--4--4--|
--1--1-1-1-1-1-1-1-----2----|--4--4--4--4--4--4--4--4--|
--1--1-1-1-1-1-1-1----------|--4--4--4--4--4--4--4--4--|

  PM PM PM PM PM PM PM
  E  E  E  E  E  E  E  E
--------------------------|
--------------------------|
--------------------------|
--4--4--4--4--4--4--4--4--|
--4--4--4--4--4--4--4--4--|
--4--4--4--4--4--4--4--4--|

Chorus 3:
    G#m       C#m    F#
And now we're all to blame
      Eb       G#m
We've gone too far
     C#m      F#
From pride to shame
      Eb
We're hopelessly
             G#m
blissful and blind
     E      B
When all we need
   F#        G#m
Is something true
E    B
To believe
F#       G#m
Don't we all?
E    B   F#   G#m
Everyone everyone
E       B    F#
We will fall coz we're


Dave: Chorus 3
    Q    Q    Q    Q       Q    Q    Q    Q
e|----------------------|--9---------9---------|
B|--9---------9---------|-------9---------9----|
G|-------8---------8----|-------8----9----8----|
D|------------9---------|--6-------------------|
A|----------------------|----------------------|
D|----------------------|----------------------|

  Q    Q    Q    Q       Q    Q    Q    Q       Q    Q    Q    Q
--6---------6---------|--6---------6---------|----------------------|
-------7----7----7----|-------8---------8----|--9---------9---------|
-------6---------6----|--8-------------------|-------8---------8----|
--4-------------------|-------8----8----8----|------------9---------|
----------------------|----------------------|----------------------|
----------------------|----------------------|----------------------|

  Q    Q    Q    Q       Q    Q    Q    Q       Q    Q    Q    Q
--9---------9---------|--6---------6---------|--6---------6---------|
-------9---------9----|-------7----7----7----|-------8---------8----|
-------8----9----8----|-------6---------6----|--8-------------------|
--6-------------------|--4-------------------|-------8----8----8----|
----------------------|----------------------|----------------------|
----------------------|----------------------|----------------------|

  Q    Q    Q    Q       Q    Q    Q    Q       Q    Q    Q    Q
----------------------|--9---------9---------|--6---------6---------|
--9---------9---------|-------9---------9----|-------7----7----7----|
-------8---------8----|-------8----9----8----|-------6---------6----|
------------9---------|--6-------------------|--4-------------------|
----------------------|----------------------|----------------------|
----------------------|----------------------|----------------------|

  Q    Q    H           S S S S S S S S S S S S S S S S
--6---------6--------|----------------------------------|
-------8-------------|----------------------------------|
--8------------------|--8-8-8-8-8-8-8-8-8-8-8-8-8-8-8-8-|
-------8----8--------|----------------------------------|
---------------------|--6-6-6-6-6-6-6-6-6-6-6-6-6-6-6-6-|
---------------------|----------------------------------|

  S S S S S S S S S S S S S S S S    S S S S S S S S S S S S S S S S
----------------------------------|----------------------------------|
----------------------------------|----------------------------------|
--4-4-4-4-4-4-4-4-4-3-3-4-4-6-6-6-|--8-8-8-8-8-8-8-8-8-8-8-8-8-8-8-8-|
----------------------------------|----------------------------------|
--2-2-2-2-2-2-2-2-2-1-1-2-2-4-4-4-|--6-6-6-6-6-6-6-6-6-6-6-6-6-6-6-6-|
----------------------------------|----------------------------------|

  S S S S S S S S S S S S S S S S    S S S S S S S S S S S S S S S S
----------------------------------|----------------------------------|
----------------------------------|----------------------------------|
--6-6-6-6-6-6-6-6-4-4-4-4-4-4-4-4-|--8-8-8-8-8-8-8-8-8-8-8-8-8-8-8-8-|
----------------------------------|----------------------------------|
--4-4-4-4-4-4-4-4-2-2-2-2-2-2-2-2-|--6-6-6-6-6-6-6-6-6-6-6-6-6-6-6-6-|
----------------------------------|----------------------------------|

  S S S S S S S S S S S S S S S S    S S S S S S S S S S S S S S S S
----------------------------------|----------------------------------|
----------------------------------|----------------------------------|
--4-4-4-4-4-4-4-4-4-3-3-4-4-6-6-6-|--8-8-8-8-8-8-8-8-8-8-8-8-8-8-8-8-|
----------------------------------|----------------------------------|
--2-2-2-2-2-2-2-2-2-1-1-2-2-4-4-4-|--6-6-6-6-6-6-6-6-6-6-6-6-6-6-6-6-|
----------------------------------|----------------------------------|

  S S S S S S S S S S S S S S S S    S S S S S S S S S S S S S S S S
----------------------------------|----------------------------------|
----------------------------------|----------------------------------|
--6-6-6-6-6-6-6-6-4-4-4-4-4-4-4-4-|--8-8-8-8-8-8-8-8-8-8-8-8-8-8-8-8-|
----------------------------------|----------------------------------|
--4-4-4-4-4-4-4-4-2-2-2-2-2-2-2-2-|--6-6-6-6-6-6-6-6-6-6-6-6-6-6-6-6-|
----------------------------------|----------------------------------|


  S S S S S S S S S S S S S S S S    S S S S S S S S S S S S S S S S
----------------------------------|----------------------------------|
----------------------------------|----------------------------------|
--4-4-4-4-4-4-4-4-4-3-3-4-4-6-6-6-|--8-8-8-8-8-8-8-8-8-8-8-8-8-8-8-8-|
----------------------------------|----------------------------------|
--2-2-2-2-2-2-2-2-2-1-1-2-2-4-4-4-|--6-6-6-6-6-6-6-6-6-6-6-6-6-6-6-6-|
----------------------------------|----------------------------------|

  S S S S S S S S S S S S S S S S
----------------------------------|
----------------------------------|
--6-6-6-6-6-6-6-6-4-4-4-4-4-4-4-4-|
----------------------------------|
--4-4-4-4-4-4-4-4-2-2-2-2-2-2-2-2-|
----------------------------------|


Outro:
G#m C#m F#
all to  blame
      Eb       G#m
We've gone too far
     C#m      F#
From pride to shame
      Eb        G#m
We're trying so hard
      C#m      F#
We're dying in vain
   Eb      G#m
We want it all
C#m  F#  Eb       G#m(hold)
Everyone don't we all?


Dave: Outro, Pedal switched from distorted to clean
              Q    Q    Q    Q       Q    Q    Q    Q
-----------|----------------------|----------------------|
-----------|--9-------------------|----------------------|
-----------|-------8---------8----|-------8----9----8----|
-----------|------------9---------|--6-------------------|
-----------|----------------------|----------------------|
-----------|----------------------|----------------------|

  Q    Q    Q    Q       Q    Q    Q    Q       Q    Q    Q    Q
----------------------|----------------------|----------------------|
------------7---------|----------------------|--9-------------------|
-------6---------6----|--8-------------------|-------8---------8----|
--4-------------------|-------8----8----8----|------------9---------|
----------------------|----------------------|----------------------|
----------------------|----------------------|----------------------|

  Q    Q    Q    Q       Q    Q    Q    Q       Q    Q    Q    Q
----------------------|----------------------|----------------------|
----------------------|------------7---------|----------------------|
-------8----9----8----|-------6---------6----|--8-------------------|
--6-------------------|--4-------------------|-------8----8----8----|
----------------------|----------------------|----------------------|
----------------------|----------------------|----------------------|

  Q    Q    Q    Q       Q    Q    Q    Q       Q    Q    Q    Q
----------------------|----------------------|----------------------|
--9-------------------|----------------------|------------7---------|
-------8---------8----|-------8----9----8----|-------6---------6----|
------------9---------|--6-------------------|--4-------------------|
----------------------|----------------------|----------------------|
----------------------|----------------------|----------------------|

  Q    Q    Q     Q
-----------------------|
-----------------11----|
--8--------------------|
-------8----8----------|
-----------------------|
-----------------------|

__________________________________________________

4.) Angels With Dirty Faces

Key: E

Tuning: Standard EADGBe

Chords used:
C#m -  x46654
A -    x02220
E -    022100
B -    x24442
B/Eb - x698xx
F#m -  244222
G#m -  466444


Intro:
C#m             A
  I need this to get me through
C#m           G#m
  Can't resist don't want to
C#m         A
  Believe it I know it's true
C#m            G#m
  Can't beat it don't want to try


Metallic Riff:
    C#m      E      C#m      E          A             G#m
e|-------|-------|-------|-------|--------2-2-2-|--------------
B|-------|-------|-------|-------|--------0-0-0-|--------------
G|-6-6-6-|-9-9-9-|-6-6-6-|-9-9-9-|-2-2-2--------|--------8-8-8-
D|-6-6-6-|-9-9-9-|-6-6-6-|-9-9-9-|-2-2-2--------|-6-6-6--8-8-8-
A|-4-4-4-|-7-7-7-|-4-4-4-|-7-7-7-|-0-0-0--------|-6-6-6--6-6-6-
E|-------|-------|-------|-------|--------------|-4-4-4--------

    E       C#m     E       C#m        A             G#m
e|-------|-------|-------|-------|--------2-2-2-|--------------
B|-------|-------|-------|-------|--------0-0-0-|--------------
G|-9-9-9-|-6-6-6-|-9-9-9-|-6-6-6-|-2-2-2--------|--------8-8-8-
D|-9-9-9-|-6-6-6-|-9-9-9-|-6-6-6-|-2-2-2--------|-6-6-6--8-8-8-
A|-7-7-7-|-4-4-4-|-7-7-7-|-4-4-4-|-0-0-0--------|-6-6-6--6-6-6-
E|-------|-------|-------|-------|--------------|-4-4-4--------


A perfect hell


Verse 1:
C#m(All the way)
  It's more to me 
than you ever will know
Down here where 
the rest of us fell
Waste away nothing
left to show
While I'm in this
E       B/Eb(hold)
perfect hell
C#m A G#m   E     B
  Obsession has begun
C#m  A      G#m E       B
  Possessed by  des-truction
C#m   A   G#m E      B
  How did I   get so low
C#m A     G#m  E      B
  Believe me   no one knows


Refrain:
A
  Sometimes I can't hold on
B
  And no one can help me


Chorus:
C#m                    E
Now it's got a hold of me
A
I don't think I can
B       G#m     E
make it through this
C#m                    E
Now it's got a hold of me
    A
The less I do the
B       G#m   E
more it makes no sense


Post Chorus: Deryck speaks
    C#m
I'm walking pollution
      B/Eb
who's drained by delusions
E                    F#m
  On the verge of destruction
               C#m
I cave in to abduction
               B/Eb
Thin blood I'm bleeding my
             E
pulse won't stop racing
        F#m
Just as my heart explodes


Verse 2:
C#m  A      G#m  E       B
  No chance that I could win
C#m   A    G#m E        B
  Too hard to  not give in
C#m A    G#m   E        B
  I just don't feel the same
C#m     A   G#m E      B
  Cause I'm the one to blame


(Repeat Refrain)
(Repeat Chorus)


Bridge:
C#m(hold)
  I need this to be myself
C#m(hold)
  It feels like I need some help
C#m(hold)
  It's too late to save myself
C#m(hold)            C#m---
  Or it's just in my head


(Repeat Chorus twice)


Outro:
    C#m      E      C#m      E
e|-------|-------|-------|-------
B|-------|-------|-------|-------
G|-6-6-6-|-9-9-9-|-6-6-6-|-9-9-9-
D|-6-6-6-|-9-9-9-|-6-6-6-|-9-9-9-
A|-4-4-4-|-7-7-7-|-4-4-4-|-7-7-7-
E|-------|-------|-------|-------

    C#m      E      C#m      E
e|-------|-------|-------|-------
B|-------|-------|-------|-------
G|-6-6-6-|-9-9-9-|-6-6-6-|-9-9-9-
D|-6-6-6-|-9-9-9-|-6-6-6-|-9-9-9-
A|-4-4-4-|-7-7-7-|-4-4-4-|-7-7-7-
E|-------|-------|-------|-------


  C#m
e|---
B|---
G|-6-
D|-6-
A|-4-
E|---

_____________________________________________________

5.) Some Say

Key: C#

Tuning: Standard EADGBe

Chords used:
Bbm - x13321
C# -  x46664
Ebm - x68876
F# -  244322
G# -  466544


Verse 1:
Bbm              C#
  Some say we're never meant to grow up
Ebm             F#
  I'm sure they never knew enough
Bbm          C#
  I know the pressures won't go
Ebm   F#
  Away It's too late
Bbm            C#
  Find out the difference somehow
Ebm                F#
  It's too late to even have faith
Bbm           C#
  Don't think things will ever change
Ebm           F#(hold)
  You must be dreaming


Chorus 1:
Bbm              F#           C#
Think before you make up your mind
          G#         Ebm
You don't seem to realize
      F#
I can do this on my own
C#         G#                Ebm
  And if I fall I'll take it all
        F#
It's so easy after all


Interlude: Bbm-C#-Ebm-F#


Verse 2:
Bbm                C#
  Believe me cause now's the time to try
Ebm              F#
  Don't wait the chance will pass you by
Bbm            C#
  Time's up to figure it out
Ebm            F#
  You can't say it's too late
Bbm          C#
  Seems like everything we knew
Ebm               F#
  Turned out were never even true
Bbm            C#
  Don't trust things will ever change
Ebm           F#
  You must be dreaming (Dreaming)


(Repeat Chorus 1)


Interlude: F#-C#-Ebm-Bbm x4, F#(hold)

Dave Baksh Solo:
     F#          C#            Ebm         Bbm
e|-------|----------------|-----------|------------|
B|-------|----------------|-----------|------------|
G|-6--13-|-10/11\10/11\10-|-8--10--11-|-10/11\10\8-|
D|-x---x-|--x/-x\-x/-x\-x-|-x---x---x-|--x/-x\-x\x-| x2
A|-4--11-|--8/-9\-8/-9\-8-|-6---8---9-|--8/-9\-8\6-|
E|-------|----------------|-----------|------------|

     F#            C#          Ebm        Bbm
e|----------|--------------|---------|------------|
B|----------|--------------|---------|------------|
G|-6--8--10-|-11\10--11\10-|-8--6--8-|-10/11\10\8-|
D|-x--x---x-|--x\-x---x\-x-|-x--x--x-|--x/-x\-x\x-| x2
A|-4--6---8-|--9\-8---9\-8-|-6--4--6-|--8/-9\-8\6-|
E|----------|--------------|---------|------------|

      F#
e|-----------|
B|-----------|
G|-6---6/8\6-|
D|-x---x/x\x-|
A|-4---4/6\4-|
E|-----------|


Verse 3:
Bbm              C#
  Some say we're better off without
Ebm            F#
  Knowing what life is all about
Bbm                C#
  I'm sure they'll never realize
Ebm      F#
  the way it's too late
Bbm            C#
  Somehow it's different everyday
Ebm               F#
  In some ways it never fades away
Bbm               C#
  Seems like it's never gonna change
Ebm         F#(hold)
  I must be dreaming
(Dreaming Dreaming)


Chorus 2:
Bbm              F#           C#
Think before you make up your mind
          G#         Ebm
You don't seem to realize
      F#
I can do this on my own
Bbm              F#           C#
Think before you make up your mind
          G#         Ebm
You don't seem to realize
      F#
I can do this on my own
C#         G#                Ebm
  And if I fall I'll take it all
        F#
It's so easy after all


Outro:
Bbm       F#        C#
  Believe me it's alright
        G#
It's so easy after all
Bbm       F#        C#
  Believe me it's alright
        Ebm        F#(hold)
It's so easy after all

_____________________________________________________

6.) The Bitter End

Key: G#

Tuning: Standard EADGBe

Chords used:
F# -   244322
Fm -   133111
E -    022100
Eb -   x68886
C  -   x35553 or x32010
Cm -   x35543
G# -   466544
Eb/G - 365xxx
B -    x24442
Bb -   x13331


Intro:

Part 1: Fm--Eb-C#-C--G#-Eb/G x2

Part 2: Metallica Style!!!
     Fm           Fm
e|---------|----------------|
B|---------|----------------|
G|---------|----------------|
D|-1-------|-1-------1------| x6
A|-----4-3-|-----4-------3--|
E|---1-2-1-|---1---1---1--1-|
     x2

Part 3: Half time
           Fm
e|-------------------------|---------|
B|-------------------------|---------|
G|-11\10-10-10-10-10-10-10-|---------|
D|--x\-x--x--x--x--x--x--x-|---------|
A|--9\-8--8--8--8--8--8--8-|---------|
E|-------------------------|-6-7-8-9-|
           x3

           Fm
e|-------------------------|---|
B|-------------------------|---|
G|-11\10-10-10-10-10-10-10-|-4-|
D|--x\-x--x--x--x--x--x--x-|-4-|
A|--9\-8--8--8--8--8--8--8-|-4-|
E|-------------------------|---|
           x3


Verse 1:
           Fm
There's no doubt in my
     G#        B Bb
mind when it's o-ver
Fm      B Bb B Fm     G#
What is done   will be
Fm                 G#
You will find when life
     B  Bb  Fm            B Bb  B  
G#
gets colder there's no sympa-------thy
        Fm Eb    C# G#
There's no point tr-ying you
C                Fm E   Fm(Repeat first part of half time)
can't escape the bitter end
     Fm  Eb   C#    G#
Well who will greet you when
C             Fm E   Fm(hold)
you're at the bitter end


Dave Solo 1:
                         Fm
     |---3---|   |----3----|   |---3---|   |----3----|
     E   E   E   S  S  E   E   E   E  E   S  S  E   E
e|--18--16------18-18-16------18--16------18-18-16------|
B|----------18------------18----------18------------18--|
G|------------------------------------------------------|
D|------------------------------------------------------|
A|------------------------------------------------------|
E|------------------------------------------------------|

                    Eb
    |---3---|   |----3----|
    E   E   E   S  S  E   E   Q       E  E
e|--18--16------18-18-16------16br----16--13--|
B|----------18------------18------------------|
G|--------------------------------------------|
D|--------------------------------------------|
A|--------------------------------------------|
E|--------------------------------------------|

                    G#
    |---3---|   |---3---|   |---3---|   |---3---|
    E   E   E   E   E   E   E  E   E   E   E   E
e|--16--13--11--13--11------16--13--11--13--11------|
B|----------------------13----------------------13--|
G|--------------------------------------------------|
D|--------------------------------------------------|
A|--------------------------------------------------|
E|--------------------------------------------------|

                    G                           F#
    |---3---|   |---3---|
    E   E   E   E   E   E   
  E   E   E      W
e|--11--------------------------------------|---------------------|
B|------13--11--13--11------11--13--11------|---------------------|
G|----------------------13--------------13--|--10~----------------|
D|------------------------------------------|---------------------|
A|------------------------------------------|---------------------|
E|------------------------------------------|---------------------|


Verse 2:
         Fm
All your choices chosen
G#         B  Bb
you've got no say
Fm     Bb B Bb    Fm  G#
Your deci---sions made
Fm             G#      B
Face your consequences as
Bb   Fm     Bb B Bb Fm  G#
your life begins to fade
   Fm   Eb     C# G#
As time keeps spinning
C             Fm E   Fm
closer to the bitter end
     Fm  Eb   C#    G#
Well who will greet you
C                  Fm E   Fm(hold)
when you’re at the bitter end


Dave Solo 2:
         Fm                                                Cm
    H.           Q       S Q     E.  E  E  
 E     H        E  E   Q
e|--------------------|--------------------------|-----------------------|
B|--------------------|--------------------------|-----------------------|
G|---------------0----|--0-1-----L---0--1--0-----|------------------0----|
D|--3-----------------|-----------------------3--|--1--------1--1S-------|
A|--------------------|--------------------------|-----------------------|
E|--------------------|--------------------------|-----------------------|

                                    Fm
                                        |--3--|
    S Q    E.  Q    Q       H.           E  E  E    H         Q.      E
e|-----------------------|------------------------|-----------------------|
B|-----------------------|------------------------|-----------------------|
G|--0-3----L---1----0----|---------------0--L-----|--0b--------0b------0--|
D|-----------------------|--3------------------3--|-----------------------|
A|-----------------------|------------------------|-----------------------|
E|-----------------------|------------------------|-----------------------|

          Cm                                               Fm
    H        E  E   Q       S Q    E.  Q.      
    H        Q    Q
e|-----------------------|------------------------|--1--------3----4----|
B|-----------------------|------------------------|---------------------|
G|------------------0----|--0-3----L---1S---------|---------------------|
D|--1--------1--1S-------|------------------------|---------------------|
A|-----------------------|------------------------|---------------------|
E|-----------------------|------------------------|---------------------|

                                   Cm
                                                              |----3----|
    Q    Q    Q    Q       Q    Q    E  E  E  E     Q     Q    Q    Q    Q
e|--1----3----4----1----|-------3-------1--3--4--|--4b----4----3----4----3----|
B|----------------------|--4---------4-----------|----------------------------|
G|----------------------|------------------------|----------------------------|
D|----------------------|------------------------|----------------------------|
A|----------------------|------------------------|----------------------------|
E|----------------------|------------------------|----------------------------|

          Fm                                             Cm
    H         Q    Q       Q    Q    Q    Q       Q    E  E   H
e|--1~--------3----4----|--1----3----4----1----|------------------------|
B|----------------------|----------------------|--4----L--4b--4~--------|
G|----------------------|----------------------|------------------------|
D|----------------------|----------------------|------------------------|
A|----------------------|----------------------|------------------------|
E|----------------------|----------------------|------------------------|


    E  E  E  E  E  E  E   E
e|-----3--4--6--4--6--8--11--|
B|--6------------------------|
G|---------------------------|
D|---------------------------|
A|---------------------------|
E|---------------------------|


Dave Solo 3:

                    Fm
    S  S  S  S  S  S  E   S  S  S  S  S  S  E
e|--13-13-13-13-13-13-----13-13-13-13-13-13-----|
A|--------------------13--------------------13--|
D|----------------------------------------------|
G|----------------------------------------------|
B|----------------------------------------------|
E|----------------------------------------------|

                G#      B Bb
    S  S  S  S  S  S  E   S  S  S  S  S  S  E
e|--13-13-13-13-13-13-----13-13-13-13-13-13-----|
B|--------------------13--------------------13--|
G|----------------------------------------------|
D|----------------------------------------------|
A|----------------------------------------------|
E|----------------------------------------------|

                Fm     Bb B Bb
    S  S  S  S  S  S  S  S  S  S  S  S  S  S  S  S
e|--18-18-16----18-18-16----18-18-16----18-18-16----|
B|-----------18----------18----------18----------18-|
G|--------------------------------------------------|
D|--------------------------------------------------|
A|--------------------------------------------------|
E|--------------------------------------------------|

                Fm    G#
    S  S  S  S  S  S  S  S  Q      E   E
e|--18-18-16----18-18-16----18b----16------|
B|-----------18----------18------------18--|
G|-----------------------------------------|
D|-----------------------------------------|
A|-----------------------------------------|
E|-----------------------------------------|

                Fm
    |---3---|   |---3---|   |---3---|   |---3---|
    E   E   E   E   E   E   E  E   E   E   E   E
e|--16----------------------------------------------|
B|------18--16--18--16------16----------------------|
G|----------------------17------17--15--17--15--13--|
D|--------------------------------------------------|
A|--------------------------------------------------|
E|--------------------------------------------------|

               G#     B Bb
   |---3---|   |---3---|   |---3---|   |---3---|
   E   E   E   E   E   E   E  E   E   E   E   E
--------------------------------------------------|
--------------------------------------------------|
--15--13------13----------------------------------|
----------15------15--13--15--13------13----------|
----------------------------------15------15--13--|
--------------------------------------------------|

               Fm  Bb B Bb                           
    Fm     G#
    |---3---|   |---3---|  |---3---|  |--3--|     |--3--|  |--3--|
    E   E   E   E   E   E  
  E   E  E  E  E     E  E  
 E  E  E  H
e|----------------------------------------------|------------------------------|
B|----------------------------------------------|-----------4-----4--6~--------|
G|----------------------------------------------|--5--3--5-----5---------------|
D|-------------------------------------8--6--8--|------------------------------|
A|--15--13--11--13--11--10--8--10--11-----------|------------------------------|
E|----------------------------------------------|------------------------------|

                     Fm
    |---3---|   |---3---|   |---3---|   |---3---|
    E   E   E   E   E   E   E  E   E   E   E   E
e|--20--16--16----------16--20--16--------------16--|
B|------------------18--------------18------18------|
G|--------------17----------------------17----------|
D|--------------------------------------------------|
A|--------------------------------------------------|
E|--------------------------------------------------|

                    G#    B Bb
    |---3---|   |---3---|   |---3---|   |---3---|
    E   E   E   E   E   E   E  E   E   E   E   E
e|--20--16--------------16--20--16--------------16--|
B|----------18------18--------------18------18------|
G|--------------17----------------------17----------|
D|--------------------------------------------------|
A|--------------------------------------------------|
E|--------------------------------------------------|

                   Fm     Bb B Bb
    |---3---|   |---3---|   |---3---|   |---3---|
    E   E   E   E   E   E   E  E   E   E   E   E
e|--20--16--------------16--20--16--------------16--|
B|----------18------18--------------18------18------|
G|--------------17----------------------17----------|
D|--------------------------------------------------|
A|--------------------------------------------------|
E|--------------------------------------------------|

                  Fm     G#
    |---3---|   |---3---|
    E   E   E   E   E   E   
  S  S  S  S  S  S
e|--20--16--------------16--20--16-16-16-16-16-16-|
B|----------18------18----------------------------|
G|--------------17--------------------------------|
D|------------------------------------------------|
A|------------------------------------------------|
E|------------------------------------------------|

                   Fm
    E   S  S  E   S  S  E   S  S  S  S  S  S
e|--20--16-16-21--------20-----18-18-18-18-18-|
B|----------------21-21-----21----------------|
G|--------------------------------------------|
D|--------------------------------------------|
A|--------------------------------------------|
E|--------------------------------------------|

                   G#    B Bb
    S  S  S  S  S  S  S  S  S  S  S  S  E   E
e|--16-16-18-18-18-18-18-18-16-16-18-18-15--13--|
B|----------------------------------------------|
G|----------------------------------------------|
D|----------------------------------------------|
A|----------------------------------------------|
E|----------------------------------------------|

                  Fm     Bb B Bb
    E   S  S  S  S  S  S  E   S  S  S  S  S  S
e|--16--18-18-18-18-18-18-16--18-18-18-18-18-18-|
B|----------------------------------------------|
G|----------------------------------------------|
D|----------------------------------------------|
A|----------------------------------------------|
E|----------------------------------------------|

                  Fm    G#                           Fm--Eb-C#-C--G#-Eb/G
    E   S  S  S  S  S  S  S  S  S  S  S  S  S  S     W
e|--20--18-18-18-18-18-18-20-20-18-18-21-21-18-18-|--23b----------------|
B|------------------------------------------------|---------------------|
G|------------------------------------------------|---------------------|
D|------------------------------------------------|---------------------|
A|------------------------------------------------|---------------------|
E|------------------------------------------------|---------------------|


(Repeat Intro Part 2 twice only)


Verse 3:
       Fm
Take a look at yourself
   G#         B Bb
as time keeps racing
   Fm              Bb B Bb  Fm G#
Is all you've come to       be
     Fm
What you expected or are
G#        B  Bb   Fm     Bb B 
Fm  G#
you still chasing possibili------ties
      Fm  Eb   C# G#
Cause all your prayers won't
C                 Fm E   Fm
save you from the bitter end
     Fm  Eb   C#    G#
Well who will greet you
     C             Fm E
when you're at the bitter end


(Repeat Intro Part 2)


Outro: Fm--G#--G--F#

_______________________________________________

7.) Open Your Eyes

Key: G#

Tuning: Standard EADGBe

Chords used:
Fm - 133111
C# - x46664
G# - 466544
Eb - x68886


Intro:
Fm
Lately
I'm not quite myself
C#
Maybe
I do need some help
G#
  Just my confusion
Eb
  Trust my delusion
Fm
Don't you
Regret you met me
C#
Go through
These steps to get me
G#
  Back to where we start
Eb
  Fore I fall apart


Verse 1:
           Fm
If I could black out
It'd become so clear
 C#
Standing face-to-face
with everything I fear
G#
Watch so closely
     Eb
But still I don't see
   Fm
As bad as it seems
A piece of mind I steal
   C#
An ordinary life
But consequences real
    G#                  Eb
I'm past the point of reality


Dave: While Doing Verses
     Fm         C#       G#    Eb
e|---------|-----------|-----|-----|
B|---------|-----------|-----|-----|
G|----3--5-|----3--6-5-|-6-5-|-6-5-|
D|-3-------|-3---------|-----|-----|
A|---------|-----------|-----|-----|
E|---------|-----------|-----|-----|

     Fm         C#        G#          Eb
e|---------|---------|---------|---------------|
B|-6-6-6-6-|-6-6-6-6-|-4-4-4-4-|---------------|
G|-5-5-5-5-|-5-5-5-5-|-3-3-3-3-|-13------------|
D|---------|---------|---------|--x-pick-slide-|
A|---------|---------|---------|-11------------|
E|---------|---------|---------|---------------|


Chorus:
           Fm
This isn't me
This isn't you
When it's just
C#
everything we do
         G#
Till you open
up your eyes
          Eb
And understand
this isn't real
           Fm
This isn't me
This isn't you
        c#
This is everything
but true
        G#
Till we come
to realize
             Eb
It's what we put
each other through


Verse 2:
            Fm
It's like a bad dream
Coming all so true
C#
Leaving me with
nothing else left to do
G#
Now so helpless
    Eb
I'm not so selfish
Tell me
Fm
How does it feel to
have a face like that
C#
How does it feel to be
replaced like that
G#
Now so faceless
   Eb
Do you still feel


(Repeat Chorus)


Bridge:
Fm     C#                    Fm
  It's hard to believe right now
C#
This seem to be real
Fm      C#
  Still phasing by this time
Fm  C#           (hold) (pickslide)
  So why can't I wake up


Dave: Lead Solo x2
              Fm                                 C#
    Q       Q       Q       Q          Q       Q       Q       Q
E|----------------------------------|----------------------------------|
B|----------------------------------|----------------------------------|
G|--------------------------15b~----|--17b~----18b~----17b~----18b~----|
D|--15b~----17b~----18b~------------|----------------------------------|
A|----------------------------------|----------------------------------|
E|----------------------------------|----------------------------------|

                          G#
               Weird Effects
               PM            PM PMPM PM PM PM PM PM PM PM
     E    S S S  S             S  S S  S  S  S  S  S  S  S
e|----------------------------------------------------------|
B|--------------11------------11-11-9--9--9--8--8--9--9--9--|
G|--20b~--L-L-L--L-------------L--L-L--L--L--L--L--L--L--L--|
D|----------------------------------------------------------|
A|----------------------------------------------------------|
E|----------------------------------------------------------|

                        Eb
    PM PM PM PM PM PM PM PM PM PM PM PM PM PM PM PM
    S  S  S  S  S  S  S  S  S  S  S  S  S  S  S  S
e|--------------------------------------------------||
B|--8--8--8--6--6--8--8--8--6--6--4--4--4--4--4--4--||
G|--------------------------------------------------||
D|--------------------------------------------------||
A|--------------------------------------------------||
E|--------------------------------------------------||


(Repeat Chorus)

_________________________________________________

8.) Slipping Away

Key: C#

Tuning: Standard EADGBe

Chords used:
C# -   x46664
G# -   466544
Ebm -  x68876
F# -   244322
F#m -  244222


Intro: Ebm--F#-Ebm-F#-C#--Ebm--F#--Ebm-F#

Verse:
    C#  G#    F# Ebm F#m
I'm slipping away
   C# G#    F#  Ebm F#m
In e---very way
  C#      G#   F#  Ebm F#m
I can't  stay awake
(and I don't know why)
    C#  G#    F# Ebm F#m
I'm slipping away
(and I don't know why)


Dave:
    H        S S S S S S E     E   E   E   Q    E  Q
e|-----------2---2---2---1--|--L--13--------------------|-------|-------|
B|-----------2---2---2---2--|--L------14----------------|-------|-------|
G|--------------------------|-------------13----L--L----|-------|-------|
D|--------------------------|---------------------------|-------|-------|
A|--------------------------|---------------------------|-------|-------|
E|--------------------------|---------------------------|-------|-------|

  H        S S S S S S E     E   E   E   Q    E  Q
-----------2---2---2---1--|--L--13--------------------|-------|-------|
-----------2---2---2---2--|--L------14----------------|-------|-------|
--------------------------|-------------13----L--L----|-------|-------|
--------------------------|---------------------------|-------|-------|
--------------------------|---------------------------|-------|-------|
--------------------------|---------------------------|-------|-------|

  H        S S S S S S E     E   E   E   Q    E  Q
-----------2---2---2---1--|--L--13--------------------|-------|-------|
-----------2---2---2---2--|--L------14----------------|-------|-------|
--------------------------|-------------13----L--L----|-------|-------|
--------------------------|---------------------------|-------|-------|
--------------------------|---------------------------|-------|-------|
--------------------------|---------------------------|-------|-------|

  H        S S S S S S E     E   E   E   Q    E  Q
-----------2---2---2---1--|--L--13--------------------|-------||
-----------2---2---2---2--|--L------14----------------|-------||
--------------------------|-------------13----L--L----|-------||
--------------------------|---------------------------|-------||
--------------------------|---------------------------|-------||
--------------------------|---------------------------|-------||


Deryck: Guitar 2:
    E  E  E  E  E  E  E  E    E  E  E  E  E  E  E E
e|--------------------------|--------1-----------1-----|
B|-----2--4--2-----2--4--2--|-----4-----4-----4-----4--|
G|--1-----------1-----------|--1-----------1-----------|
D|--------------------------|--------------------------|
A|--------------------------|--------------------------|
E|--------------------------|--------------------------|

  E  E  E  E  E  E  E  E    E  E  E  E  E  E  E E
--------4--------4--------|--------2-----------1-----|
-----2--------2-----2-----|-----2-----2-----2-----2--|
--3--------3-----------3--|--3-----------1-----------|
--------------------------|--------------------------|
--------------------------|--------------------------|
--------------------------|--------------------------|

  E  E  E  E  E  E  E  E    E  E  E  E  E  E  E E
--------------------------|--------1-----------1-----|
-----2--4--2-----2--4--2--|-----4-----4-----4-----4--|
--1-----------1-----------|--1-----------1-----------|
--------------------------|--------------------------|
--------------------------|--------------------------|
--------------------------|--------------------------|

  E  E  E  E  E  E  E  E    E  E  E  E  E  E  E E
--------4--------4--------|--------2-----------1-----||
-----2--------2-----2-----|-----4-----4-----2-----2--||
--3--------3-----------3--|--3-----------2-----------||
--------------------------|--------------------------||
--------------------------|--------------------------||
--------------------------|--------------------------||


Chorus:
    Ebm
I'm trying to make
   F#
it through each day
    C#
I'm falling apart
       G#
now in every way
    Ebm
I'm finding it
       F#
harder to get by
         C#
Theres a hole in my heart
      G#
And I dont know why
    Ebm             F#
Now I've come to realize


Outro:
    C#  G#    F#(hold)
I'm slipping away


Ending: Ebm--F#--C#--G# x2 Ebm--F#(hold)

___________________________________________

9.) I'm Not The One

Key: E

Tuning: Standard

Chords used:
C#m - x46654
A -   x02220
B -   x24442
F#m - 244222
E -   022100
D -   xx0232


Intro:

Deryck: C#m--A--B--F#m x16

Dave: Will enter at 3rd time up to 8th
     H.           Q       Q    H        Q       Q    H        Q
E||--------------------|--4----0-------------|-------0-------------|
B||---------------2----|----------------2----|--L-------------2----|
G||--------------------|---------------------|---------------------|
D||--------------------|---------------------|---------------------|
A||--------------------|---------------------|---------------------|
E||--------------------|---------------------|---------------------|

  Q    H        Q       Q    H        Q       Q    H        Q
--4----0-------------|-------0-------------|--4----0--------4----|
----------------2----|--L-------------2----|---------------------|
---------------------|---------------------|---------------------|
---------------------|---------------------|---------------------|
---------------------|---------------------|---------------------|
---------------------|---------------------|---------------------|

  H        Q    Q       Q    H        Q       H        H
--0--------0---------|--4----0--------0----|--0-----------------|
----------------2----|---------------------|--------------------|
---------------------|---------------------|--------------------|
---------------------|---------------------|--------------------|
---------------------|---------------------|--------------------|
---------------------|---------------------|--------------------|

  Q    H        Q       H        Q    Q       Q    H        Q
--4----0--------4----|--0--------0---------|-------2-------------|
---------------------|----------------2----|--4-------------2----|
---------------------|---------------------|---------------------|
---------------------|---------------------|---------------------|
---------------------|---------------------|---------------------|
---------------------|---------------------|---------------------|

  Q    H        Q       Q    H        Q       H        Q    Q
-------2--------0----|--4----0--------4----|--0--------0---------|
--L------------------|---------------------|----------------2----|
---------------------|---------------------|---------------------|
---------------------|---------------------|---------------------|
---------------------|---------------------|---------------------|
---------------------|---------------------|---------------------|

  Q    H        Q       Q    H        Q       Q    H        Q
-------2-------------|-------2--------0----|--4----0--------4----|
--4-------------2----|--L------------------|---------------------|
---------------------|---------------------|---------------------|
---------------------|---------------------|---------------------|
---------------------|---------------------|---------------------|
---------------------|---------------------|---------------------|

  H        Q    Q       Q    H        Q       Q    H        Q
--0--------0---------|-------2-------------|-------2--------0----|
----------------2----|--4-------------2----|--L------------------|
---------------------|---------------------|---------------------|
---------------------|---------------------|---------------------|
---------------------|---------------------|---------------------|
---------------------|---------------------|---------------------|

  Q    H        Q       H        Q    Q       Q    H        Q
--4----0--------4----|--0--------0---------|-------2-------------|
---------------------|----------------2----|--4-------------2----|
---------------------|---------------------|---------------------|
---------------------|---------------------|---------------------|
---------------------|---------------------|---------------------|
---------------------|---------------------|---------------------|

  Q    H        S S E
-------2--------L---4--||
--L-----------------5--||
--------------------6--||
-----------------------||
-----------------------||
-----------------------||

Verse 1:
             E  C#m
Welcome to obsession
It makes the
world go round
E C#m
  We're made up by
the people we surround
E  C#m
So We live and die
for shit we don't need
E      C#m
  Well maybe it's
the price of envy
E C#m
  With these eyes I
look out for me
    E        C#m
But everyone fades
away who don't see
E         C#m
Nothing's gonna change
Why We're going
down in flames So
E       C#m
I'm not the one


Chorus:
               C#m
Don't wait for me
Cause I won't
         A
just sit by
               E
While you just bleed
                  B
Myself and others dry
               C#m
Don't wait for me
                   A
To be there in the end
               E
When you don't see
The truth you
        B
just pretend
               C#m
Don't wait for me


Dave: Chorus
     E  E  E  E  E  E  E  E    E  E  E  E  E  E  E E
E||--0--0--0--0--------------|--0--0--0--0--2--2--2--2--|
B||--------------4--4--4--4--|--------------------------|
G||--------------------------|--------------------------|
D||--2--2--2--2--------------|--2--2--2--2--4--4--4--4--|
A||--------------6--6--6--6--|--------------------------|
E||--------------------------|--------------------------|

  E  E  E  E  E  E  E  E    E  E  E  E  E  E  E E
--0--0--0--0--------------|--0--0--0--0--2--2--2--2--|
--------------4--4--4--4--|--------------------------|
--------------------------|--------------------------|
--2--2--2--2--------------|--2--2--2--2--4--4--4--4--|
--------------6--6--6--6--|--------------------------|
--------------------------|--------------------------|

  E  E  E  E  E  E  E  E    E  E  E  E  E  E  E E
--4--4--4--4--2--2--2--2--|--0--0--0--0--------------|
--------------------------|--------------4--4--4--4--|
--------------------------|--------------------------|
--6--6--6--6--4--4--4--4--|--2--2--2--2--------------|
--------------------------|--------------6--6--6--6--|
--------------------------|--------------------------|

  E  E  E  E  E  E  E  E    E  E  E  E  E  E  E E
--0--0--0--0--------------|--------------------------|
--------------4--4--4--4--|--------------0--0--0--0--|
--------------------------|--6--6--6--6--------------|
--2--2--2--2--------------|--------------------------|
--------------6--6--6--6--|--4--4--4--4--2--2--2--2--|
--------------------------|--------------------------|

  E  E  E  E  E  E  E  E    E  E  E  E  E  E  E E
--0--0--0--0--------------|--0--0--0--0--2--2--2--2--|
--------------4--4--4--4--|--------------------------|
--------------------------|--------------------------|
--2--2--2--2--------------|--2--2--2--2--4--4--4--4--|
--------------6--6--6--6--|--------------------------|
--------------------------|--------------------------|

  E  E  E  E  E  E  E  E    E  E  E  E  E  E  E E
--0--0--0--0--------------|--0--0--0--0--2--2--2--2--|
--------------4--4--4--4--|--------------------------|
--------------------------|--------------------------|
--2--2--2--2--------------|--2--2--2--2--4--4--4--4--|
--------------6--6--6--6--|--------------------------|
--------------------------|--------------------------|

  E  E  E  E  E  E  E  E    E  E  E  E  E  E  E E
--4--4--4--4--2--2--2--2--|--0--0--0--0--------------|
--------------------------|--------------4--4--4--4--|
--------------------------|--------------------------|
--6--6--6--6--4--4--4--4--|--2--2--2--2--------------|
--------------------------|--------------6--6--6--6--|
--------------------------|--------------------------|

  E  E  E  E  E  E  E  E    E  E  E  E  E  E  E E
--0--0--0--0--------------|--------------------------||
--------------4--4--4--4--|--------------0--0--0--0--||
--------------------------|--6--6--6--6--------------||
--2--2--2--2--------------|--------------------------||
--------------6--6--6--6--|--4--4--4--4--2--2--2--2--||
--------------------------|--------------------------||


Verse 2:
              E C#m
What is the solution
We already know
E         C#m
  There's no telling
how far this could go
  E       c#m
No You're near your time
but you just don’t see
E       C#m
  Cause you’re just
Part of this game
E         C#m
  There's nothing you
can do to save yourself
    E          C#m
You leave your life in
the hands of someone else
       E     C#m
You'll never let it go
Why It's the only
way you know Know
E       C#m
I'm not the one


(Repeat Chorus)


Bridge:
C#m x2 A        B
       When did we begin
C#m x2    A      B
       To let ourselves give in
C#m x2 A        B
       How'd it come to this
C#m x2 A   B     C#m---D x8
       Miserable bliss


Dave: while doing Bliss
      E  E  E  E  E  E  E 
E     E  E  E  E  E  E  E E
E||---------------------------|--------------------------|
B||---------------------------|--------------------------|
G||---------------------------|--2--------1-----------1--|
D||---------6--------4--------|--------------------4-----|
A||--/4--4-----4--4-----4--4--|-----4--4-----4--4--------|
E||---------------------------|--------------------------|

  E  E  E  E  E  E  E  E    E  E  E  E  E  E  Q      
E  E  E  E  E  E  E  E
--------------------------|-------------------------|--------------------------|
--------------------------|-------------------------|--------------------------|
--------1-----------------|--2--1-----1-------------|--------1-----------------|
-----------------4--------|--------4-----4--2--4----|-----------------4--------|
--4--4-----4--4-----4--4--|-------------------------|--4--4-----4--4-----4--4--|
--------------------------|-------------------------|--------------------------|

  E  E  E  E  E  E  E  
    E  E  E  E  E  E  E  
    E  E  E  E  E  E  Q
--------------------------|--------------------------|-------------------------|
--------------------------|--------------------------|-------------------------|
--2--------1-----------1--|--------1-----------------|--2--1-----1-------------|
--------------------4-----|-----------------4--------|--------4-----4--2--4----|
-----4--4-----4--4--------|--4--4-----4--4-----4--4--|-------------------------|
--------------------------|--------------------------|-------------------------|

  E  E  E  E  E  E  E  E    E  E  E  E  E  E  E E
--------------------------|--------------------------|
--------------------------|--------------------------|
--------1-----------------|--2--------1-----------1--|
-----------------4--------|--------------------4-----|
--4--4-----4--4-----4--4--|-----4--4-----4--4--------|
--------------------------|--------------------------|

  E  E  E  E  E  E  E  E    E  E  E  E  E  E  Q      
E  E  E  E  E  E  E  E
--------------------------|-------------------------|--------------------------|
--------------------------|-------------------------|--------------------------|
--------1-----------------|--4--2--1--2--1-----1----|--------1-----------------|
-----------------4--------|-----------------4-------|-----------------4--------|
--4--4-----4--4-----4--4--|-------------------------|--4--4-----4--4-----4--4--|
--------------------------|-------------------------|--------------------------|

  E  E  E  E  E  E  E  
    E  E  E  E  E  E  E  
    E  E  E  E  E  E  Q
--------------------------|--------------------------|-------------------------|
--------------------------|--------------------------|-------------------------|
--2--------1-----------1--|--------1-----------------|--4--2--1--2--1-----1----|
--------------------4-----|-----------------4--------|-----------------4-------|
-----4--4-----4--4--------|--4--4-----4--4-----4--4--|-------------------------|
--------------------------|--------------------------|-------------------------|

  Q    E  E  Q    E  E     Q    E  E E  E  Q       Q    E  E  Q    E  E
------------------------|------------------------|------------------------|
------------------------|-------------0--0--0----|------------------------|
------------------------|------------------------|------------------------|
--2----2--4--2----2--4--|--2----2--4--2----------|--2----2--4--2----2--4--|
------------------------|------------------------|------------------------|
------------------------|------------------------|------------------------|

  Q    E  E  E  E  Q       Q    E  
 Q    E  E     Q    E  E  E  E  Q
------------------------|------------------------|------------------------|
-------------0--0--0----|------------------------|-------------0--0--0----|
------------------------|------------------------|------------------------|
--2----2--4--2----------|--2----2--4--2----2--4--|--2----2--4--2----------|
------------------------|------------------------|------------------------|
------------------------|------------------------|------------------------|

  Q    E  E  Q    E  E     Q    E  
 E  E  Q       W
------------------------|------------------------|-------------------|
------------------------|------------------------|-------------------|
------------------------|-------------1--1--1----|-------------------|
--2----2--4--2----2--4--|--2----2--4--2----------|-------------------|
------------------------|------------------------|-------------------|
------------------------|------------------------|-------------------|

  Q    Q    H
------------7\--------||
----------------------||
----------------------||
----------------------||
----------------------||
----------------------||


Verse 3:
C#m                  D
  Just take the rest of
C#m                  D
  Just take the best of me
C#m                  D
  Just take the rest of
C#m                  D
  Just take the best of me


Deryck Screams:
C#m                   D
Just take the best of me!!!
C#m                   D
Just take the best of me!!!
C#m                   D
Just take the best of me!!!
C#m
Just take the best!!!


(Repeat Chorus)


Outro: C#m x4, D(hold)

_________________________________________________

10.) Welcome To Hell

In this song, bassist CONE MCCASLSIN finally show his true bass skills!!!
You will observe that this song is very diffiult to play in bass
because of the very fast bass lines!!!
if you're a beginner!!! but as for Con, this is very easy to him
He can now match Rancid's MATT FREEMAN's skills!!!

Key: F#

Tuning: Standard EADGBe

Chords used:
Ebm - x68876
F# -  244322
C# -  x46664
B -   x24442
Bbm - x13321


Intro: Ebm--C#-Ebm--F#--C#-- x2


Verse 1:
Ebm          C# Ebm     C#
  Don't come to me with your
Ebm        C#    Ebm
problems I don't need them
F#                C#
  Your conscience is a
            F#      Ebm
weight that I won't hold
Ebm       C#   Ebm C#
  You'd rather be  the
Ebm      C#  Ebm
only one who pretends
F#      C#
  Is it cause you've been
F#         Ebm     (Repeat Intro)
bought and sold so young!!!


Verse 2:
Ebm         C# Ebm       C#
  Don't ask me questions cause
Ebm         C#  Ebm
I don't got the answers
F#   C#
  If you only knew
     F#         Ebm
what time would tell
Ebm        C# Ebm  C#  Ebm
  It's all a  test and lessons
     C#  Ebm
that you can't learn
F#            C#
  You'll know when you
           F#      Ebm
spend your time in hell


Cone: Verses
G|-----------------------------------------------------------------|
D|-----------------------------------------------------------------|
A|-6-6-6-4-6-6-6-4-6-6-6-4-6-6-6-6---------4-4-4-4-6-6-6-6-6-6-6-6-| x2
E|---------------------------------2-2-2-2-------------------------|

Cone: "So Young!!"
G|-----------------------------------|
D|-----------------------------------|
A|-6-6-6-4--6-6-6-4----------4-4-4-4-| x2
E|-------------------2-2-2-2---------|


Chorus:
So as your
B
blood's running
F#        C#
thin your time's
        Ebm
running out
B
No one will
   F#
be listening
    C#
not even when
    Ebm
you shout
          B
When your angels
turn to
F#
devils you'll
C#             Ebm
finally figure out
     Ebm    Bbm
That no one will be
F#       C#
with you in the end


Cone: Chorus
G|------------------------------|-------------------------------|
D|------------------1-3-4-3-1-3-|---------------11--1-3-4-3-1-3-|
A|-2-2-2---------4--------------|-2-2-2-------------------------|
E|--------2-2-2-----------------|--------2-2-2------------------|
               x2

G|---------------------------------|
D|---------------------------------|
A|-6-6-6-6-1-1-1-1---------4-4-4-4-|
E|-----------------2-2-2-2---------|


Cone: Bass Solo 1, moderately fast!!!
G|---------------------------------|-8-8-8-8-8-8-8-8-8-8-8-8-8-8-8-8-|
D|-1-1-1-1-1-1-1-1-4-4-4-4-6-6-6-6-|---------------------------------|
A|---------------------------------|---------------------------------|
E|---------------------------------|---------------------------------|
               x2

G|----------------------------|
D|-6h8p6--4h6p4--3h4p3--1h3p1-|
A|----------------------------|
E|----------------------------|


Verse 3:
Ebm   C# Ebm   C#
  A hypo-crite you're
Ebm       C# Ebm
just a contradiction
F#          C#
  Rapped up in your lies
    F#           Ebm
who knows what's real
Ebm         C# Ebm C#
  Well this is it  your
Ebm         C# Ebm
lonely life of fiction
F#       C#
  Do you even
     F#     Ebm
know how to feel


(Repeat Chorus)


Cone: Bass Solo 2, Very fast and difficult!!! your fingers must be fast here!!!
              Ebm
G|-------3-----------------------|---------------------------------|
D|-1-1-----4-4-4---------------0-|-1-1-1-1-1-1-1-1-4-4-4-4-4-4-4-4-|
A|----------------4-4--4---1-4---|---------------------------------|
E|-----------------------4-------|---------------------------------|
              x14
G|-----------------6-6-6-6-6-6-6-6-|
D|---------------6-----------------|
A|-4-4-4-4-4-4-4-------------------|
E|---------------------------------|


(Repeat Chorus)


Outro:
    Ebm B C#
The end
    Ebm B C#
The end
    Ebm B C#
The end
    Ebm
The end

______________________________________________

11.) Pieces

Tuning: Drop D

Key: F

Chords used: Drop D only
Dm -  000231
Bb -  8-8-10-x-x-x
F -   333xxx
C/E - 232xxx
Gm -  555xxx
C -   10-10-10-x-x-x
A -   777xxx


Chords used: If you want
Dm -  xx0231
Bb -  x13331 or x13311
F -   133211
C/E - 032xxx
Gm -  355333
C -   x32010
A -   x02220


Intro:

Deryck: Dm--Bb--F--C/E


Verse 1:
Dm              Bb
  I tried to be perfect
                F
But nothing was worth it
          C/E
I don't believe
            Dm
it makes me real
                  Bb
I thought it'd be easy
             F
But no one believes me
        C/E
I meant all the
things I said


Chorus:
Bb
  If you believe
           F
it's in my soul
        C/E
I'd say all the
             Bb
words that I know
Just to see if
         F
it would show
         C/E
That I'm trying
           Bb(hold)
to let you know
That I'm better
off on my own


Dave: Chorus
       Bb             F            C/E
e|--------5----|--------5----|--------3----|
B|---6-------6-|---6-------6-|---5-------5-|
G|-7----7------|-5----5------|-5----5------|
D|-------------|-------------|-------------| x2
A|-------------|-------------|-------------|
D|-------------|-------------|-------------|
       x4             x2            x2

Interlude:

Deryck: Dm--Bb--F--C/E

Dave: until Verse 3
     Dm         Bb        F        C/E
e|-5-5-5-5-|-6-6-6-6-|-5-5-5-5-|-3-3-3-3-|
B|-6-6-6-6-|-6-6-6-6-|-6-6-6-6-|-5-5-5-5-|
G|-7-7-7-7-|-5-5-5-5-|-5-5-5-5-|-5-5-5-5-|
D|---------|---------|---------|---------|
A|---------|---------|---------|---------|
D|---------|---------|---------|---------|
     x2         x2        x2       x2


Cone:
         Dm                 Bb                F                  C/E
G|-----------------|-----------------|-----------------|-------------2h5-2---|
D|-----------------|-----------------|-----------------|-----------5-------5-|
A|-----------------|-1-1-1-1-1-1-1-1-|-----------------|---------3-----------|
D|-0-0-0-0-0-0-0-0-|-----------------|-3-3-3-3-3-3-3-3-|-2-2-2-2-------------|


Verse 2:
Dm                 Bb
  This place is so empty
My thoughts are
   F
so tempting
             C/E
I don't know how
          Dm
it got so bad
Sometimes it's
   Bb
so crazy
That nothing
    F
can save me
             Gm
But it's the only
C
thing that I have


(Repeat Chorus)


Bridge:

Deryck: F--Bb-C-F--Bb--Dm--C--Bb--F--Dm--C--Bb--F--A--

Dave:
           F                 Bb          C
e|-5-5-5-6-5-5-5-5-6-|-5-5-5-5-6-8-8-8-|-8-|
B|-6-6-6-6-6-6-6-6-6-|-6-6-6-6-6-6-6-6-|-6-|
G|-------------------|-----------------|---|
D|-------------------|-----------------|---|
A|-------------------|-----------------|---|
D|-------------------|-----------------|---|

           F                  Bb
e|-5-5-5-6-5-5-5-5-6-|-5-5-5-5-6-8-8-8-8-|
B|-6-6-6-6-6-6-6-6-6-|-6-6-6-6-6-6-6-6-6-|
G|-------------------|-------------------|
D|-------------------|-------------------|
A|-------------------|-------------------|
D|-------------------|-------------------|

       Dm          C           Bb        F
e|-------8----|-----10---|-----5-----|-----5---|
B|-10---------|-8--------|-6-----6---|---6---6-|
G|----10---10-|---9----9-|---7-----7-|-5-------|
D|------------|----------|-----------|---------| x2
A|------------|----------|-----------|---------|
D|------------|----------|-----------|---------|

                A
e|-3-3-3-5-3-3-3-5-3-3-3-3-3-3-3-3--|
B|-5-5-5-5-5-5-5-5-5-5-5-5-5-5-5-5--|
G|-------------------------------------------|
D|-------------------------------------------|
A|-------------------------------------------|
D|-------------------------------------------|

(Repeat Verse 1 and Chorus except last 2 lines)


That I'm better
          F(hold)
off on my own

_____________________________________________

12.) There's No Solution

Key: F#

Tuning: Standard EADGBe

Chords used:
Ebm -  x68876
F# -   244322
C# -   x46664
B -    x24442
C#/F - 143xxx
Bbm -  x13321
G#m -  466444


Intro:

Dave: Until Verses
e|-6----6----6----6--6--6--7-|
B|----7----7----7------------|
G|---------------------------|
D|---------------------------| x8
A|---------------------------|
E|---------------------------|

Cone:
   B   C#
G|---|----|
D|---|----|
A|-2-|-4--|
E|---|----|


   Ebm     B     F#   C#/F
G|------|------|----|------|
D|-1----|------|----|----3-|
A|----1-|-2--2-|----|------|
E|------|------|-2--|-1----|


Verse 1:
Ebm
  Maybe nothing else
     B
will ever be so clear
F#                C#/F
  Or maybe that's only my fear
Ebm
  If just for one day
  B
I wish I could disappear
F#             C#/F
  Just take me far from here


Refrain 1:
B           C#               Ebm
  Maybe I'd find out nothing new
B           C#               Ebm
  Maybe I'd end up just like you


Dave: Refrains
      Q.      Q.      E   E     Q.     Q.     E   E
E||--------------------------|-----------------------|
B||--11------11------11--12--|--9------9------9--12--|
G||--------------------------|-----------------------|
D||---8-------8-------8---9--|--6------6------6---9--|
A||--------------------------|-----------------------|
E||--------------------------|-----------------------|

  E  E  E  E  E  E  E  E    E  E  E  E  E  E  E E
--------------------------|---------------------------|
--4--4--4--9--9--9--7--7--|--7--7--7--6--6--6--4--4S--|
--------------------------|---------------------------|
--1--1--1--6--6--6--4--4--|--4--4--4--3--3--3--1--1S--|
--------------------------|---------------------------|
--------------------------|---------------------------|

   Q.      Q.      E   E     Q.     Q.      E   E
--------------------------|------------------------|
--11------11------11--12--|--9------9------11--12--|
--------------------------|------------------------|
---8-------8-------8---9--|--6------6-------8---9--|
--------------------------|------------------------|
--------------------------|------------------------|

   E   E   E   E   E   E   E  E      E   E   E   E   E  E E  E
----------------------------------|-------------------------------||
--11--11--11--11--11--11--11--11--|--11--11--11--11--11-----------||
----------------------------------|-------------------------------||
---8---8---8---8---8---8---8---8--|---8---8---8---8---8-----------||
----------------------------------|-------------------------------||
----------------------------------|-------------------------------||


Chorus:
             Ebm   F#
There's no solution
        C#
Give me truth to
      B
my conviction
             Ebm   F#
Is my own confusion
     C#
Reality or fiction
Bbm    C#
  Am I out of my mind


Interlude:

Deryck: Ebm--B--F#--C#/F

Dave: Same for Intro


Verse 2:
Ebm
  This constant pressure
           B
that keeps hanging over me
F#            C#/F
  It makes me feel so empty
Ebm
  It's more than anything
     B
that I could ever be
F#
  What else could
    C#/F
you take from me


Refrain 2:
B
  It's getting
C#          Ebm
harder to relate
B               C#
  Don't want to make
            Ebm
the same mistakes


(Repeat Chorus)


Bridge:
B               C#
  It took me so long to
find out it's right
Ebm      C#/F     F#
There in front of me
    G#m      B
Too close to see
                   B
What I thought was true
            Bbm
I see right through
               C#
what's killing you


(Repeat Chorus)


Outro:
Ebm
  Maybe nothing else
     B
will ever be so clear
F#                C#/F
  Or maybe that's only my fear
Ebm
  If just for one day I
     F#
wish I could disappear
(Am I out of my mind)
C#             Bbm C#       Ebm
  Just take me far from here

Maybe I'd find out nothing new
Maybe I'd end up just like you
(Am I out of my mind)

__________________________________________

13.) 88

Key: F#

Tuning: Standard EADGBe

Chords used:
Ebm - x688xx or x68876
Ebx - x678xx
C# -  x466xx or x46664
B -   x244xx or x24442
F# -  244xxx or 244322
Bbm - x133xx or x13321
G#m - 466xxx or 466444
Eb -  x68886


Intro: Ebm--B--G#m--Bbm-- x4

Dave:
        Ebm                 B                G#m               Bbm
e|-----------------|-----------------|-----------------|-----------------|
B|-----------------|-----------------|-----------------|-----------------|
G|-----------------|-----------------|-----------------|-------------1-1-|
D|-1-1-4-1-3-1-1-1-|-----4---3---1-1-|-----3---4---3-3-|-----3---4-------| x4
A|-----------------|-2-2---2---2-----|-----------------|-1-1---1---1-----|
E|-----------------|-----------------|-4-4---4---4-----|-----------------|


Verse 1:
Ebm   B        F#        Ebm
Wait, how long would you wait
Ebx      C#    Ebm
Just for me to call
  B        F#      Ebm
I know you make mistakes
        Ebx
yeah but I hope some
C#              F#
day you have it all


Chorus 1:
      Ebm
cause I feel
       C#
like a prisoner
          B
trapped inside this
       F#
broken world
      Ebm
while I'm playing
    C#
the victim again
B             F#
running in circles
   B               F#
to me it's all the same
           C#
and though nothing's
      Ebm
gonna change still
B            C#
  I hope someday
            F#
you have it all


Interlude:

Deryck: 
x2

Dave:
     Q    E  E  E  Q    E     Q    E  E E  Q    E     E  E  E  E  E E  E  E
E||--6----4--6--L--6----4--|--6----4--6--L--6----6--|--4--4--2--2--1--1--------|
B||------------------------|------------------------|--------------------2--2--|
G||------------------------|------------------------|--------------------------|
D||------------------------|------------------------|--------------------------|
A||------------------------|------------------------|--------------------------|
E||------------------------|------------------------|--------------------------|

  E  E  E  E  E  E  E  E    Q    E  E  Q    E  E     Q    E  E Q    E  E
--------------------------|------------------------|------------------------|
--------------------------|-------0--2--L----------|--0----2--0--L----------|
--------------1--1--------|--3---------------3--3--|------------------3--3--|
--3--3--4--4--------3--3--|------------------------|------------------------|
--------------------------|------------------------|------------------------|
--------------------------|------------------------|------------------------|

  E  E  E  E  E  E  E  E    E  E  E  E  E  E  E E
--------------------------|--------------------------||
--------------------------|--------------------------||
--------------------------|--------------------------||
--4--4--3--3--1--1--------|--------------------------||
--------------------4--4--|--1--1--2--4--1--1--1--1--||
--------------------------|--------------------------||


Verse 2:
Ebm
take this aggravation that
     B               F#
I've thrown myself into
Ebm
change this situation just
      B                C#
cause I need something new


Chorus 2:
      Ebm
cause I feel
       C#
like a prisoner
          B
trapped inside this
       F#
broken world
      Ebm
while I'm playing
    C#
the victim again
B             F#
running in circles
   B               F#
to me it's all the same
           C#
and though nothing's
      Ebm
gonna change still
G#m          C#
  I hope someday
            F#
you have it all


Interlude: Ebm--B--G#m--Bbm--Ebm--B--


G#m          Bm
  I hope someday
you have it all


Bridge:

Dave: Ebm all the way
     |---3--|  |--3--|  |---3--|  |--3--|
     E   E  E  E  E  E  E 
 E  E  E  E  E
E||--6h-----------------6h-----------------|
B||------7-----------7------7-----------7--|
G||---------8-----8------------8-----8-----|
D||------------8------------------8--------|
A||----------------------------------------|
E||----------------------------------------|

  |---3--|  |--3--|  |---3--|  |--3--|
  E   E  E  E  E  E  E   E E  E  E  E
--6h-----------------6h-----------------|
------7-----------7------7-----------7--|
---------8-----8------------8-----8-----|
------------8------------------8--------|
----------------------------------------|
----------------------------------------|

  |---3--|  |--3--|  |---3--|  |--3--|
  E   E  E  E  E  E  E   E E  E  E  E
--7p--4-----------4--7p--4--0-----0--4--|
---------5-----5---------------0--------|
------------4---------------------------|
----------------------------------------|
----------------------------------------|
----------------------------------------|

  |---3---|  |---3--|  |---3--|  |---3---|
  E   E   E  E   E  E  E  E  E  E   E   E
--7p--6p--4--6p--4--2--4--2p--1------1h--2--|
---------------------------------4h---------|
--------------------------------------------|
--------------------------------------------|
--------------------------------------------|
--------------------------------------------|

  |---3--|  |--3--|  |---3--|  |--3--|
  E   E  E  E  E  E  E   E E  E  E  E
--6p--2-----------2--6p--2-----------2--|
---------4-----4------------4-----4-----|
------------3------------------3--------|
----------------------------------------|
----------------------------------------|
----------------------------------------|

  |---3--|  |--3--|  |---3--|  |--3--|
  E   E  E  E  E  E  E   E E  E  E  E
--6p--2-----------2--6p--2-----------2--|
---------4-----4------------4-----4-----|
------------3------------------3--------|
----------------------------------------|
----------------------------------------|
----------------------------------------|

  |---3--|  |--3--|  |---3--|  |--3--|
  E   E  E  E  E  E  E   E E  E  E  E
--7p--4--0-----0--4--7p--4--0-----0--4--|
------------0------------------0--------|
----------------------------------------|
----------------------------------------|
----------------------------------------|
----------------------------------------|

  |---3---|  |---3--|  |---3--|  |---3---|
  E   E   E  E   E  E  E  
  E  E   E   E     Q.       E    H
--7p--6p--4--6p--4--2--4--2p--1------1h--2--|-------------------------|
---------------------------------4h---------|--4h------(4)\-----------|
--------------------------------------------|-------------------------|
--------------------------------------------|-------------------------|
--------------------------------------------|-------------------------|
--------------------------------------------|-------------------------|

  PM PM PM PM PM PM PM PM PM PM PM PM PM
  S  S  S  S  S  S  S  S  S  S  S  S  E  E
--------------------------------------------|
--------------------------------------------|
--------------------------------------------|
--------------------------------------------|
--1--1--1--1--1--1--1--1--1--1--1--1--1-----|
--------------------------------------------|

  PM PM PM PM PM    PM PM PM PM PM
  S  S  S  S  E  E  S  S  S  S  E  E
--------------------------------------|
--------------------------------------|
--------------------------------------|
--------------------------------------|
--1--1--1--1--1-----1--1--1--1--1-----|
--------------------------------------|

  PM PM PM PM PM PM PM PM PM PM PM PM
  S  S  S  S  S  S  S  S  S  S  S  S   Q         S S S S S S S S Q    S S S S
--------------------------------------(6)S----|-------------------------------|
--------------------------------------(4)S----|-------------------------------|
--------------------------------------(3)S----|--x----------------------------|
----------------------------------------------|--x---------------4------------|
--1--1--1--1--1--1--1--1--1--1--1--1--(6)S----|------------------4----1-1-1-1-|
----------------------------------------------|--6-6-6-6-6-6-6-6-2------------|

  S S S S Q    S S S S Q       S S S S S S S S Q    S S S S
----------------------------|-------------------------------|
----------------------------|-------------------------------|
----------------------------|-------------------------------|
----------3------------4----|------------------4------------|
--1-1-1-1-3----1-1-1-1-4----|--1-1-1-1-1-1-1-1-4----1-1-1-1-|
----------1------------2----|------------------2------------|

  S S S S Q    S S S S Q       S S S S S S S S Q    S S S S
----------------------------|-------------------------------|
----------------------------|-------------------------------|
----------------------------|-------------------------------|
----------3------------4----|------------------4------------|
--1-1-1-1-3----1-1-1-1-4----|--1-1-1-1-1-1-1-1-4----1-1-1-1-|
----------1------------2----|------------------2------------|

  S S S S Q    S S S S Q       S S S S E  E  S S S S E  E
----------------------------|------------------------------|
----------------------------|------------------------------|
----------------------------|------------------------------|
----------3------------4----|------------------------------|
--1-1-1-1-3----1-1-1-1-4----|--1-1-1-1-1-----1-1-1-1-1-----|
----------1------------2----|------------------------------|

                                       wah wah powa !
                                       W
  S S S S S S S S S S S S  E    E      W                    W
-----------------------------------|---2b----------------|--L----------------|
--------------------------(4)S--L--|--(x)----------------|-------------------|
--------------------------(3)S--L--|--(x)----------------|-------------------|
-----------------------------------|---------------------|-------------------|
--1-1-1-1-1-1-1-1-1-1-1-1--1-------|---------------------|-------------------|
-----------------------------------|---------------------|-------------------|

  W                   H        Q    Q
--L----------------|--L--------L----2\----|
-------------------|----------------------|
-------------------|----------------------|
-------------------|----------------------|
-------------------|----------------------|
-------------------|----------------------|

   A faire avec une pedal de pitch (whammy)
   TP                                       TP   TP    TP  TP  TP
   E.                                       E.   Q     E   E  E
--14---------------------------------------16---14----16--14--16--|
------------------------------------------------------------------|
------------------------------------------------------------------|
------------------------------------------------------------------|
------------------------------------------------------------------|
------------------------------------------------------------------|

   TP   TP   TP    TP  TP  TP
   E.   E.   Q     E   E   E
--14---16---14----16--14--16--|
------------------------------|
------------------------------|
------------------------------|
------------------------------|
------------------------------|

   TP  TP  TP  TP  TP  TP  TP  TP TP  TP  TP  TP
   |---3---|   |---3---|   |---3--|   |---3---|
   E   E   E   E   E   E   E  E  E   E   E   E
--14--14--11--14------------------9--------------|
-------------------------------------11--11------|
------------------13--11--13--11-------------11--|
-------------------------------------------------|
-------------------------------------------------|
-------------------------------------------------|

   TP  TP TP TP TP TP TP TP TP W
   |---3--|  |--3--|  |--3--|
   E   E  E  E  E  E  E  E E  Q        S S S S E  E  S S S S E  E
----------------------4--------------|------------------------------|
--11--11--9--9--7--7-----4--2--4S----|------------------------------|
-------------------------------------|------------------------------|
-------------------------------------|------------------------------|
-------------------------------------|--1-1-1-1-1-----1-1-1-1-1-----|
-------------------------------------|------------------------------|

                                     ^
  S S S S S S S S S S S S  Q         W
----------------------------------|-------------------||
--------------------------(4)S----|--4----------------||
--------------------------(3)S----|--3----------------||
--------------------------(1)S----|--4----------------||
--1-1-1-1-1-1-1-1-1-1-1-1---------|--6----------------||
----------------------------------|--6----------------||

Outro:
Eb--Ebm-C# x4


   Eb             Ebm
if we could all depend
   C#
on what we know
   Eb              Ebm
if you could understand
    C#            Eb
I'm losing control
    C#            Eb
I'm losing control
    C#            Ebm
I'm losing control


Piano: Outro
     Q    Q    Q    Q       W                   Q    Q    Q    Q
E||--3----2----6----3----|--L----------------|--2----3----6----2----|
B||----------------------|-------------------|----------------------|
G||--3-------------------|--L----------------|--1--------------L----|
D||--5-------------------|--L----------------|--4--------------L----|
A||----------------------|-------------------|----------------------|
E||----------------------|-------------------|----------------------|

  W                   Q    Q    Q    Q       W
--4----------------|--3----2----6----3----|--L----------------|
--4----------------|----------------------|-------------------|
-------------------|--3-------------------|--L----------------|
--6----------------|--5-------------------|--L----------------|
-------------------|----------------------|-------------------|
-------------------|----------------------|-------------------|

  Q    Q    Q    Q       W                   Q    Q    Q    Q
--2----3----6----2----|--4----------------|--3----2----6----3----|
----------------------|--4----------------|----------------------|
--1--------------L----|-------------------|--3-------------------|
--4--------------L----|--6----------------|--5-------------------|
----------------------|-------------------|----------------------|
----------------------|-------------------|----------------------|

  W                   Q    Q    Q    Q       W
--L----------------|--2----3----6----2----|--4----------------|
-------------------|----------------------|--4----------------|
--L----------------|--1--------------L----|-------------------|
--L----------------|--4--------------L----|--6----------------|
-------------------|----------------------|-------------------|
-------------------|----------------------|-------------------|

  Q    Q    Q    Q       W                   Q    Q    Q    Q
--3----2----6----3----|--L----------------|--2----3----6----2----|
----------------------|-------------------|----------------------|
--3-------------------|--L----------------|--1--------------L----|
--5-------------------|--L----------------|--4--------------L----|
----------------------|-------------------|----------------------|
----------------------|-------------------|----------------------|

  W                   Q    Q    Q    Q       W
--4----------------|--3----2----6----3----|--L----------------|
--4----------------|----------------------|-------------------|
-------------------|--3-------------------|--L----------------|
--6----------------|--5-------------------|--L----------------|
-------------------|----------------------|-------------------|
-------------------|----------------------|-------------------|

  Q    Q    Q    Q       W                   Q    Q    Q    Q
--2----3----6----2----|--4----------------|--3----2----6----3----|
----------------------|--4----------------|----------------------|
--1--------------L----|-------------------|--3-------------------|
--4--------------L----|--6----------------|--5-------------------|
----------------------|-------------------|----------------------|
----------------------|-------------------|----------------------|

  W                   Q    Q    Q    Q       W
--L----------------|--2----3----6----2----|--4----------------|
-------------------|----------------------|--4----------------|
--L----------------|--1--------------L----|-------------------|
--L----------------|--4--------------L----|--6----------------|
-------------------|----------------------|-------------------|
-------------------|----------------------|-------------------|

  Q    Q    Q    Q       W                   Q    Q    Q    Q
--3----2----6----3----|--L----------------|--2----3----6----2----|
----------------------|-------------------|----------------------|
--3-------------------|--L----------------|--1--------------L----|
--5-------------------|--L----------------|--4--------------L----|
----------------------|-------------------|----------------------|
----------------------|-------------------|----------------------|

  W                   W
--4----------------|--3----------------||
--4----------------|-------------------||
-------------------|--3----------------||
--6----------------|--5----------------||
-------------------|-------------------||
-------------------|-------------------||

________________________________________________________

14.) Noots

Key: G#

Tuning: Standard EADGBe

Chords used:
Fm -   133111
C# -   x46664
G# -   466544
Eb -   x68886
Bbm -  x13321
Eb/G - 365xxx


Intro:

Deryck: Fm--C#--G#--Eb

Dave:
    E  E  E  E  E  E  E.  
   E  E  E  E  E  E  Q
E|--8-----8-----8-----8---8-|--9-----9-----9-----9S----|
B|--9-----9-----9-----9---9-|--9-----9-----9-----9S----|
G|--------------------------|--------------------------|
D|--------------------------|--------------------------| x2
A|--------------------------|--------------------------|
E|--------------------------|--------------------------|


Deryck: Fm--C#--Eb--G#-Eb/G x2

Dave:
 E   E  E  E   E   E  E  E    E  E  E  E   E   E  E E
------------------------------|----------------------------|
----------8--8---9---9--8--8--|--------8--8---9---9--8--8--|
--10--10--0--0----------0--0--|--8--8--0--0----------0--0--|
---x---x--x--x---x---x--x--x--|--x--x--x--x---x---x--x--x--|
---8---8--------11--11--------|--6--6--------11--11--------|
------------------------------|----------------------------|

  E  E  E  E   E   E   E  
E      E   E   E   E   E   E E  E
------------------------------|--------------------------------|
--6--6--8--8---9---9--11--11--|--------------------------------|
--------0--0------------------|--13--13--12--12--10--10--8--8--|
--x--x--x--x---x---x---x---x--|---x---x---x---x---x---x--x--x--|
--8--8--------11--11--13--13--|--11--11--10--10---8---8--6--6--|
------------------------------|--------------------------------|

  E  E  E  E   E   E  E  E    E  E  E  E   E   E  E E
----------------------------|----------------------------|
--6--6--8--8---9---9--8--8--|--------8--8---9---9--8--8--|
--------0--0----------0--0--|--8--8--0--0----------0--0--|
--x--x--x--x---x---x--x--x--|--x--x--x--x---x---x--x--x--|
--8--8--------11--11--------|--6--6--------11--11--------|
----------------------------|----------------------------|

  E  E  E  E   E   E   E  
E      E   E   E   E   E   E E  E
------------------------------|--------------------------------|
--6--6--8--8---9---9--11--11--|--------------------------------|
--------0--0------------------|--13--13--12--12--10--10--8--8--|
--x--x--x--x---x---x---x---x--|---x---x---x---x---x---x--x--x--|
--8--8--------11--11--13--13--|--11--11--10--10---8---8--6--6--|
------------------------------|--------------------------------|


Verse 1:
Fm     G#
  Today is too late
C#
How long do we have to wait
Fm        G#
  Oh no I think she knows
Bbm
  That's why I can't let go
Fm            G#
  I feel this burning inside
C#
  A feeling that no one should know
Fm               G#
This could be so good again
    Bbm
I'd wait here till then


Dave: at "I feel this burning inside"
    E  E  E  E  E  E  E  
    E  E  E  E  E  E  E  
    W
e|--1--1--1-----1--1--1-----|--3--3--3-----3--3--3-----|--6-|
B|--1--1--1-----1--1--1-----|--4--4--4-----4--4--4-----|----|
G|--------------------------|--------------------------|----|
D|--------------------------|--------------------------|----|
A|--------------------------|--------------------------|----|
E|--------------------------|--------------------------|----|


Refrain:
    Eb
But not with this
So now I'll leave with


Dave: Refrain
    E     Q    E  E  E  E  E  E
e|-----------------------|-------------1-----------|
B|--4------4------2S--4--|--L----2--4-----4--2--1--|
G|-----------------------|-------------------------|
D|-----------------------|-------------------------|
A|-----------------------|-------------------------|
E|-----------------------|-------------------------|

  Q.     Q.     E   E     Q    E  E  E  E E  E
-----------------------|-------------1-----------|
--4------4------2S--4--|--L----2--4-----4--2--1--|
-----------------------|-------------------------|
-----------------------|-------------------------|
-----------------------|-------------------------|
-----------------------|-------------------------|


Chorus:
Fm  C#  G#
No apologies
        Eb
I never thought you'd be
   Fm  C#    G#
so Easily deceived
         Eb
Now I'll just hang my head
     C#      Fm      G#     Eb
(I'm falling further out of place)
While I walk with the dead
 C#      Fm     G#     Eb
(all the lies I can't erase)
I'll just hang my head


Post chorus: Fm--C#--Eb--G#-Eb/G

Verse 2:
Fm         G#
  We're mad with regret
C#
  Memories that we'll both forget
Fm            G#
  So far it's been so hard
Bbm
  To cover up these scars
Fm           G#
  I see this falling apart
C#
  It's easy to just let it go
Fm           G#
  No luck between us both
   Bbm
So I keep waiting


(Repeat Refrain and Chorus)


Bridge:
Fm           C#
  What's left to show
G#                  Eb
  It's so bad but I got to know
Fm            C#
  What's right don't know
G#               Eb
  How to find it out on my own


Interlude: Fm--Bbm-Eb x2


Cone's Bass Solo: do it until the end of verse 3
          Fm        Bbm        Eb
G|-8-|-10-------|----8-10-|-8-------|
D|---|----11----|-11------|---11----|
A|---|-------11-|---------|------11-|
E|---|----------|---------|---------|
          x2


Verse 3:
Fm
One by one we all fall down
Bbm
Who's the first one
   Eb
to hit the ground now
Fm
  What's worse to kick or fall
  Bbm        Eb
Or be us standing alone
Fm
  I'll keep your promises if you
Bbm               Eb
  Take back every thing I said
Fm
  I find its got so cold now
Bbm                 Eb            (hold)
  That I've lost my heart and soul


(Repeat Chorus)


Outro: Ebm--B-C#-Ebm


B C#      Ebm--B-C#--Eb(hold)
  Hang my head

__________________________________________

15.) Subject To Change

Key: F#

Tuning: Standard EADGBe

Chords used:
Ebm - x68876
B -   x24442
Bbm - x13321
F# -  244322
C# -  x46664


Intro:

Part 1:

Dave:
     Ebm        B        Bbm
e|-----6---|-----7---|-----6---|
B|-----7---|-----7---|-----7---|
G|---8---8-|---8---8-|---8---8-|
D|-8-------|-9-------|-8-------| x4
A|---------|---------|---------|
E|---------|---------|---------|
     x2


Deryck: Ebm--
Ebm--B-Bb x2


Cone:
  Ebm
G|---
D|---
A|-6-
E|---

        Ebm             B        Bbm
G|-----------------|---------|---------|
D|-1-4-3-4-1-4-3-4-|---4-3-4-|---3---3-|
A|-----------------|-2-------|-1---4---| x2
E|-----------------|---------|---------|


Part 2:


Dave: Ebm
e|---------2---1---|-2---1---2---1---|
B|-----2-----------|-----------------|
G|-----------------|-----------------|
D|-1-1---1---1---1-|---1---1---1---1-|
A|-----------------|-----------------|
E|-----------------|-----------------|
         x3

e|---------2---1---|-4-2-1-2-1-|
B|-----2-----------|-----------|
G|-----------------|-----------|
D|-1-1---1---1---1-|-----------|
A|-----------------|-----------|
E|-----------------|-----------|
         x3


Deryck: Ebm--


Cone:
G|----------------------------|
D|----------------------------|
A|-6-6-6-6-6-6-6-6---| x8
E|----------------------------|


Part 3:

Dave: x2

e|-2-2-1-1-2-2-4-4-2-2-----1-1-----|
B|---------------------4-4-----2-2-|
G|---------------------------------|
D|-4-4-3-3-4-4-6-6-4-4-----3-3-----|
A|---------------------6-6-----4-4-|
E|---------------------------------|


  S S S S S S S S S S S S S S S S    S S S S S S S S S S S S S S S S
--2-2-1-1-2-2-4-4-2-2-1-1---------|--2-2-1-1-2-2-4-4-2-2-----1-1-----|
--------------------------4-4-2-2-|----------------------4-4-----2-2-|
----------------------------------|----------------------------------|
--4-4-3-3-4-4-6-6-4-4-3-3-1-------|--4-4-3-3-4-4-6-6-4-4-----3-3-----|
----------------------------6-4-4-|----------------------6-6-----4-4-|
----------------------------------|----------------------------------|


  S S S S S S S S S S S S S S S S
--2-2-1-1-2-2-4-4-2-2-1-1---------|
--------------------------4-4-2-2-|
----------------------------------|
--4-4-3-3-4-4-6-6-4-4-3-3-1-------|
----------------------------6-4-4-|
----------------------------------|


Deryck: Ebm--C#--B--F#-C#- x2

Cone:
     Ebm        C#        B       F#   C#
G|---------|---------|---------|-----|-----|
D|-1-1-1-1-|---------|---------|-----|-----|
A|---------|-4-4-4-4-|-2-2-2-2-|-----|-4-4-| x2
E|---------|---------|---------|-2-2-|-----|

Verse 1:
Ebm        F#
How can we fake this
    Bbm     C#
And take anymore?
Ebm        F#
Looking up blindly
    Bbm      C#
And try to ignore
     Ebm       F#
It's better to miss it
        Bbm         C#
There's no point of view
     Ebm    F#
It's only a problem
        Bbm        C#
when it happens to you


Dave: Verses
e|---------------------------------|
B|---------------------------------|
G|------------------------------1--|
D|-1-1-1-1-1-4-3-------3-----------|
A|---------------4-1-1---1-4-4---4-| x4
E|---------------------------------|


e|---------------------------------|
B|---------------------------------|
G|---------------------------------|
D|-----------4-3---6-6-6-6-6-6-6-6-|
A|---------------4-4-4-4-4-4-4-4-4-|
E|-1-1-1-1-1-----------------------|

Refrain 1:
     Ebm
Well thanks for
F#     Bbm     C#
making this so easy
Ebm        F#
What's the point
   Bbm     C#
if it's so easy?
Ebm     F#
Why the fuck is
Bbm   C#
it so easy?
Ebm   F# C#
Why's it don't
you say?


Both Deryck and Dave: Refrain
e|---------------------------------|
B|---------------------------------|
G|------------------------------1--|
D|-1-1-1-1-1-4-3-------3-----------|
A|---------------4-1-1---1-4-4---4-| x3
E|---------------------------------|


e|---------------------------------|
B|---------------------------------|
G|---------------------------------|
D|-----------4-3---6-6-6-6-6-6-6-6-|
A|---------------4-4-4-4-4-4-4-4-4-|
E|-1-1-1-1-1-----------------------|


Chorus: also the same chorus with their song UNDERLCASS HERO!!!
    B           F#
Coz we're doing fine
       C#
And we don't need
to be told
    B           F#
And we're doing fine
        C#
Coz' we won't give
you control
       B
And we don't need
F# C#
anything from you
          B       F#
And we'll be just fine
        C#
Coz' we won't be
bought and sold
Just like you


(Repeat Intro Part 3 Once)


Verse 2:
Ebm         F#
Lies in the sender
     Bbm        C#
When nothing is true
Ebm         F#
Don't be surprised
When it all
Bbm           C#
comes back to you
    Ebm      F#
Are you on a mission
   Bbm         C#
To lose our control?
   Ebm
Or waiting for
F#       Bbm  C#
tradgedy to unfold?


Refrain 2:
     Ebm       F#
What makes you think
     Bbm     C#
that it's so easy?
  Ebm     F#
I don't believe
      Bbm   C#
it'll be so easy
Ebm     F#
Why the fuck would
Bbm      C#
it be so easy?
Ebm   F# C#
Why's it don't
you say?


(Repeat Chorus)


Bridge:
Ebm          B
  So how long has this gone
F#        Bbm      C#
  I don't see this ending
Ebm            B
  It's too late we can't change
F#         Bbm   C#
  What has now begun
Ebm          B
  We act like it's not right
F#         Bbm   C#
  What are we protecting
Ebm               B
  We've been wrong for so long
F#                 Bbm C# Ebm(hold)--B--Bbm x2
  We've known this all a--long


Verse 3:
Ebm
  You created these problems
B                    Bbm
  And you don't know what to do
Ebm
  You know you can solve them
B                  Bbm
  But you can't be bothered to
Ebm
  You created these problems
B                    Bbm
  And you don't know what to do
Ebm
  You know you can solve them
B                  Bbm
  But you can't be bothered to


Dave: Verse 3:
e|---------2---1---|-2---1---2---1---|
B|-----2-----------|-----------------|
G|-----------------|-----------------|
D|-1-1---1---1---1-|---1---1---1---1-|
A|-----------------|-----------------|
E|-----------------|-----------------|
         x3

e|---------2---1---|-4-2-1-2-1-|
B|-----2-----------|-----------|
G|-----------------|-----------|
D|-1-1---1---1---1-|-----------|
A|-----------------|-----------|
E|-----------------|-----------|
         x3


Cone: Verse 3:
        Ebm             B        Bbm
G|-----------------|---------|---------|
D|-1-4-3-4-1-4-3-4-|---4-3-4-|---3---3-|
A|-----------------|-2-------|-1---4---| x2
E|-----------------|---------|---------|


(Repeat Chorus)


End on Ebm

_________________________________________

16.) Moron

Key: F#

Tuning: Standard EADGBe

Chords used:
Ebm -  x68876
B -    x24442
F# -   244322
C# -   x46664
E -    022100 or 079900
C#/F - 143xxx


Intro: Ebm-F#-B-C# x4


Verse 1:
Ebm          F#
  It’s hard enough to
     B       C#
even fake a smile
Ebm    F#
  disillusioned
    B    C#
I’m in denial
Ebm
  There’s something
F#            B
missing cause I
      C#     Ebm
can’t feel a thing
F#  B    C#
I’m desensitized


Chorus:
Ebm       B
  You can fake this and
F#        C#/F    Ebm
  I can’t take anymore
    B      F#
I’m not so tough
          C#/F
I can’t ignore
(Repeat)


Post Chorus:
   Ebm E x2
Anymore


Verse 2:
Ebm(hold)
All this confusion
is running deep
inside my head
How long can I
keep this up
before I end up dead?
Ebm        F#
  Can’t believe that it
B             C#
could come to this
Ebm         F#
  It’s only feelings
     B       C#
so I can’t resist
Ebm           F#
  I’m falling deeper
     B
in denial but
C#      Ebm F#
I still try to
  B        C#
Believe in something


(Repeat Chorus)


Outro:
   Ebm F# B C#
Anymore
(Repeat x4)


Ebm--E(hold)
comments
We did not receive enough feedback on this tab! Please rate:
print report bad tab
1 2 3 4 5
I want to post or [tab]
guest
You may want to rate the tab now too:
select rating
Please do not post tabs as comments. Select "correction" instead!