Oops, an error
Loading. Please wait.

Does This Look Infected Bass Tab

3,765 views 12 this week
6 commentsread comments
1 2 3 4 5
excellent!
x 4
add to favorites launch autoscroll
font size
0
reset
Autoscroll
+/-
esc
set tempo
stop
WARNING: You are trying to view
                                    content from Ultimate-Guitar.com
                                    in an unauthorized application,
                                    which is prohibited.

                                    Please use an official Ultimate
                                    Guitar Tabs application for iPhone,
                                    iPad or Android to access legitimate
                                    chords, guitar, bass, and drum tabs
                                    from Ultimate-Guitar.com database.

                                    Type "ultimate guitar tabs" in Apple
                                    App Store's or Android Market's
                                    search to find the application.
Album: Does This Look Infected?
Artists: SUM 41
Tabbed by: Stephen Brown

I have noticed people always tab albums but only for the guitar!!!where the f@@k does the bass go????
so i thought i'd be the one to tab the bass.......

TRACK LIST
1. The Hell Song
2. Over My Head
3. My Direction
4. Still Waiting
5. A.N.I.C.
6. No Brains
7. All Messed Up(no tab)
8. Mr. Amsterdam(no tab)
9. Thanks For Nothing
10. Hyper-Insomnia-Para-Condroid
11. Billy Spleen
12. Hooch

----------------------------------------------------------------------

                            THE HELL SONG (Bassline)
                              As recorded by Sum 41

Gtr I (E A D G) - 'Cone'

 Intro
  Moderately Fast Rock Q=173
 4/4
  Gtr I
  Wx4
|--------||
|--------||
|--------||
|--------||


   Pre-Verse 1
    E E E E Q  E E   E E E E Q  E E   E E E E Q  E E   E E Q  E E Q
||-----------------|----------------|----------------|-----------------||
||o----------------|----------------|----------------|----------------o||
||o----------------|----------------|-2-2-2-2-2--2-2-|----------------o||
||--4-4-4-4-4--4-4-|-0-0-0-0-0--0-0-|----------------|-2-2-2--2-2-2----||


   Verse 1
                                       1.,2.,3.
    PM---------------------------------------------------
    E E E E E E E E   E E E E E E E E   E E E E E E E E
||------------------|-----------------|-----------------|
||o-----------------|-----------------|-----------------|
||o-----------------|-----------------|-2-2-2-2-2-2-2-2-|
||--4-4-4-4-4-4-4-4-|-0-0-0-0-0-0-0-0-|-----------------|


                      4.
 ---------------|
  E E E E E E E E  4x E E +E  E Q.   E   Q.   E E E Q
|------------------||------------------|-----------------||
|-----------------o||------------------|-----------------||
|-----------------o||-2-2-(2)-2-2----2-|-----------------||
|-2-2-2-2-2-2-2-2--||------------------|-2----2-2-2-2----||


   Pre-Verse 2
    E E E E Q  E E   E E E E Q  E E   E E E E Q  E E   E E Q  E E Q
||-----------------|----------------|----------------|-----------------||
||o----------------|----------------|----------------|----------------o||
||o----------------|----------------|-2-2-2-2-2--2-2-|----------------o||
||--4-4-4-4-4--4-4-|-0-0-0-0-0--0-0-|----------------|-2-2-2--2-2-2----||


   Verse 2
                                       1.,2.,3.
    E E E E E E E E   E E E E E E E E   E E E E E E E E
||------------------|-----------------|-----------------|
||o-----------------|-----------------|-----------------|
||o-----------------|-----------------|-2-2-2-2-2-2-2-2-|
||--4-4-4-4-4-4-4-4-|-0-0-0-0-0-0-0-0-|-----------------|


                      4.
                      <
  E E E E E E E E  4x E E +E  E Q.   E   Q  Q  E E +E  E
|------------------||------------------|--------------------||
|-----------------o||------------------|--------------------||
|-----------------o||-2-2-(2)-2-2----2-|--------------------||
|-2-2-2-2-2-2-2-2--||------------------|-2--2--4-2-(2)-4----||


   Chorus 1
    +E  E Q  E E E E   +E  E Q  E E E E
||-------------------|------------------|
||o------------------|------------------|
||o------------------|----------------2-|
||--(4)-4-4--4-4-4-0-|-(0)-0-0--2-0-2---|


                   1.,2.,3.              4.
  +E  E Q  E E Q    E E Q  E E +E  E  4x E E Q  Q  Q
|-----------------|-------------------||--------------||
|-----------------|------------------o||--------------||
|-(2)-2-2--2-2-2--|------------------o||--------------||
|-----------------|-2-2-2--4-2-(2)-4--||-2-2-2--4--2--||


  Interlude
                          >
   E E Q  E E Q    E E Q  Q  Q    Q  Q  E E E E
||---------------|--------------|---------------|
||---------------|--------------|---------------|
||---------------|--------------|---------------|
||-4-4----4-4----|-4-4----4--2--|-4--4--4-4-4-0-|


  +E  E Q  E E Q    Q  Q  E E E E   +E  E Q  E E Q
|-----------------|---------------|-------------------|
|-----------------|---------------|-------------------|
|-----------------|-2--2--2-2-2---|-------------------|
|-(0)-0-0--0-0-0--|-------------2-|-(2)-2-2--2-2-2----|


  Q  Q  E E E E   +E  E Q  E E Q    E E Q  E E Q    E E Q  E E Q
|---------------|-----------------|---------------|---------------|
|---------------|-----------------|---------------|---------------|
|---------------|-----------------|-2-2-2--2-2-2--|---------------|
|-4--4--4-4-4-0-|-(0)-0-0--0-0-0--|---------------|-2-2-2--2-2-2--|


  Q  E E Q  E E   Q  E E E E E E   H    E E E E   +E  E Q  E E Q
|---------------|----------------|--------------|-----------------|
|---------------|----------------|--------------|-----------------|
|---------------|------------x-2-|-2----2-1-----|-----------------|
|-4--x-4-4--x-0-|-0--x-2-2-2-----|----------4-2-|-(2)-2-2--2-2-2--|


  Q  Q  E E E E   +E  E Q  E E Q    E E Q  E E Q    E E Q  E E Q
|---------------|-----------------|---------------|---------------|
|---------------|-----------------|---------------|---------------|
|---------------|-----------------|-2-2-2--2-2-2--|---------------|
|-4--4--4-4-4-0-|-(0)-0-0--0-0-0--|---------------|-2-2-2--2-2-2--|


  H    +E  E +Q     E E +Q   +E  E +Q     E E +Q   +E  E +Q     E E +Q   Q  Q
|----------------|---------------------|---------------------|----------------|
|----------------|---------------------|---------------------|----------------|
|----------------|---------------------|---------------------|----------------|
|-4---(4)-4-(4)--|-4-4-(4)--(4)-4-(4)--|-4-4-(4)--(4)-4-(4)--|-4-4-(4)--4--2--|


   Verse 3
    PM-----------------------|      PM|      PM
    E E Q.   E Q    E E Q.   E Q    E E Q.   E Q
||----------------|---------------|---------------|
||o---------------|---------------|---------------|
||o---------------|---------------|-2-2------2----|
||--4-4------4----|-0-0------0----|---------------|


 1.                 2.
  PM|      PM
  E E Q.   E Q      W          +W           +H     E E +E  E
|----------------||----------|------------|---------------------|
|---------------o||----------|------------|---------------------|
|---------------o||----------|------------|---------------------|
|-2-2------2-----||-2--------|-(2)--------|-(2)----4-2-(2)-4----|


   Chorus 2
    +E  E Q  E E E E   +E  E Q  E E E E   +E  E Q  E E Q    E E E E E E E E
||-------------------|------------------|----------------|-------------------||
||o------------------|------------------|----------------|-4-2-1------------o||
||o------------------|----------------2-|-(2)-2-2--2-2-2-|-------4-2-1------o||
||--(4)-4-4--4-4-4-0-|-(0)-0-0--2-0-2---|----------------|-------------2-4---||


    +E  E Q  E E E E   E E E E E E E E
||-------------------|-----------------|
||o------------------|-2-2-2-2-2-2-2-2-|
||o------------------|-----------------|
||--(4)-4-4--4-4-4-4-|-----------------|


                   1.                   2.
  E E E E E E E E   E E E E E E E E     E E E E E E Q
|-----------------|------------------||----------------|
|-----------------|-4-2-1-----------o||-4-2-1----------|
|-2-2-2-2-2-2-2-2-|-------4-2-1-----o||-------4-2-1----|
|-----------------|-------------2-4--||-------------2--|


   Verse 4                                                              Outro
    E E E E Q  E E   E E E E Q  E E   E E E E Q  E E   E E Q  E E Q   4x W
||-----------------|----------------|----------------|----------------||-----*|
||o----------------|----------------|----------------|---------------o||-----*|
||o----------------|----------------|-2-2-2-2-2--2-2-|---------------o||-----*|
||--4-4-4-4-4--4-4-|-0-0-0-0-0--0-0-|----------------|-2-2-2--2-2-2---||-4---*

-------------------------------------------------------------------------------
                             OVER MY HEAD (Bassline)
                              As recorded by Sum 41


Guitar Intro

G|-------------------------------------|
D|-------------------------------------|
A|-7-7-7-7-10-10-10-10-9-9-9-9-5-5-5-5-| x4
E|-------------------------------------|

Verse
G|----------------------------|
D|----------------------------|
A|-7-7-7\5--5/10-10-10\5-5-5/-| x4
E|----------------------------|
pm     . .

Pre Chorus
G|-----------------------------------------------------------|
D|-----------------------------------------------------------|
A|-3-3-3-3-3-3-3-3/5-5-5-5-5-5-5-5/7-7-7-7-7h10p7-7-7-10-9-5-|
E|-----------------------------------------------------------|

G|---------------------------------------------------------|
D|---------------------------------------------------------|
A|-3-3-3-3-3-3-3-3/5-5-5-5-5-5-5-5/7-7-7-7-7-7-7-7-7-7-7-7-|
E|---------------------------------------------------------|

Chorus part 1
G|-----------------------------------------------------------------|
D|-----------------------------------------------------------------|
A|-----------------3-3-3-3-3-3-3-3-----------------5-5-5-5-5-5-5-5-| x2
E|-0-0-0-0-0-0-0-0-----------------3-3-3-3-3-3-3-3-----------------|

Chorus part 2
G|---------------------|
D|---------------------|
A|-10-10-12-12-7-7-9-9-| x2
E|---------------------|

then.....
Verse
Pre Chorus
Chorus part 1

G|---------------------------------|
D|---------------------------------|
A|---------3-3-3-3---------5-5-5-5-|
E|-0-0-0-0---------3-3-3-3---------|

G|-----------------------------|
D|-----------------------------|
A|---------3-3-3-3-------------|
E|-0-0-0-0---------3-3-3-3-3-3-|

G|---------------------------------|
D|---------------------------------|
A|---------3-3-3-3---------5-5-5-5-|
E|-0-0-0-0---------3-3-3-3---------|

G|---------------------------|
D|---------------------------|
A|---------3-3-3-3--5-5--5-5-|
E|-0-0-0-0-------------------|

G|-----------------------------------------------------------------------|
D|-----------------------------------------------------------------------|
A|-7-7-7-7-7-7-7-7-5-5-5-5-5-5-5-5-10-10-10-10-5-5-5-5-10-10-9-9-7-7-5-5-| x4
E|-----------------------------------------------------------------------|

G|-------------------|
D|-------------------|
A|-10-10-9-9-7-7-5-5-|
E|-------------------|

then...
Chorus part 1
Chorus part 2 x2
                          !!!!!!!!END!!!!!!!!
-------------------------------------------------------------------------------
MY DIRECTION (Bassline)
                              As recorded by Sum 41

Gtr I (Eb Ab Db Gb) - 'Cone'

 Intro    Chorus
  Fast Rock Q=159
       $
       $$
 2/4      4/4
  Gtr I
  H        Q  E E Q  E E   E E E E Q.   E
|------||----------------|-----------------||
|------||o---------------|----------------o||
|------||o-------------2-|---2------------o||
|------||--2----0-0------|-------2-2-------||


                                                         To Coda
                                                         To Coda
  Q  E E Q  E E   E E E E H       Q  E E Q  E E   E E E E Q   Q
|---------------|---------------|-------------4-|---2------------||
|---------------|---2---4-4\----|---------------|-------4-4\-----||
|-------------2-|---------------|---------------|----------------||
|-2----0-0------|---------------|-2----0-0------|----------------||


 Verse
  Faster Q=164
  Wx3          H.       Q       E E +E  E E. S +E  E
|------------|--------------||------------------------||
|------------|--------------||o--------------------9-o||
|------------|--------------||o---9-(9)-9-7--6-(6)---o||
|------------|---------14\--||------------------------||


                         1.
    E E S S E E E S S E   E E S S E E E S S E
||----------------------|----------------------||
||o---------------------|---------------------o||
||o-9-9-9-9-9-9-9-9-9-9-|-7-7-7-7-7S2-2-2-2-2-o||
||----------------------|----------------------||


  2.
                  D.S. al Coda
   E  E  S  S  E  E  S  S  Q
|------------------------------||
|------------------------------||
|-11-11-11-11-11-14-14-14-14\--||
|------------------------------||


   Bridge
    &
    E E E E H      E E Q  E E Q    E E E E H      H    Q  Q
||---------------|---------------|--------------|--------------||
||o--------------|---------------|--------------|-------------o||
||o--------------|--------2-2----|--------------|------2------o||
||--2-2-2--------|-0-0-----------|-2-2-2--------|-0-------0----||


  q  q  q  q    q  q  q  q    q  q  q  q    q  q  q  q
|-------------|-------------|-------------|-------------|
|-------------|-------------|-------------|-------------|
|-------------|-------2--2--|-------------|-------2--2--|
|-2--2--2--2--|-0--0--------|-2--2--2--2--|-4--4--------|


                                       D.S.S. al Dbl. Coda
  q  q  q  q    q  q  q  q    q  q  q  q    E E E E E E E E
|-------------|-------------|-------------|-----------------||
|-------------|-------------|-------------|-----------------||
|-------------|-------2--2--|-------------|---------2-2-2-2-||
|-2--2--2--2--|-0--0--------|-2--2--2--2--|-0-0-0-0---------||


 Interlude
  &&
  E E E E H      W          E E Q  E E E E   E E E E E E Q
|--------------|----------|----------------|----------------|
|-4-4-4--------|----------|-4-4-4----2---4-|---2-------2-2--|
|--------------|----------|----------------|-------2--------|
|--------------|----------|----------------|----------------|


    E E E E E E E E   E E E E E E Q   3x E E E E E E E E   E E E E E E E S S
||------------------|-----------------||-----------------|-------------------|
||o-4-4---2---4---2-|-------2--------o||-4-4---2---4---2-|-------2-----------|
||o-----------------|---2-------2-2--o||-----------------|---2-------2-2-2-2-|
||------------------|-----------------||-----------------|-------------------|


  Q.   S S Q.   S S   E E Q  Q.   S S   Q.   S S Q.   S S   E E Q  Q.   S S
|-------------------|-----------------|-------------------|-----------------|
|-------------------|-----------------|-------------------|-----------------|
|-4----4-4-2----2-2-|-4-----------2-2-|-4----4-4-2----2-2-|-4-----------2-2-|
|-------------------|-----------------|-------------------|-----------------|


                       1.,2.,3.                  4.
    Q.   S S Q.   S S   Q.   S S E S S E S S  4x E S S E   S  S  E  S  S  Q
||--------------------|-----------------------||-----------------------------||
||o-------------------|----------------------o||---------/11-11-11-11-11-11\-||
||o-4----4-4-2----2-2-|-4----4-4-2-2-2-------o||-4-4-4-4---------------------||
||--------------------|----------------2-2-2--||-----------------------------||


 Chorus
  Q  E E Q  E E   E E E E Q.   E   Q  E E Q  E E   E E E E Q    Q
|---------------|----------------|---------------|------------------|
|---------------|----------------|---------------|------------------|
|-------------2-|---2------------|-------------2-|---2--------------|
|-2----0-0------|-------2-2------|-2----0-0------|-------2-2--/14\--|


  Q  E E Q  E E   E E E E H       Q  E E Q  E E   E E E E Q   Q
|---------------|---------------|-------------4-|---2------------*|
|---------------|---2---4-4\----|---------------|-------4-4\-----*|
|-------------2-|---------------|---------------|----------------*|
|-2----0-0------|---------------|-2----0-0------|----------------*|

-------------------------------------------------------------------------------

                            STILL WAITING (Bassline)
                              As recorded by Sum 41
            
Gtr I (E A D G) - 'Cone'

 Intro
  Fast Rock Q=192
 4/4
  Gtr I
  Wx9
|--------||
|--------||
|--------||
|--------||


   Pre-Verse
    Gtr I
    E E Q  E E Q    E E Q  E E Q    E E Q  E E Q    E E Q  E E Q
||----------------|---------------|---------------|-----------------||
||o---------------|---------------|---------------|----------------o||
||o---------------|-3-3-3--3-3-3--|---------------|-3-3-3--2-2-2---o||
||--0-0-0--0-0-0--|---------------|-0-0-0--0-0-0--|-----------------||


   Verse
    $
    PM------------|                   PM------------|
    E E E E E E E E   E q  E q  E E   E E E E E E E E   Q  E Q  E Q
||------------------|---------------|-----------------|---------------|
||o-----------------|---------------|-----------------|---------------|
||o-----------------|---------------|-----------------|---------------|
||--0-0-0-0-0-0-0-0-|-6-5--6-5--3S5-|-0-0-0-0-0-0-0-0-|-3--x-3--x-3---|


                                   1.
  PM------------|                   PM------------------|   PM|   PM
  E E E E E E E E   E q  E q  E E   E E E E E E E E   E E E E E E E E
|-----------------|---------------|-----------------|------------------||
|-----------------|---------------|-----------------|-----------0-0-0-o||
|-----------------|---------------|---------------0-|-2-2-2-2-2-------o||
|-0-0-0-0-0-0-0-0-|-6-5--6-5--3S5-|-3-3-3-3-3-3-3---|------------------||


  2.
  PM----------------------|
  E E E E E E E E   E E E E E E E E   H.      +Q
|-----------------|-----------------|---------------||
|-----------------|-----------------|---------------||
|-----------------|-2-2-2-2-2-2-2-2-|-2-------(2)\--||
|-3-3-3-3-3-3-3-3-|-----------------|---------------||


   Chorus
                                          To Coda
    E E Q  E E Q    E E Q  E E Q    E E Q  E E Q    E E Q  E E Q
||----------------|---------------|---------------|-----------------||
||o---------------|---------------|---------------|----------------o||
||o---------------|-3-3-3--3-3-3--|---------------|-2-2-2--2-2-2---o||
||--0-0-0--0-0-0--|---------------|-3-3-3--3-3-3--|-----------------||


  Pre-Verse
                                              D.S. al Coda
   E E Q  H      E E Q  H      E E Q  H      E E Q  E E Q
||-------------|-------------|-------------|----------------||
||-------------|-------------|-------------|----------------||
||-------------|-3-3-3-------|-------------|-3-3-3--2-2-2---||
||-0-0-0-------|-------------|-0-0-0-------|----------------||


                    Post-Chorus
  &
  E E Q  E E E E     E E E E Q  E E   E E E E Q  E E
|----------------||-----------------|----------------|
|----------------||o----------------|----------------|
|--------2-2-2-2-||o----------------|-3-3-3-3-3--3-3-|
|-2-2-2----------||--0-0-0-0-0--0-0-|----------------|


  E E E E E E E E   E E E E E E E E
|-----------------|------------------||
|-----------------|-----------------o||
|-----------------|-2-2-2-2-2-2-2-2-o||
|-3-3-3-3-3-3-3-3-|------------------||


   Bridge
    Q  E E E E E E   E E E E E E E E   Q  E E E E E E   E E E E E E E E
||-----------------|-----------------|----------------|-------------------||
||o----------------|-----------------|----------------|------------------o||
||o----------------|-3-3-3-3-5-5-5-5-|----------------|-3-3-3-3-5-5-5-5--o||
||--0--0-0-0-0-0-0-|-----------------|-0--0-0-0-0-0-0-|-------------------||


  Interlude
   E E q  H      E E q  H      E E q  H      E E q  H
||-------------|-------------|-------------|-------------|
||-------------|-------------|-------------|-------------|
||-------------|-3-3-3-------|-------------|-2-2-2-------|
||-0-0-0-------|-------------|-3-3-3-------|-------------|


    E E Q  H      E E Q  H      E E Q  H
||--------------|-------------|-------------|
||o-------------|-------------|-------------|
||o-------------|-3-3-3--3----|-------------|
||--0-0-0--0----|-------------|-3-3-3--3----|


 1.                 2.
  E E Q  E Q.       E E Q  E E Q
|----------------||-----------------||
|----------0----o||-----------------||
|-2-2-2--x------o||-2-2-2--2-2-2----||
|----------------||-----------------||


   Verse
    E E Q  H      E E Q  H      E E Q  H
||--------------|-------------|-------------|
||o-------------|-------------|-------------|
||o-------------|-3-3-3--3----|-------------|
||--0-0-0--0----|-------------|-3-3-3--3----|


 1.               2.
  E E Q  H        E E Q  E E Q     H.      +Q
|--------------||---------------||----------------||
|-------------o||---------------||----------------||
|-2-2-2--2----o||-2-2-2--2-2-2--||-2-------(2)\---||
|--------------||---------------||----------------||


   Out-Chorus
    E E Q  E E Q    E E Q  E E Q    E E Q  E E Q
||----------------|---------------|---------------|
||o---------------|---------------|---------------|
||o---------------|-3-3-3--3-3-3--|---------------|
||--0-0-0--0-0-0--|---------------|-3-3-3--3-3-3--|


 1.,2.,3.           4.
  E E Q  E E Q   4x E E Q  E E E E
|----------------||------------------|
|---------------o||------------------|
|-2-2-2--2-2-2--o||--------2-2-2-2---|
|----------------||-2-2-2------------|


  E E E E E E E E   Q  H.
|-----------------|----------*|
|-----------------|----------*|
|-----------------|----------*|
|-0-0-0-0-0-0-0-0-|-0--------*|

-------------------------------------------------------------------------------
                           A.N.I.C
                       Recorded by Sum 41

Sorry but i didn't have the time to tab this song out so i've borrowed a tab!!
INTRO
G|-------
D|-------
A|-------
E|1111-22

You look like.....
G|-------------------
D|------------------- 2x
A|----------5555-2222 
E|2222-5555----------

Bound for agony....
G|---------------------
D|---------------------
A|------------------2--
E|00000-00000-00000---3

You look like.....
G|-------------------
D|------------------- 2x
A|----------5555-2222 
E|2222-5555----------

Bound for agony....
G|---------------------
D|---------------------
A|------------------2--
E|00000-00000-00000---3

Youre an asshole....
G|-------------------
D|------------------- 4x
A|----------5555-2222
E|2222-5555----------

-------------------------------------------------------------------------------
                              NO BRAINS
                           Recorded by Sum 41

Part 1:
G|-------------------------------
D|-------------------------------
A|-------------------------------
D|-2h4-4-4-4--4--0-0-0-0-0-0-0-0-

G|--------------------------------|
D|--------------------------------|
A|--------------------------------|
D|-5h7-7-7-7--7\--2-2-2-2-2-2-2-2-|

Part 2:
G|----------------------------------|
D|----------------------------------|
A|-55555555----------------55555555-|
D|---------2222222244444444---------|

Part 3:
G|----------------------------------|
D|----------------------------------|
A|---------55-544-477-755-5---------|
D|-44-444-4----------------77-766-6-|

Part 4:
G|----------------------------------|
D|----------------------------------|
A|------------------------/99999999-|
D|-4-4-4-4-4-4-4-4-4-4-4-4----------|

Part 5:
G|------------------------------|
D|------------------------------|
A|------------------------------|
D|-4-4-4-4-4-44--444--4-4-4444--|

Part 6:
G|--------------------------------|
D|--------------------------------|
A|--------------------------------|
D|-000000002222222244444444--7-6--|

Part 7:
G|----------------------------------|
D|----------------------------------|
A|----------------------------------|
D|-00000000222222224444444477777777-|

Part 8:
G|----------------------------------|
D|----------------------------------|
A|----------------------------------|
D|-00000000222222224444444444444444-|

Part 9:
G|----------------------------------|
D|----------------------------------|
A|---------55555555-----------------|
D|-44444444--------7777777722222222-|

Part 1 x3
Part 2 x1
Part 3 x2
Part 4 x1
Part 1 x2
Part 5 x1
Part 2 x1
Part 3 x2
Part 6 x2
Part 7 x1
Part 8 x1
Part 3 x2
Part 9 x6
Part 3 x2
Part 6 x2 cuts out

-------------------------------------------------------------------------------
I haven't worked out the tab for all messed up yet and Mr Amsterdam
-------------------------------------------------------------------------------
                          THANKS FOR NOTHING (Bassline)
                              As recorded by Sum 41

Gtr I (E A D G) - 'Cone'

 Intro
  Moderately Fast Q=178
 4/4
  Gtr I
  Wx8
|--------||
|--------||
|--------||
|--------||


   Pre-Verse 1 + 2
    Fast Rock Q=205                  1.
    $
    Q  Q  E E E E   +E  E Q  E E Q    Q  Q  E E E E
||----------------|-----------------|---------------|
||o-0--0--0-0-0---|-----------------|---------------|
||o-------------1-|-(1)-1-1--1-1-1--|-------------3-|
||----------------|-----------------|-1--1--1-1-1---|


                      2.
  +E  E Q  E E Q      Q  Q  E E E E   +E  E Q  Q  Q
|------------------||---------------|----------------||
|-----------------o||---------------|----------------||
|-(3)-3-3--3-3-3--o||-------------3-|-(3)-3-3--3--3--||
|------------------||-1--1--1-1-1---|----------------||


   Verses 1 + 2
                                                       PM|
    E E H.        E E Q  E E Q    E E H.        E E Q  E E Q
||--------------|---------------|-------------|-----------------||
||o-0-0---------|---------------|-------------|----------------o||
||o-------------|-1-1----1-1----|-------------|-3-3----3-3-3---o||
||--------------|---------------|-1-1---------|-----------------||


                                                 1.                2.
    Q  Q  E E Q     Q  Q  E E Q    Q  Q  E E Q    Q  Q  E E Q      H    H
||----------------|--------------|--------------|---------------||-----------||
||o-0--0--0-0-0\--|--------------|--------------|--------------o||-----------||
||o---------------|-1--1--1-1-1--|--------------|-3--3--3-3-3--o||-1----3----||
||----------------|--------------|-1--1--1-1-1--|---------------||-----------||


   Chorus 1 + 2
    H    H      H    H      H    H      Q.   Q  Q.
||------------|-----------|-----------|---------------|
||o-0----0----|-0----0----|-----------|---------0-----|
||o-----------|-----------|-1----1----|-1----3--------|
||------------|-----------|-----------|---------------|


                                         D.S.
  H    H      H    H      H    H      H    H
|-----------|-----------|-----------|------------||
|-----------|-----------|-----------|-----------o||
|-----------|-----------|-3----3----|-1----3----o||
|-1----1----|-1----1----|-----------|------------||


   Interlude
    W          +W           +W           +W
||-----------|------------|------------|---------||
||o-0--------|-(0)--------|-(0)--------|-(0)----o||
||o----------|------------|------------|--------o||
||-----------|------------|------------|---------||


   Bridge Part 1
    TP             TP             TP
    H    E. Q  S   H    E. Q  S   H    E. Q  S
||---------------|--------------|--------------|
||o-0----0-------|--------------|--------------|
||o--------------|-1----1-------|--------------|
||---------------|--------------|-1----1-------|


 1.                 2.
  PM|    PM|        PM--------|
                    |-3-| |-3-|
  E E Q  E E Q      Q Q Q Q Q Q
|----------------||--------------||
|---------------o||--------------||
|---------------o||--------------||
|-0-0-0--0-0-0---||-0-0-0-0-0-0--||


 Bridge Part 2
  TP          TP          TP             PM|    PM|
  H    H      H    H      H    E. Q  S   E E Q  E E Q
|-----------|-----------|--------------|---------------|
|-0----0----|-0----0----|--------------|---------------|
|-----------|-----------|--------------|---------------|
|-----------|-----------|-1----1-------|-0-0-0--0-0-0--|


  TP             TP             TP        PM|
  H    E. Q  S   H    E. Q  S   H    E. S E E   H    H
|--------------|--------------|---------------|-----------||
|-0----0-------|--------------|---------------|-----------||
|--------------|-1----1-------|---------------|-1----3----||
|--------------|--------------|-1----1----x-x-|-----------||


   Chorus 3
    H    H      H    H      H    H      Q.   Q  Q.
||------------|-----------|-----------|---------------|
||o-0----0----|-0----0----|-----------|---------0-----|
||o-----------|-----------|-1----1----|-1----3--------|
||------------|-----------|-----------|---------------|


                                     1.             2.
  H    H      H    H      H    H      H    H        H    Q.   E
|-----------|-----------|-----------|------------||-------------||
|-----------|-----------|-----------|-----------o||-----------0-||
|-----------|-----------|-3----3----|-1----3----o||-1----3------||
|-1----1----|-1----1----|-----------|------------||-------------||


  Post-Chorus
   +Q   Q  E E E E   +E  E Q  E E Q    Q  Q  E E E E   +E  E Q  E E Q
||-----------------|-----------------|---------------|------------------|
||-(0)--0--0-0-0---|-----------------|---------------|------------------|
||---------------1-|-(1)-1-1--1-1-1--|-------------3-|-(3)-3-3--3-3-3---|
||-----------------|-----------------|-1--1--1-1-1---|------------------|


                                     1.,2.
    Q  Q  E E E E   +E  E Q  E E Q    Q  Q  E E E E   +E  E Q  E E Q    3x
||----------------|-----------------|---------------|-------------------||
||o-0--0--0-0-0---|-----------------|---------------|------------------o||
||o-------------1-|-(1)-1-1--1-1-1--|-------------3-|-(3)-3-3--3-3-3---o||
||----------------|-----------------|-1--1--1-1-1---|-------------------||


  3.
  Q  Q  E E Q    Q  Q  Q  Q    W
|--------------|-------------|------*|
|--------------|-------------|-0----*|
|--------------|-3--3--3--3--|------*|
|-1--1--1-1-1--|-------------|------*|

-------------------------------------------------------------------------------
You can work out the order your self

INTRO
-----|-------------------------|
-7-5-|--00--55--88-77-1010-----|
-----|-------------------------|
-----|-------------------------|

VERSE-fill in spares with 2nd string open when singing starts.
|-----------------------------------------|--------------|
|-000000000000-101010101010101010101010-5-|---0---0---0--|
|-----------------------------------------|--------------|
|-----------------------------------------|---/---/---/--|

CHORUS
|----------------------------|---------------------|
|-0---3-0-1010-0-88-0-1010-0-|-0-30-1010-08-80-353-|
|----------------------------|---------------------|
|----------------------------|---------------------|

BRIDGE
|------------------------------------------------------|-------|
|-555555555555-8888888888888-777777777777--------------|-0-3-5-|
|-----------------------------------------333333333333-|-------|
|------------------------------------------------------|-------|

-------------------------------------------------------------------------------
                          Billy Splien
                      as recorded by Sum 41
Tuning:C A G D

intro
---------------------------------------------------------------------
---------------------------------------------------------------------
---------------------------------------------------------------------
222---222-222-222---222-222-222---222-222-222---222-222--22-22-22-22-

verse
-------------------------------------------
-------------------------------------------
-------------------------------------------
2-220-2*---5--5--0--0---------------------- x4

chorus
-------------------------------------------
-------------------------------------------
-2*----5*----------------------------------
----------5*----0*---2*----5--7-----------x2

intro
----------------------------------------------------------------------
----------------------------------------------------------------------
----------------------------------------------------------------------
-222---222-222-222---222-222-222---222-222-222---222-222--22-22-22-22-

bridge
-------------------------------------------------------------------
-------------------------------------------------------------------
-------------------------------------------------------------------
-222-222-222-222-222-222-222-222-222-222-222-222-00000000---55--44-

-----------------------------------------------------------------
-----------------------------------------------------------------
-----------------------------------------------------------------
-222-222-222-222-222-222-222-222-222-222-222-222-00000000---55—4-


order:  intro
	verse x4
	chorus x2
	verse x4
	chorus x2
	intro
	bridge
	verse x4
	chorus x2	
-------------------------------------------------------------------------------

                                HOOCH (Bassline)
                              As recorded by Sum 41

Words and Music by Sum 41
Arranged by Sum 41

Gtr I (D A D G) - 'Cone'

 Intro
  Fast Rock Q=188
 4/4
  Gtr I
  Wx8
|--------||
|--------||
|--------||
|--------||


   Pre-Verse
    E E E E E E E E   E E E E E E E E   E E E E E E E E   E E E E E E E E
||------------------|-----------------|-----------------|-------------------||
||o-----------------|-----------------|-----------------|------------------o||
||o-----------------|-----------------|-----------------|------------------o||
||--2-2-2-0-2-2-2-0-|-2-2-2-0-2-2-2-0-|-5-5-5-5-5-5-5-5-|-0-0-0-0-0-0-0-0---||


   Verse
    $
        PM|   PM--|       PM|   PM-----------------------
    E E E E E E E E   E E E E E E E E   E E E E E E E E
||------------------|-----------------|-----------------|
||o-----------------|-----------------|-----------------|
||o-----------------|-----------------|-----------------|
||--0h2-2-2-2-2-2-2-|-0h2-2-2-2-2-2-2-|-5-5-5-5-5-5-5-5-|


 1.                   2.
 ---------------|
  E E E E E E E E     E E E E E E Q
|------------------||-------------------|
|-----------------o||-------------------|
|-----------------o||-------------------|
|-0-0-0-0-0-0-0-0--||-0-0-0-0-0-0-7\----|


      PM|   PM--|       PM|   PM--|     PM--|   PM--|     PM--|   PM--|
  E E E E E E E E   E E E E E E E E   E E E E E E E E   E E E E E E E E
|-----------------|-----------------|-----------------|-----------------|
|-----------------|-----------------|-----------------|-----------------|
|-----------------|-----------------|-----------------|-----------------|
|-0h2-2-2-2-2-2-2-|-0h2-2-2-2-2-2-2-|-5-5-5-5-5-5-5-5-|-0-0-0-0-0-0-0-0-|


                                      <
      PM|   PM--|       PM|   PM--|
  E E E E E E E E   E E E E E E E E   E E E E E E E E   E E E E E E E E
|-----------------|-----------------|-----------------|-----------------||
|-----------------|-----------------|-----------------|-----------------||
|-----------------|-----------------|-----------------|-----------------||
|-0h2-2-2-2-2-2-2-|-0h2-2-2-2-2-2-2-|-5-5-5-5-5-5-5-5-|-0-0-0-0-0-0-0-0-||


   Chorus
    Q  Q  H      Q  Q  H      E E E E E E E E   E E E E E E E E
||-------------|------------|-----------------|------------------|
||o------------|------------|-----------------|------------------|
||o------------|------------|-----------------|------------------|
||--2--0-------|-2--0-------|-5-5-5-5-5-5-5-5-|-4-4-4-4-4-4-4-4--|


                                                        D.S.
  Q  Q  H      Q  Q  H      E E E E E E E E   E E E E E E E E
|------------|------------|-----------------|------------------||
|------------|------------|-----------------|-----------------o||
|------------|------------|-3-3-3-3-3-3-3-3-|-----------------o||
|-2--0-------|-2--0-------|-----------------|-0-0-0-0-0-0-0-0--||


  Post-Chorus
   E E E E E E E E   E E E E E E E E   E E E E E E E E   E E E E E E E E
||-----------------|-----------------|-----------------|------------------|
||-----------------|-----------------|-----------------|------------------|
||-----------------|-----------------|-----------------|------------------|
||-2-2-2-0-2-2-2-0-|-2-2-2-0-2-2-2-0-|-5-5-5-5-5-5-5-5-|-0-0-0-0-0-0-0-0--|


  E E E E E E E E   E E E E E E E E   Q  Q  Q  Q    Q   Q   Q   E  +E
|-----------------|-----------------|-------------|---------------------||
|-----------------|-----------------|-------------|---------------------||
|-----------------|-----------------|-------------|---------------------||
|-2-2-2-0-2-2-2-0-|-2-2-2-0-2-2-2-0-|-1S=3S=5S=7S=|=9S=12S=15S=18-(18)\-||


   Guitar Solo
    Q  Q  Q  Q    +Q   H.        E E E E H      E E E E H
||--------------|--------------|--------------|---------------||
||o-------------|--------------|--------------|--------------o||
||o-------------|--------------|--------------|--------------o||
||--4--5--7--0--|-(0)--0-------|-9-9-9-9-9----|-5-5-5-5-5-----||


    Q  Q  Q  Q    +Q   Q  H      E E E E H      E E E E H
||--------------|--------------|--------------|---------------||
||o-------------|--------------|--------------|--------------o||
||o-------------|--------------|--------------|--------------o||
||--4--5--7--0--|-(0)--0--0----|-9-9-9-9-9----|-5-5-5-5-5-----||


             Outro
 3/4         6/4
  Q  Q  Q     W.              +W.              +W.              +W.
|----------||---------------|----------------|----------------|--------|
|----------||---------------|----------------|----------------|--------|
|----------||---------------|----------------|----------------|--------|
|-4--5--7--||-0-------------|-(0)------------|-(0)------------|-(0)----|


    W.              H.      Q  Q  Q    W.              W        Q  Q
||----------------|------------------|---------------|------------------|
||o---------------|------------------|---------------|------------------|
||o---------------|------------------|---------------|-------------0----|
||--5-------------|-5-------5--5--4--|-0-------------|-0--------0-------|


  W.              H.      Q  Q  Q    W.              W        Q  Q     4x
|---------------|------------------|---------------|-------------------||
|---------------|------------------|---------------|------------------o||
|-2-------------|-2-------2--2--0--|---------------|------------------o||
|---------------|------------------|-0-------------|-0--------0--4-----||


  W.              H.      Q  Q  Q    W.              +W.
|---------------|------------------|---------------|--------*|
|---------------|------------------|---------------|--------*|
|---------------|------------------|---------------|--------*|
|-5-------------|-5-------5--5--4--|-0-------------|-(0)----*|
-------------------------------------------------------------------------------
!!!THATS ALL HOPE YOU LIKE IT SOME TABS MISSING BUT WHAT THE HECK YOU DO IT!!!
-------------------------------------------------------------------------------
Duration Legend
---------------
W - whole; H - half; Q - quarter; E - 8th; S - 16th; T - 32nd; X - 64th; a - acciaccatura
+ - note tied to previous; . - note dotted; .. - note double dotted
Uncapitalized letters represent notes that are staccato (1/2 duration)
Irregular groupings are notated above the duration line
Duration letters will always appear directly above the note/fret number it represents the
duration for.  Duration letters with no fret number below them represent rests.  Multi-
bar rests are notated in the form Wxn, where n is the number of bars to rest for.  Low
melody durations appear below the staff

Tablature Legend
----------------
 h   - hammer-on
 p   - pull-off
 b   - bend
 pb  - pre-bend
 r   - bend release (if no number after the r, then release immediately)
 /\  - slide into or out of (from/to "nowhere")
 s   - legato slide
 S   - shift slide
  - natural harmonic
[n]  - artificial harmonic
n(n) - tapped harmonic
 ~   - vibrato
 tr  - trill
 T   - tap
 TP  - trem. picking
 PM  - palm muting
\n/  - tremolo bar dip; n = amount to dip
 \n  - tremolo bar down
 n/  - tremolo bar up
/n\  - tremolo bar inverted dip
 =   - hold bend; also acts as connecting device for hammers/pulls
 <>  - volume swell (louder/softer)
 x   - on rhythm slash represents muted slash
 o   - on rhythm slash represents single note slash

Misc Legend
-----------
 |  - bar
||  - double bar
||o - repeat start
o|| - repeat end
*|  - double bar (ending)
 :  - bar (freetime)
 $  - Segno
 &  - Coda
Tempo markers -  = BPM(8/16=s8/s16), where s8 = swing 8ths, s16 = swing 16thsv
-------------------------------------------------------------------------------
comments
print report bad tab
6 comments total. Showing first comments.
0 reply
Drunken Sk8er wrote on August 6 2003, 12:00 am

u really ruck and when i mean suck u suck

0 reply
shellybasser wrote on October 3 2003, 12:00 am

now see here the 1st chorus in Still waiting goes:

----------------------------------------------
-22222222------------------------------------- x2
----------33333333----------22222222----------
-------------------33333333-------------------

0 reply
Patty16 wrote on November 13 2005, 11:29 am

ok but not the best

I want to post or [tab]
guest
You may want to rate the tab now too:
select rating
Please do not post tabs as comments. Select "correction" instead!