Oops, an error
Loading. Please wait.

Fat Lip Tab

35,427 views 42 this week
34 commentsread comments
1 2 3 4 5
accurate
x 64
Autoscroll
+/-
esc
set tempo
stop
Contributor
Hey! There's an official Ultimate Guitar app which is ideal
for learning songs when you're away from computer. Get the app
WARNING: You are trying to view
                                    content from Ultimate-Guitar.com
                                    in an unauthorized application,
                                    which is prohibited.

                                    Please use an official Ultimate
                                    Guitar Tabs application for iPhone,
                                    iPad or Android to access legitimate
                                    chords, guitar, bass, and drum tabs
                                    from Ultimate-Guitar.com database.

                                    Type "ultimate guitar tabs" in Apple
                                    App Store's or Android Market's
                                    search to find the application.
Tabbed by:GuitarMaster41
E-Mail:LukeMaster41@aol.com

Artist:Sum 41
Album:All Killer No Filler
Song:Fat Lip

Tuning:EBGDAD

/ = SLIDE UP
\ = SLIDE DOWN
h = HAMMER ON
p = PULL OFF
. = PALM MUTE

Q = 98

--------------------
Intro:
--------------------

Guitar 1
E|------------------|--------------------|------------------|--------------------|
B|------------------|--------------------|------------------|--------------------|
G|------------------|--------------------|------------------|--------------------|
D|-------6----------|-------6------------|-------6----------|-------6------------|
A|----------------9-|----------------9-7-|----------------9-|----------------9-7-|
D|-6-7-9----6-7-9---|-6-7-9----6-7-9-----|-6-7-9----6-7-9---|-6-7-9----6-7-9-----|
   . . .    . . .     . . .    . . .       . . .    . . .     . . .    . . .

Guitar 2
E|------------------|--------------------|------------------|--------------------|
B|------------------|--------------------|------------------|--------------------|
G|------------------|--------------------|------------------|--------------------|
D|------------------|--------------------|------------------|--------------------|
A|------------------|--------------------|------------------|--------------------|
D|------------------|--------------------|------------------|----------------16\-|

Guitar 3
E|------------------|--------------------|------------------|--------------------|
B|------------------|--------------------|------------------|--------------------|
G|------------------|--------------------|------------------|--------------------|
D|------------------|--------------------|------------------|------------0-0-0-0-|
A|------------------|--------------------|------------------|------------0-0-0-0-|
D|------------------|--------------------|------------------|------------0-0-0-0-|

Guitar 1
E|------------------|--------------------|------------------|--------------------|
B|------------------|--------------------|------------------|--------------------|
G|------------------|--------------------|------------------|--------------------|
D|-0---2-2-2-0--2/7-|-0---2-2-2-0--2/7---|-0---2-2-2-0--2/7-|-0---2-2-2-0--2/7\--|
A|-0---2-2-2-0--2/7-|-0---2-2-2-0--2/7---|-0---2-2-2-0--2/7-|-0---2-2-2-0--2/7\--|
D|-0---2-2-2-0--2/7-|-0---2-2-2-0--2/7---|-0---2-2-2-0--2/7-|-0---2-2-2-0--2/7\--|

Guitar 2
E|------------------|--------------------|------------------|--------------------|
B|------------------|--------------------|------------------|--------------------|
G|------------------|--------------------|------------------|--------------------|
D|-------6----------|-------6------------|-------6----------|-------6------------|
A|----------------9-|----------------9-7-|----------------9-|----------------9-7-|
D|-6-7-9----6-7-9---|-6-7-9----6-7-9-----|-6-7-9----6-7-9---|-6-7-9----6-7-9-----|


--------------------
Verse:
--------------------

Guitars 1 & 2
E|-------------------|---------------------|
B|-------------------|---------------------|
G|-------------------|---------------------|
D|-2-2-----------9-9-|-7-7-----------------|
A|-2-2----7\6/7--9-9-|-7-7----7\6/7--------|
D|-2-2-----------9-9-|-7-7-----------7-6-4-|

Guitar 1
E|-------------------|---------------------|
B|-------------------|---------------------|
G|-------------------|---------------------|
D|-2-2-----------9-9-|-7-7-----------------|
A|-2-2----7\6/7--9-9-|-7-7----7\6/7--------|
D|-2-2-----------9-9-|-7-7-----------7-6-4-|

Guitar 2
E|-------------------|---------------------|
B|-------------------|---------------------|
G|-------------------|---------------------|
D|-2-2----6\4/6--9-9-|-7-7-----------------|
A|-2-2-----------9-9-|-7-7----7\6/7--------|
D|-2-2-----------9-9-|-7-7-----------7-6-4-|


--------------------
Pre-Chorus:
--------------------

Q = 196

Guitars 1 & 2
E|-----------------|-----------------|-----------------|-------------------|
B|-----------------|-----------------|-----------------|-------------------|
G|-----------------|-----------------|-----6-------6---|-----2-------2-----|
D|-----2-------2---|-----2-------2---|-6-6-6-6-6-6-6---|-2-2-2-2-2-2-2-----|
A|-2-2-2-2-2-2-2-2-|-2-2-2-2-2-2-2-2-|-4-4-4-4-4-4-4-0-|-0-0-0-0-0-0-0-2-2-|
D|-2-2-2-2-2-2-2-2-|-2-2-2-2-2-2-2-2-|-----------------|---------------2-2-|
   . .   . . .   .   . .   . . .   .   . .   . . .       . .   . . .   . .

Guitars 1 & 2
E|-------------------|-----------------|-----------------|-----------------|
B|-------------------|-----------------|-----------------|-----------------|
G|-----1-------1-----|-----1-------1---|-----6-------6---|-----------------|
D|-----2-------2-----|-----2-------2---|-6-6-6-6-6-6-6---|-----------------|
A|-2-2-2-2-2-2-2-2-2-|-2-2-2-2-2-2-2-2-|-4-4-4-4-4-4-4-0-|-x\--------------|
D|-2-2-2-2-2-2-2-2-2-|-2-2-2-2-2-2-2-2-|-----------------|-----------------|
   . .   . . .   . .   . .   . . .   .   . .   . . .  (Pickslide!)
--------------------
Chorus:
--------------------

Guitar 1
E|---------------|----------------|---------------|--------------|
B|---------------|----------------|---------------|--------------|
G|---------------|----------------|---------------|--------------|
D|-6--x-4-4--x-2-|-2--2-2-2-2-2-0-|-6--x-7-7--x-6-|-6--x-7-7--x\-|
A|-7--x-6-6--x-4-|-4--4-4-4-4-4-0-|-6--x-7-7--x-6-|-6--x-7-7--x\-|
D|---------------|--------------0-|-6--x-7-7--x-6-|-6--x-7-7-----|
                                                         (Pickslide!)
Guitar 2
E|----------------|-----------------------|---------------|-------------|
B|-9--x-7-7--x-9--|-9---9--9--9--9--9--9--|---------------|-------------|
G|-9--x-8-8--x-9--|-9---9--9--9--9--9--9--|-8--x-9-9--x-8-|-8--x-9-9--0-|
D|-9--x-9-9--x-11-|-11--11-11-11-11-11-11-|-x--x-x-x--x-x-|-x--x-x-x--0-|
A|----------------|-----------------------|-6--x-7-7--x-6-|-6--x-7-7--0-|
D|----------------|-----------------------|---------------|-------------|

Guitar 1
E|---------------|----------------|---------------|-----------------|
B|---------------|----------------|---------------|-----------------|
G|---------------|----------------|---------------|-----------------|
D|-6--x-4-4--x-2-|-2--2-2-2-2-2-0-|-6--x-7-7--x-6-|-6--x-7-7-7-7-7\-|
A|-7--x-6-6--x-4-|-4--4-4-4-4-4-0-|-6--x-7-7--x-6-|-6--x-7-7-7-7-7\-|
D|---------------|--------------0-|-6--x-7-7--x-6-|-6--x-7-7-7-7-7\-|

Guitar 2
E|----------------|-----------------------|---------------|----------------|
B|-9--x-7-7--x-9--|-9---9--9--9--9--9--9--|---------------|----------------|
G|-9--x-8-8--x-9--|-9---9--9--9--9--9--9--|-8--x-9-9--x-8-|-8--x-9-9-9-9-9-|
D|-9--x-9-9--x-11-|-11--11-11-11-11-11-11-|-x--x-x-x--x-x-|-x--x-x-x-x-x-x-|
A|----------------|-----------------------|-6--x-7-7--x-6-|-6--x-7-7-7-7-7-|
D|----------------|-----------------------|---------------|----------------|


--------------------
Interlude:
--------------------

Guitar 1
E|------------------|--------------------|------------------|--------------------|
B|------------------|--------------------|------------------|--------------------|
G|------------------|--------------------|------------------|--------------------|
D|-0---2-2-2-0--2/7-|-0---2-2-2-0--2/7---|-0---2-2-2-0--2/7-|-0---2-2-2-0--2/7\--|
A|-0---2-2-2-0--2/7-|-0---2-2-2-0--2/7---|-0---2-2-2-0--2/7-|-0---2-2-2-0--2/7\--|
D|-0---2-2-2-0--2/7-|-0---2-2-2-0--2/7---|-0---2-2-2-0--2/7-|-0---2-2-2-0--2/7\--|

Guitar 2
E|------------------|--------------------|------------------|--------------------|
B|------------------|--------------------|------------------|--------------------|
G|------------------|--------------------|------------------|--------------------|
D|-------6----------|-------6------------|-------6----------|-------6------------|
A|----------------9-|----------------9-7-|----------------9-|----------------9-7-|
D|-6-7-9----6-7-9---|-6-7-9----6-7-9-----|-6-7-9----6-7-9---|-6-7-9----6-7-9-----|


--------------------
Verse
--------------------


--------------------
Pre-Chorus
--------------------


--------------------
Chorus
--------------------


--------------------
Interlude:
--------------------

Guitars 1 & 2
E|-------------------|-------------------|-------------------|--------------|
B|-------------------|-------------------|-------------------|--------------|
G|-------------------|-----------------2-|-------------------|--------------|
D|-2-2--x-2-2--x-x-2-|-2-2--x-2-2--x-x-2-|-2-2--x-2-2--x-x-2-|-2-2--x-x-2-2-|
A|-2-2--x-2-2--x-x-2-|-2-2--x-2-2--x-x-0-|-2-2--x-2-2--x-x-2-|-2-2--x-x-2-2-|
D|-2-2--x-2-2--x-x-2-|-2-2--x-2-2--x-x---|-2-2--x-2-2--x-x-2-|-2-2--x-x-2-2-|


--------------------
Bridge:
--------------------

Guitar 1
E|------------------|------------------|------------------|-------------------|
B|------------------|-----5------------|------------------|-----5-------------|
G|-----9-------9----|------------------|-----9-------9----|-------------------|
D|---9---9---9---9\-|---6---6------2---|---9---9---9---9\-|---6---6-------2---|
A|-7-------6--------|-4----------0---0-|-7-------6--------|-4-----------0---0-|
D|------------------|------------------|------------------|-------------------|

Guitar 2
E|------------------|------------------|------------------|-------------------|
B|------------------|------------------|------------------|-------------------|
G|------------------|------------------|------------------|-------------------|
D|------------------|------------------|------------------|-------------------|
A|------------------|------------------|------------------|-------------------|
D|------------------|------------------|------------------|-------------------|

Guitars 1 & 2
E|------------------|------------------|------------------|-------------------|
B|------------------|-----5------------|------------------|-----5-------------|
G|-----9-------9----|------------------|-----9-------9----|-------------------|
D|---9---9---9---9\-|---6---6------2---|---9---9---9---9\-|---6---6-------2---|
A|-7-------6--------|-4----------0---0-|-7-------6--------|-4-----------0---0-|
D|------------------|------------------|------------------|-------------------|

Guitar 2
E|-0---0---2---2---|-0---0-----0-----|-0---0---2---2---|-0---0-----0-------|
B|---0---0---0---0-|---0---0h2---2-0-|---0---0---0---0-|---0---0h2---------|
G|-----------------|-----------------|-----------------|---------------0-0-|
D|-----------------|-----------------|-----------------|-------------x\0-0-|
A|-----------------|-----------------|-----------------|-------------x\0-0-|
D|-----------------|-----------------|-----------------|-------------x\0-0-|

Guitars 1 & 2
E|---------------|----------------|----------------|----------------|
B|---------------|----------------|----------------|----------------|
G|---------------|----------------|----------------|----------------|
D|-0-2-2-2-0-2/7-|-0-2-2-2-0-2/7\-|--------x-x-x-x-|-0-2-2-2-0-2/7\-|
A|-0-2-2-2-0-2/7-|-0-2-2-2-0-2/7\-|--------x-x-x-x-|-0-2-2-2-0-2/7\-|
D|-0-2-2-2-0-2/7-|-0-2-2-2-0-2/7\-|--------x-x-x-x-|-0-2-2-2-0-2/7\-|

Guitars 1 & 2
E|-------------|--------------|----------------|----------------|-----------------|
B|-------------|--------------|----------------|----------------|-----------------|
G|-------------|--------------|----------------|----------------|-----------------|
D|-0-2-2-2-0-2-|-0-2----0-2/7-|-0-2-2-2-0-2/7\-|----------------|-----------------|
A|-0-2-2-2-0-2-|-0-2----0-2/7-|-0-2-2-2-0-2/7\-|----------------|-----------------|
D|-0-2-2-2-0-2-|-0-2----0-2/7-|-0-2-2-2-0-2/7\-|----------------|-------------14\-|

Guitars 1 & 2
E|-----------------|-----------------|-----------------|-----------------|
B|-----------------|-----------------|-----------------|-----------------|
G|-----------------|-----------------|-7-7-7-7-7-7-7-7-|-7-7-7-7-7-7-7-7-|
D|-----------------|-----------------|-7-7-7-7-7-7-7-7-|-7-7-7-7-7-7-7-7-|
A|-0-0-0-0-0-0-0-0-|-0-0-0-0-0-0-0-0-|-5-5-5-5-5-5-5-5-|-5-5-5-5-5-5-5-5-|
D|-0-0-0-0-0-0-0-0-|-0-0-0-0-0-0-0-0-|-0-0-0-0-0-0-0-0-|-0-0-0-0-0-0-0-0-|
   . . . . . . . .   . . . . . . . .


--------------------
Chorus:
--------------------

Guitar 1
E|---------------|----------------|---------------|--------------|
B|---------------|----------------|---------------|--------------|
G|---------------|----------------|---------------|--------------|
D|-6--x-4-4--x-2-|-2--2-2-2-2-2-0-|-6--x-7-7--x-6-|-6--x-7-7--x\-|
A|-7--x-6-6--x-4-|-4--4-4-4-4-4-0-|-6--x-7-7--x-6-|-6--x-7-7--x\-|
D|---------------|--------------0-|-6--x-7-7--x-6-|-6--x-7-7-----|
                                                         (Pickslide!)
Guitar 2
E|----------------|-----------------------|---------------|-------------|
B|-9--x-7-7--x-9--|-9---9--9--9--9--9--9--|---------------|-------------|
G|-9--x-8-8--x-9--|-9---9--9--9--9--9--9--|-8--x-9-9--x-8-|-8--x-9-9--0-|
D|-9--x-9-9--x-11-|-11--11-11-11-11-11-11-|-x--x-x-x--x-x-|-x--x-x-x--0-|
A|----------------|-----------------------|-6--x-7-7--x-6-|-6--x-7-7--0-|
D|----------------|-----------------------|---------------|-------------|

Guitar 1
E|---------------|----------------|---------------|-----------------|
B|---------------|----------------|---------------|-----------------|
G|---------------|----------------|---------------|-----------------|
D|-6--x-4-4--x-2-|-2--2-2-2-2-2-0-|-6--x-7-7--x-6-|-6--x-7-7-7-7-7\-|
A|-7--x-6-6--x-4-|-4--4-4-4-4-4-0-|-6--x-7-7--x-6-|-6--x-7-7-7-7-7\-|
D|---------------|--------------0-|-6--x-7-7--x-6-|-6--x-7-7-7-7-7\-|

Guitar 2
E|----------------|-----------------------|---------------|--------------|
B|-9--x-7-7--x-9--|-9---9--9--9--9--9--9--|---------------|--------------|
G|-9--x-8-8--x-9--|-9---9--9--9--9--9--9--|-8--x-9-9--x-8-|-8--x-9-9-----|
D|-9--x-9-9--x-11-|-11--11-11-11-11-11-11-|-x--x-x-x--x-x-|-x--x-x-x-----|
A|----------------|-----------------------|-6--x-7-7--x-6-|-6--x-7-7--x\-|
D|----------------|-----------------------|---------------|-----------x\-|
                                                                 (Pickslide!)
Guitar 1
E|---------------|----------------|---------------|--------------|
B|---------------|----------------|---------------|--------------|
G|---------------|----------------|---------------|--------------|
D|-6--x-4-4--x-2-|-2--2-2-2-2-2-0-|-6--x-7-7--x-6-|-6--x-7-7--x\-|
A|-7--x-6-6--x-4-|-4--4-4-4-4-4-0-|-6--x-7-7--x-6-|-6--x-7-7--x\-|
D|---------------|--------------0-|-6--x-7-7--x-6-|-6--x-7-7-----|
                                                         (Pickslide!)
Guitar 2
E|----------------|----------------|---------------|-------------|
B|-12--x-7-7--x-9-|-9--9-9-9-9-9-9-|-7--x-9-9--x-7-|-7--x-9-9----|
G|--x--x-x-x--x-6-|-6--6-6-6-6-6-6-|-x--x-x-x--x-x-|-x--x-x-x--0-|
D|--9--x-4-4--x-6-|-6--6-6-6-6-6-6-|-4--x-6-6--x-4-|-4--x-6-6--0-|
A|----------------|----------------|---------------|-----------0-|
D|----------------|----------------|---------------|-------------|

Guitar 1
E|---------------|----------------|---------------|-----------------|
B|---------------|----------------|---------------|-----------------|
G|---------------|----------------|---------------|-----------------|
D|-6--x-4-4--x-2-|-2--2-2-2-2-2-0-|-6--x-7-7--x-6-|-6--x-7-7-7-7-7\-|
A|-7--x-6-6--x-4-|-4--4-4-4-4-4-0-|-6--x-7-7--x-6-|-6--x-7-7-7-7-7\-|
D|---------------|--------------0-|-6--x-7-7--x-6-|-6--x-7-7-7-7-7\-|

Guitar 2
E|----------------|----------------|---------------|--------------|
B|-12--x-7-7--x-9-|-9--9-9-9-9-9-9-|-7--x-9-9--x-7-|-7--x-9-9--9\-|
G|--x--x-x-x--x-6-|-6--6-6-6-6-6-6-|-x--x-x-x--x-x-|-x--x-x-x--x--|
D|--9--x-4-4--x-6-|-6--6-6-6-6-6-6-|-4--x-6-6--x-4-|-4--x-6-6--6\-|
A|----------------|----------------|---------------|--------------|
D|----------------|----------------|---------------|--------------|


--------------------
Outro:
--------------------

Guitar 1
E|------------------|--------------------|------------------|--------------------|------------|
B|------------------|--------------------|------------------|--------------------|------------|
G|------------------|--------------------|------------------|--------------------|------------|
D|-0---2-2-2-0--2/7-|-0---2-2-2-0--2/7---|-0---2-2-2-0--2/7-|-0---2-2-2-0--2/7\--|-2-2----2-2-|
A|-0---2-2-2-0--2/7-|-0---2-2-2-0--2/7---|-0---2-2-2-0--2/7-|-0---2-2-2-0--2/7\--|-2-2----2-2-|
D|-0---2-2-2-0--2/7-|-0---2-2-2-0--2/7---|-0---2-2-2-0--2/7-|-0---2-2-2-0--2/7\--|-2-2----2-2-|

Guitar 2
E|------------------|--------------------|------------------|--------------------|------------|
B|------------------|--------------------|------------------|--------------------|------------|
G|------------------|--------------------|------------------|--------------------|------------|
D|-------6----------|-------6------------|-------6----------|-------6------------|------------|
A|----------------9-|----------------9-7-|----------------9-|----------------9-7-|------------|
D|-6-7-9----6-7-9---|-6-7-9----6-7-9-----|-6-7-9----6-7-9---|-6-7-9----6-7-9-----|------------|
comments
print report bad tab
34 comments total. Showing first comments. show 1 bad comment
+1 reply
GuitarMaster41 wrote on March 8 2005, 12:00 am

No it doesn't, I have everything right dude. This is exactly how Sum 41 recorded it in the studio.

0 reply
gc_a7v1n wrote on March 9 2005, 12:00 am

nice

I want to post or [tab]
guest
You may want to rate the tab now too:
select rating
Please do not post tabs as comments. Select "correction" instead!