Oops, an error
Loading. Please wait.

Fat Lip Tab

ver9
14,209 views 15 this week
7 commentsread comments
1 2 3 4 5
accurate
x 8
Autoscroll
+/-
esc
set tempo
stop
Contributor
Difficulty
Tuning
intermediate
D A D G B E
WARNING: You are trying to view
                                    content from Ultimate-Guitar.com
                                    in an unauthorized application,
                                    which is prohibited.

                                    Please use an official Ultimate
                                    Guitar Tabs application for iPhone,
                                    iPad or Android to access legitimate
                                    chords, guitar, bass, and drum tabs
                                    from Ultimate-Guitar.com database.

                                    Type "ultimate guitar tabs" in Apple
                                    App Store's or Android Market's
                                    search to find the application.
This is semi-difficult song to play if you're not fimilar with it. This is the entire 
of fat lip and i hope you like it!


PM--|    PM--|      PM--|    PM--|
  S S E Q  S S E Q    S S E Q  S S E S E.
|-------------------|---------------------|
|-------------------|---------------------|
|-------1-----------|-------1-------------|
|----------------4--|----------------4-2--|
|-0-1-2----0-1-2----|-0-1-2----0-1-2------|
|-------------------|---------------------|
|
| Gtr II
| W                   W
|-------------------|---------------------|
|-------------------|---------------------|
|-------------------|---------------------|
|-------------------|---------------------|
|-------------------|---------------------|
|-------------------|---------------------|
|
| Gtr III
| W                   W
|-------------------|---------------------|
|-------------------|---------------------|
|-------------------|---------------------|
|-------------------|---------------------|
|-------------------|---------------------|
|-------------------|---------------------|


  PM--|    PM--|      PM--|    PM--|
  S S E Q  S S E Q    S S E Q  S S E  S  E.
|-------------------|-----------------------------|
|-------------------|-----------------------------|
|-------1-----------|-------1---------------------|
|----------------4--|-----------------4--2--------|
|-0-1-2----0-1-2----|-0-1-2----0-1-2--------------|
|-------------------|-----------------------------|
|
| W                   H        Q      Q
|-------------------|-----------------------------|
|-------------------|-----------------------------|
|-------------------|-----------------------------|
|-------------------|-----------------------------|
|-------------------|-----------------------------|
|-------------------|----------------16\----------|
|
| W                   H        Q      S  S  S S
|-------------------|-----------------------------|
|-------------------|-----------------------------|
|-------------------|-----------------------------|
|-------------------|-----------------0--0--0-0---|
|-------------------|-----------------0--0--0-0---|
|-------------------|-----------------0--0--0-0---|


  D5  E5     D5  E5A5   D5  E5     D5  E5A5
  Gtr I
  S S E Q    S S E Q    S S E Q    S S E S E.
|---------------------|-----------------------|
|---------------------|-----------------------|
|-------1-------------|-------1---------------|
|------------------4--|------------------4-2--|
|-0-1-2------0-1-2----|-----------------------|
|---------------------|-0-1-2------0-1-2------|
|
| Gtrs II, III
| E   E E. S E   E Q    E   E E. S E   E Q
|---------------------|-----------------------|
|---------------------|-----------------------|
|---------------------|-----------------------|
|-0---2-2--2-0---2S7--|-0---2-2--2-0---2S7----|
|-0---2-2--2-0---2S7--|-0---2-2--2-0---2S7----|
|-0---2-2--2-0---2S7--|-0---2-2--2-0---2S7----|


  D5  E5     D5  E5A5   D5  E5     D5  E5A5
  S S E Q    S S E Q    S S E Q    S S E S  E.
|---------------------|------------------------------||
|---------------------|------------------------------||
|-------1-------------|-------1----------------------||
|------------------4--|------------------4--2--------||
|-0-1-2------0-1-2----|-0-1-2------0-1-2-------------||
|---------------------|------------------------------||
|
| E   E E. S E   E Q    E   E E. S E   E E.    +S
|---------------------|------------------------------||
|---------------------|------------------------------||
|---------------------|------------------------------||
|-0---2-2--2-0---2S7--|-0---2-2--2-0---2S7-----(7)\--||
|-0---2-2--2-0---2S7--|-0---2-2--2-0---2S7-----(7)\--||
|-0---2-2--2-0---2S7--|-0---2-2--2-0---2S7-----(7)\--||


   1st Verse
    E5            B5     A5
    Gtrs II, III
    S S E E S S e e Q    S S E E S S e E E E
||---------------------|---------------------|
||o--------------------|---------------------|
||----------------4-4--|-2-2-----------------|
||--2-2-----2-1-2-4-4--|-2-2-----------------|
||o-2-2-----------2-2--|-0-0-----2-1-2-0-----|
||--2-2----------------|-----------------6-4-|


  E5            B5     A5
  Gtr II
  S S E E S S e e Q    S S E E S S e E E E
|--------------------|---------------------||
|--------------------|---------------------||
|---------------4-4--|-2-2-----------------||
|-2-2-----6-4-6-4-4--|-2-2-----2-1-2-------||
|-2-2-----------2-2--|-0-0-----------0-----||
|-2-2----------------|-----------------6-4-||
|
| Gtr III
| S S E E S S e e Q    S S E E S S e E E E
|--------------------|---------------------||
|--------------------|---------------------||
|--------------------|---------------------||
|-2-2-----6S4S6-9-9--|-7-7-----------------||
|-2-2-----------9-9--|-7-7-----7S6S7-------||
|-2-2-----------9-9--|-7-7-----------7-6-4-||


 Pre-Chorus
  Double Time Q=196
  E5                                  C#5               A5            E5
  Gtrs II, III
  PM|   PM--|   PM----|   PM--|   PM----|   PM--|   PM----|   PM--|   PM|
  E E E E E E E E   E E E E E E E E   E E E E E E E E   E E E E E E E S S
|-----------------|-----------------|-----------------|-------------------|
|-----------------|-----------------|-----------------|-------------------|
|-----------------|-----------------|-----6-------6---|-----2-------2-----|
|-----2-------2---|-----2-------2---|-6-6-6-6-6-6-6---|-2-2-2-2-2-2-2-----|
|-2-2-2-2-2-2-2-2-|-2-2-2-2-2-2-2-2-|-4-4-4-4-4-4-4-0-|-0-0-0-0-0-0-0-2-2-|
|-2-2-2-2-2-2-2-2-|-2-2-2-2-2-2-2-2-|-----------------|---------------2-2-|


  E5                                    C#5               N.C.
  PM|   PM--|   PM    PM|   PM--|   PM----|   PM--|
  E E E E E E E S S   E E E E E E E E   E E E E E E E E   W
|-------------------|-----------------|-----------------|-------||
|-------------------|-----------------|-----------------|-------||
|-----1-------1-----|-----1-------1---|-----6-------6---|-------||
|-----2-------2-----|-----2-------2---|-6-6-6-6-6-6-6---|-------||
|-2-2-2-2-2-2-2-2-2-|-2-2-2-2-2-2-2-2-|-4-4-4-4-4-4-4-0-|-x\----||
|-2-2-2-2-2-2-2-2-2-|-2-2-2-2-2-2-2-2-|-----------------|-------||


 1st and 2nd Choruses
  E    B      C#m                          G#5  A5     G#5      A5
  Gtr III
  Q  E E Q  E  E    Q   E  E  E  E  E  e   Q  E E Q  E E   Q  E E Q  Q
|----------------|-----------------------|---------------|----------------|
|-9--x-7-7--x--9-|--9---9--9--9--9--9--9-|---------------|----------------|
|-9--x-8-8--x--9-|--9---9--9--9--9--9--9-|-8--x-9-9--x-8-|-8--x-9-9--0----|
|-9--x-9-9--x-11-|-11--11-11-11-11-11-11-|-x--x-x-x--x-x-|-x--x-x-x--0----|
|----------------|-----------------------|-6--x-7-7--x-6-|-6--x-7-7--0----|
|----------------|-----------------------|---------------|----------------|
|
| Gtr II
| Q  E E Q  E  E    Q   E  E  E  E  E  E   Q  E E Q  E E   Q  E E Q  Q
|----------------|-----------------------|---------------|----------------|
|----------------|-----------------------|---------------|----------------|
|----------------|-----------------------|---------------|----------------|
|-6--x-4-4--x--2-|--2---2--2--2--2--2--0-|-6--x-7-7--x-6-|-6--x-7-7--x/---|
|-7--x-6-6--x--4-|--4---4--4--4--4--4--0-|-6--x-7-7--x-6-|-6--x-7-7--x/---|
|----------------|---------------------0-|-6--x-7-7--x-6-|-6--x-7-7-------|


  E    B      C#m                          G#5  A5     G#5      A5
  Q  E E Q  E  E    Q   E  E  E  E  E  e   Q  E E Q  E E   Q  E E E E E E
|----------------|-----------------------|---------------|------------------|
|-9--x-7-7--x--9-|--9---9--9--9--9--9--9-|---------------|------------------|
|-9--x-8-8--x--9-|--9---9--9--9--9--9--9-|-8--x-9-9--x-8-|-8--x-9-9-9-9-9---|
|-9--x-9-9--x-11-|-11--11-11-11-11-11-11-|-x--x-x-x--x-x-|-x--x-x-x-x-x-x---|
|----------------|-----------------------|-6--x-7-7--x-6-|-6--x-7-7-7-7-7---|
|----------------|-----------------------|---------------|------------------|

| Q  E E Q  E  E    Q   E  E  E  E  E  E   Q  E E Q  E E   Q  E E E E E E
|----------------|-----------------------|---------------|-------------------|
|----------------|-----------------------|---------------|-------------------|
|----------------|-----------------------|---------------|-------------------|
|-6--x-4-4--x--2-|--2---2--2--2--2--2--0-|-6--x-7-7--x-6-|-6--x-7-7-7-7-7\---|
|-7--x-6-6--x--4-|--4---4--4--4--4--4--0-|-6--x-7-7--x-6-|-6--x-7-7-7-7-7\---|
|----------------|---------------------0-|-6--x-7-7--x-6-|-6--x-7-7-7-7-7\---|


  1.iginal Tempo Q=98
  D5  E5     D5  E5A5   D5  E5     D5  E5A5
  Gtr I
  S S E Q    S S E Q    S S E Q    S S E S E.
|---------------------|-----------------------|
|---------------------|-----------------------|
|---------------------|-----------------------|
|-------6-------------|-------6---------------|
|------------------9--|------------------9-7--|
|-6-7-9------6-7-9----|-6-7-9------6-7-9------|
|
| Gtrs II, III
| E   E E. S E   E Q    E   E E. S E   E Q
|---------------------|-----------------------|
|---------------------|-----------------------|
|---------------------|-----------------------|
|-0---2-2--2-0---2S7--|-0---2-2--2-0---2S7----|
|-0---2-2--2-0---2S7--|-0---2-2--2-0---2S7----|
|-0---2-2--2-0---2S7--|-0---2-2--2-0---2S7----|


  D5  E5     D5  E5A5   D5  E5     D5  E5A5
  S S E Q    S S E Q    S S E Q    S S E S  E.        W
|---------------------|-----------------------------|-------||
|---------------------|-----------------------------|------o||
|---------------------|-----------------------------|-------||
|-------6-------------|-------6---------------------|-------||
|------------------9--|------------------9--7-------|------o||
|-6-7-9------6-7-9----|-6-7-9------6-7-9------------|-------||
|
| E   E E. S E   E Q    E   E E. S E   E E.    +S     W
|---------------------|-----------------------------|-------||
|---------------------|-----------------------------|------o||
|---------------------|-----------------------------|-------||
|-0---2-2--2-0---2S7--|-0---2-2--2-0---2S7-----(7)\-|-------||
|-0---2-2--2-0---2S7--|-0---2-2--2-0---2S7-----(7)\-|------o||
|-0---2-2--2-0---2S7--|-0---2-2--2-0---2S7-----(7)\-|-------||


  2.iginal Tempo Q=98
  E5                                        A5
  Gtrs II, III
  S S E E S S S S E E E   S S E E S S S S E Q
|-----------------------|----------------------|
|-----------------------|----------------------|
|-----------------------|-------------------2--|
|-2-2---x-2-2---x-x-2---|-2-2---x-2-2---x-x-2--|
|-2-2---x-2-2---x-x-2---|-2-2---x-2-2---x-x-0--|
|-2-2---x-2-2---x-x-2---|-2-2---x-2-2---x-x----|


  E5
  S S E E S S S S E E E   S S S S E S S H
|-----------------------|--------------------||
|-----------------------|--------------------||
|-----------------------|--------------------||
|-2-2---x-2-2---x-x-2---|-2-2---x-x-2-2------||
|-2-2---x-2-2---x-x-2---|-2-2---x-x-2-2------||
|-2-2---x-2-2---x-x-2---|-2-2---x-x-2-2------||


 Bridge
  E5      E5/D#      C#m       A5      E5      E5/D#      C#m       A5
  Gtr IV
  E E E E E E E E    E E E E E E E E   E E E E E E E E    E E E E E E E E
|------------------|-----------------|------------------|------------------|
|------------------|-----5-----------|------------------|-----5------------|
|-----9-------9----|-----------------|-----9-------9----|------------------|
|---9---9---9---9\-|---6---6-----2---|---9---9---9---9\-|---6---6-----2----|
|-7-------6--------|-4---------0---0-|-7-------6--------|-4---------0---0--|
|------------------|-----------------|------------------|------------------|


 Bridge
  E5      E5/D#      C#m       A5      E5      E5/D#      C#m       A5
  Gtr IV
  E E E E E E E E    E E E E E E E E   E E E E E E E E    E E E E E E  E E
|------------------|-----------------|------------------|--------------------||
|------------------|-----5-----------|------------------|-----5--------------||
|-----9-------9----|-----------------|-----9-------9----|--------------------||
|---9---9---9---9\-|---6---6-----2---|---9---9---9---9\-|---6---6------2-----||
|-7-------6--------|-4---------0---0-|-7-------6--------|-4---------0----0---||
|------------------|-----------------|------------------|--------------------||
|
| Gtr V                                                               Gtrs II, III
| E E E E E E E E    E E E E E E E E   E E E E E E E E    E E E E E E  E S S
|-0---0---2---2----|-0---0-----0-----|-0---0---2---2----|-0---0-----0--------||
|---0---0---0---0--|---0---0h2---2-0-|---0---0---0---0--|---0---0h2----------||
|------------------|-----------------|------------------|----------------0-0-||
|------------------|-----------------|------------------|-------------/xS0-0-||
|------------------|-----------------|------------------|-------------/xS0-0-||
|------------------|-----------------|------------------|-------------/xS0-0-||


 3rd Verse
  D5E5     D5E5A5   D5E5     D5E5A5
  Gtrs II, III
  E E E. S E E Q    E E E. S E E E +E
|-----------------|---------------------|
|-----------------|---------------------|
|-----------------|---------------------|
|-0-2-2--2-0-2S7--|-0-2-2--2-0-2S7-(7)\-|
|-0-2-2--2-0-2S7--|-0-2-2--2-0-2S7-(7)\-|
|-0-2-2--2-0-2S7--|-0-2-2--2-0-2S7-(7)\-|


                    D5E5     D5E5A5
  H    Q  S S S S   E E E. S E E E +E
|-----------------|---------------------|
|-----------------|---------------------|
|---------x-x-x-x-|---------------------|
|---------x-x-x-x-|-0-2-2--2-0-2S7-(7)\-|
|---------x-x-x-x-|-0-2-2--2-0-2S7-(7)\-|
|---------x-x-x-x-|-0-2-2--2-0-2S7-(7)\-|


  D5E5     D5E5     D5E5   D5E5A5
  E E E. S E E Q    E E Q  E E Q
|-----------------|---------------|
|-----------------|---------------|
|-----------------|---------------|
|-0-2-2--2-0-2----|-0-2----0-2S7--|
|-0-2-2--2-0-2----|-0-2----0-2S7--|
|-0-2-2--2-0-2----|-0-2----0-2S7--|


  D5E5     D5E5A5
  E E E. S E E E +E     W          H    Q  E  E
|---------------------|----------|---------------||
|---------------------|----------|---------------||
|---------------------|----------|---------------||
|-0-2-2--2-0-2S7-(7)\-|----------|---------------||
|-0-2-2--2-0-2S7-(7)\-|----------|---------------||
|-0-2-2--2-0-2S7-(7)\-|----------|-----------14\-||


  Double Time Q=196
  D5                                  D5
  PM------------------------------|
  E E E E E E E E   E E E E E E E E   E E E E E E E E   E E E E E E E E
|-----------------|-----------------|-----------------|------------------||
|-----------------|-----------------|-----------------|------------------||
|-----------------|-----------------|-7-7-7-7-7-7-7-7-|-7-7-7-7-7-7-7-7--||
|-----------------|-----------------|-7-7-7-7-7-7-7-7-|-7-7-7-7-7-7-7-7--||
|-0-0-0-0-0-0-0-0-|-0-0-0-0-0-0-0-0-|-5-5-5-5-5-5-5-5-|-5-5-5-5-5-5-5-5--||
|-0-0-0-0-0-0-0-0-|-0-0-0-0-0-0-0-0-|-0-0-0-0-0-0-0-0-|-0-0-0-0-0-0-0-0--||


 3rd Chorus
  E    B      C#m                          G#5  A5     G#5      A5
  Gtr III
  Q  E E Q  E  E    Q   E  E  E  E  E  e   Q  E E Q  E E   Q  E E Q  Q
|----------------|-----------------------|---------------|----------------|
|-9--x-7-7--x--9-|--9---9--9--9--9--9--9-|---------------|----------------|
|-9--x-8-8--x--9-|--9---9--9--9--9--9--9-|-8--x-9-9--x-8-|-8--x-9-9--0----|
|-9--x-9-9--x-11-|-11--11-11-11-11-11-11-|-x--x-x-x--x-x-|-x--x-x-x--0----|
|----------------|-----------------------|-6--x-7-7--x-6-|-6--x-7-7--0----|
|----------------|-----------------------|---------------|----------------|
|
| Gtr II
| Q  E E Q  E  E    Q   E  E  E  E  E  E   Q  E E Q  E E   Q  E E Q  Q
|----------------|-----------------------|---------------|----------------|
|----------------|-----------------------|---------------|----------------|
|----------------|-----------------------|---------------|----------------|
|-6--x-4-4--x--2-|--2---2--2--2--2--2--0-|-6--x-7-7--x-6-|-6--x-7-7--x/---|
|-7--x-6-6--x--4-|--4---4--4--4--4--4--0-|-6--x-7-7--x-6-|-6--x-7-7--x/---|
|----------------|---------------------0-|-6--x-7-7--x-6-|-6--x-7-7-------|


  E    B      C#m                          G#5  A5     G#5      A5
  Q  E E Q  E  E    Q   E  E  E  E  E  e   Q  E E Q  E E   Q  E E Q   Q
|----------------|-----------------------|---------------|-------------------|
|-9--x-7-7--x--9-|--9---9--9--9--9--9--9-|---------------|-------------------|
|-9--x-8-8--x--9-|--9---9--9--9--9--9--9-|-8--x-9-9--x-8-|-8--x-9-9----------|
|-9--x-9-9--x-11-|-11--11-11-11-11-11-11-|-x--x-x-x--x-x-|-x--x-x-x----------|
|----------------|-----------------------|-6--x-7-7--x-6-|-6--x-7-7---x\-----|
|----------------|-----------------------|---------------|------------x\-----|
|
| Q  E E Q  E  E    Q   E  E  E  E  E  E   Q  E E Q  E E   Q  E E E E E  E
|----------------|-----------------------|---------------|-------------------|
|----------------|-----------------------|---------------|-------------------|
|----------------|-----------------------|---------------|-------------------|
|-6--x-4-4--x--2-|--2---2--2--2--2--2--0-|-6--x-7-7--x-6-|-6--x-7-7-7-7--7\--|
|-7--x-6-6--x--4-|--4---4--4--4--4--4--0-|-6--x-7-7--x-6-|-6--x-7-7-7-7--7\--|
|----------------|---------------------0-|-6--x-7-7--x-6-|-6--x-7-7-7-7--7\--|


  E     B      C#m                  G#5  A5     G#5      A5
  Gtr III
   Q  E E Q  E E   Q  E E E E E e   Q  E E Q  E E   Q  E E Q  Q
|----------------|----------------|---------------|----------------|
|-12--x-7-7--x-9-|-9--9-9-9-9-9-9-|-7--x-9-9--x-7-|-7--x-9-9-------|
|--x--x-x-x--x-6-|-6--6-6-6-6-6-6-|-x--x-x-x--x-x-|-x--x-x-x--0----|
|--9--x-4-4--x-6-|-6--6-6-6-6-6-6-|-4--x-6-6--x-4-|-4--x-6-6--0----|
|----------------|----------------|---------------|-----------0----|
|----------------|----------------|---------------|----------------|
|
| Gtr II
|  Q  E E Q  E E   Q  E E E E E E   Q  E E Q  E E   Q  E E Q  Q
|----------------|----------------|---------------|----------------|
|----------------|----------------|---------------|----------------|
|----------------|----------------|---------------|----------------|
|--6--x-4-4--x-2-|-2--2-2-2-2-2-0-|-6--x-7-7--x-6-|-6--x-7-7--x/---|
|--7--x-6-6--x-4-|-4--4-4-4-4-4-0-|-6--x-7-7--x-6-|-6--x-7-7--x/---|
|----------------|--------------0-|-6--x-7-7--x-6-|-6--x-7-7-------|


  E       B    C#m                  G#5    A5   G#5        A5
   Q  E E Q  E E   Q  E E E E E e   Q  E E Q  E E   Q  E E Q   Q
|----------------|----------------|---------------|-------------------||
|-12--x-7-7--x-9-|-9--9-9-9-9-9-9-|-7--x-9-9--x-7-|-7--x-9-9---9\-----||
|--x--x-x-x--x-6-|-6--6-6-6-6-6-6-|-x--x-x-x--x-x-|-x--x-x-x---x------||
|--9--x-4-4--x-6-|-6--6-6-6-6-6-6-|-4--x-6-6--x-4-|-4--x-6-6---6\-----||
|----------------|----------------|---------------|-------------------||
|----------------|----------------|---------------|-------------------||
|
|  Q  E E Q  E E   Q  E E E E E E   Q  E E Q  E E   Q  E E E E E  E
|----------------|----------------|---------------|-------------------||
|----------------|----------------|---------------|-------------------||
|----------------|----------------|---------------|-------------------||
|--6--x-4-4--x-2-|-2--2-2-2-2-2-0-|-6--x-7-7--x-6-|-6--x-7-7-7-7--7\--||
|--7--x-6-6--x-4-|-4--4-4-4-4-4-0-|-6--x-7-7--x-6-|-6--x-7-7-7-7--7\--||
|----------------|--------------0-|-6--x-7-7--x-6-|-6--x-7-7-7-7--7\--||


 Outro
  Original Tempo Q=98
  D5  E5     D5  E5A5   D5  E5     D5  E5A5     D5  E5     D5  E5A5
  Gtr I
  S S E Q    S S E Q    S S E Q    S S E S E.   S S E Q    S S E Q
|---------------------|-----------------------|---------------------|
|---------------------|-----------------------|---------------------|
|---------------------|-----------------------|---------------------|
|-------6-------------|-------6---------------|-------6-------------|
|------------------9--|------------------9-7--|------------------9--|
|-6-7-9------6-7-9----|-6-7-9------6-7-9------|-6-7-9------6-7-9----|
|
| Gtrs II, III
| E   E E. S E   E Q    E   E E. S E   E Q      E   E E. S E   E Q
|---------------------|-----------------------|---------------------|
|---------------------|-----------------------|---------------------|
|---------------------|-----------------------|---------------------|
|-0---2-2--2-0---2S7--|-0---2-2--2-0---2S7----|-0---2-2--2-0---2S7--|
|-0---2-2--2-0---2S7--|-0---2-2--2-0---2S7----|-0---2-2--2-0---2S7--|
|-0---2-2--2-0---2S7--|-0---2-2--2-0---2S7----|-0---2-2--2-0---2S7--|


  D5  E5     D5  E5A5           E5
  S S E Q    S S E S  E.        W
|-----------------------------|------------------*|
|-----------------------------|------------------*|
|-----------------------------|------------------*|
|-------6---------------------|------------------*|
|------------------9--7-------|------------------*|
|-6-7-9------6-7-9------------|------------------*|
|
| E   E E. S E   E E.    +S     S S E E S S H
|-----------------------------|------------------*|
|-----------------------------|------------------*|
|-----------------------------|------------------*|
|-0---2-2--2-0---2S7-----(7)\-|-2-2-----2-2------*|
|-0---2-2--2-0---2S7-----(7)\-|-2-2-----2-2------*|
|-0---2-2--2-0---2S7-----(7)\-|-2-2-----2-2------*|
comments
print report bad tab
7 comments total. Showing first comments.
0 reply
untitled039 wrote on December 19 2006, 08:07 am

whats all the S E and Qs on this?

0 reply
axe_man wrote on December 19 2006, 11:07 am

dnt think its in drop d m8

0 reply
GNRrocka wrote on September 6 2007, 08:17 pm

good tab, theres many ways to play the intro verse, this is the way i play it though. But personally I don't play it in drop D although i guess you could.
One mistake though, the one verse should be
|--------------------|---------------------||
|--------------------|---------------------||
|---------------4-4--|-2-2-----------------||
|-2-2-----2p1h2-4-4--|-2-2-----2p1h2-------||
|-2-2-----------2-2--|-0-0-----------0-----||
|-2-2----------------|-----------------4-2-||
The 2-1-2 is a ho/po if you listen to it, and i when I play it in standard tuning i play the last 2 notes as 6-4 so in drop-D that'd be 4-2.

I want to post or [tab]
guest
You may want to rate the tab now too:
select rating
Please do not post tabs as comments. Select "correction" instead!