Oops, an error
Loading. Please wait.

Half Hour Of Power Tab

5,750 views 1 this week
5 commentsread comments
1 2 3 4 5
accurate
x 19
add to favorites launch autoscroll
font size
0
reset
Autoscroll
+/-
esc
set tempo
stop
Contributor
WARNING: You are trying to view
                                    content from Ultimate-Guitar.com
                                    in an unauthorized application,
                                    which is prohibited.

                                    Please use an official Ultimate
                                    Guitar Tabs application for iPhone,
                                    iPad or Android to access legitimate
                                    chords, guitar, bass, and drum tabs
                                    from Ultimate-Guitar.com database.

                                    Type "ultimate guitar tabs" in Apple
                                    App Store's or Android Market's
                                    search to find the application.
Artist:Sum 41
Album:Half Hour of Power
 1. Grab the Devil by the Horns and **** Him up the ***
 2. Machine Gun
 3. What I Believe
 4. T.H.T.
 5. Makes No Difference
 6. Summer
 7. 32 Ways to Die
 8. Second Chance for Max Headroom
 9. Dave's Possessed Hair/It's What We're All About
10. Ride the Chariot to the Devil
11. Another Time Around 

           Grab the devil by the horns and **** him up the ***
e|-0-2-3-5-3-2-0-------------------------------------------------------------|X4
B|--------------3------------------------------------------------------------|
G|---------------------------------------------------------------------------|
D|---------------------------------------------------------------------------|
A|---------------------------------------------------------------------------|
E|---------------------------------------------------------------------------|
 
  Guitar 1
e|-0-2-3-5-3-2-0-------------------------------------------------------------|X3
B|--------------3------------------------------------------------------------|
G|---------------------------------------------------------------------------|
D|---------------------------------------------------------------------------|
A|---------------------------------------------------------------------------|
E|---------------------------------------------------------------------------|
  Guitar 2
e|-7-5-7-8-7-5---------------------------------------------------------------|X3
B|------------7-5------------------------------------------------------------|
G|---------------------------------------------------------------------------|
D|---------------------------------------------------------------------------|
A|---------------------------------------------------------------------------|
E|---------------------------------------------------------------------------|

Guitar 1
e|---------------------------------------------------------------------------|
B|---------------------------------------------------------------------------|
G|-------4-------------------------------------------------------------------|
D|-5-4-2-4-4-5-2-------------------------------------------------------------|
A|-5-4-2-2-4-5-2-------------------------------------------------------------|
E|-3-2-0---2-3-0-------------------------------------------------------------|

 Guitar 2                 
e|--------------------------------------------------------------3-2-0-7-2-3-0|
B|---------------------------------------------------------------------------|
G|---------------------------------------------------------------------------|
D|---------------------------------------------------------------------------|
A|---------------------------------------------------------------------------|
E|---------------------------------------------------------------------------|
 
  Guitar 1
e|---------------------------------------------------------------------------|X2
B|---------------------------------------------------------------------------|
G|--9----------------7-----------------5----------------------4--------------|
D|--9----------------7-----------------5----------------5-2-4-4-4-5-2--------|
A|--7-777-777-777-7--5-555-555-555--5--3-333-333-333-3--5-2-4-2-4-5-2--------|
E|------------------------------------------------------3-0-2---2-3-0--------|
      P.M..........    P.M...........    P.M..........
 
  Guitar 2                 
e|--------------------------------------------------------------3-2-0-7-2-3-0|X2
B|---------------------------------------------------------------------------|
G|---------------------------------------------------------------------------|
D|---------------------------------------------------------------------------|
A|---------------------------------------------------------------------------|
E|---------------------------------------------------------------------------|

  Guitar 1
e|---------------------------------------------------------------------------|X2
B|---------------------------------------------------------------------------|
G|--9----------------7-----------------5----------------------4--------------|
D|--9----------------7-----------------5----------------5-2-4-4-4-5-2--------|
A|--7-777-777-777-7--5-555-555-555--5--3-333-333-333-3--5-2-4-2-4-5-2--------|
E|------------------------------------------------------3-0-2---2-3-0--------|
      P.M..........    P.M...........    P.M..........
 
  Guitar 2
e|-0-2-3-5-3-2-0---0-2-3-5-3-2-0--0-2-3-5-3-2-0----3-2-0-7-2-3-0-------------|X2
B|--------------3---------------3--------------3-----------------------------|
G|---------------------------------------------------------------------------|
D|---------------------------------------------------------------------------|
A|---------------------------------------------------------------------------|
E|---------------------------------------------------------------------------|

e|---------------------------------------------------------------------------|X2
B|---------------------------------------------------------------------------|
G|-----4---------------------------------------------------------------------|
D|-5-4-4-5---------2----------2----------2----------2----------2-------------|
A|-5-4-2-5---------2----------2----------2----------2----------2-------------|
E|-3-2---3-0-0-0-0-0--0-0-0-0-0--0-0-0-0-0--0-0-0-0-0--0-0-0-0-0-------------|
           P.M....    P.M....    P.M....    P.M....    P.M....

  Guitar 1
e|---------------------------------------------------------------------------|
B|-8-8-8-9-8--8-8-----8-8-8-9-8--8-8-----------------------------------------|
G|-x-x-x-x-x--x-x-----x-x-x-x-x--x-x-----------------------------------------|
D|-5-5-5-6-5--5-5-----5-5-5-6-5--5-5-----------------------------------------|
A|---------------------------------------------------------------------------|
E|---------------------------------------------------------------------------|
  
  Guitar 2
e|---------------------------------------------------------------------------------------|
B|---------------------------------------------------------------------------------------|
G|-----4---------------------------------------------------------------------------5-----|
D|-5-4-4-5-----------2-----------2-----------2--4-5-4-----------2-----------2--5-4-5-5-2-|
A|-5-4-2-5-----------2-----------2-----------2--4-5-4-----------2-----------2--5-4-3-5-2-|
E|-3-2---3--0-0-0-0--0--0-0-0-0--0--0-0-0-0--0--2-3-2--0-0-0-0--0--0-0-0-0--0--3-2---3-0-|
            P.M....     P.M....     P.M....            P.M....     P.M....

                              Machine gun
 Pick Scrape
e|---------------------------------------------------------------------------|
B|---------------------------------------------------------------------------|
G|-------------666--------------666------------------------------------------|
D|-666-444-333-666--666-444-333-666--666-444-333------6----------66----------|
A|-666-444-333-444--666-444-333-444--666-444-333-666--6-66666666666666666666-|
E|-444-222-111------444-222-111------444-222-111-444--4-44444444444444444444-|
                                                |P.M|   |   p.M  | |   p.m  |
e|---------------------------------------------------------------------------|
B|---------------------------------------------------------------------------|
G|---------------------------------------------------------------------------|
D|------6666------66-----------6666-----6666---------------------------------|
A|-4444-4444-6666-66-6666-4444-4444-66666666---------------------------------|
E|-2222------4444-44-4444-2222------44444444---------------------------------|
   P.M...........    ....................

e|---------------------------------------------------------------------------|X2
B|---------------------------------------------------------------------------|
G|-------------------6-6-6-6-------------------------------------------------|
D|-6-6-6-6--4-4-4-4--6-6-6-6--6-6-6-6----------------------------------------|
A|-6-6-6-6--4-4-4-4--4-4-4-4--6-6-6-6----------------------------------------|
E|-4-4-4-4--2-2-2-2-----------4-4-4-4----------------------------------------|

e|---------------------------------------------------------------------------|X2
B|---------------------------------------------------------------------------|
G|---------------------------------------------------------------------------|
D|-4-4--3-3--6-6--6-5--------------------------------------------------------|
A|-4-4--3-3--6-6--6-5--------------------------------------------------------|
E|-2-2--1-1--4-4--4-3--------------------------------------------------------|

e|---------------------------------------------------------------------------|
B|---------------------------------------------------------------------------|
G|-------------666--------------666------------------------------------------|
D|-666-444-333-666--666-444-333-666--666-444-333------6----------66----------|
A|-666-444-333-444--666-444-333-444--666-444-333-666--6-66666666666666666666-|
E|-444-222-111------444-222-111------444-222-111-444--4-44444444444444444444-|
                                                 P.M    .........  .........
e|---------------------------------------------------------------------------|
B|---------------------------------------------------------------------------|
G|---------------------------------------------------------------------------|
D|------6666------66-----------6666-----6666---------------------------------|
A|-4444-4444-6666-66-6666-4444-4444-66666666---------------------------------|
E|-2222------4444-44-4444-2222------44444444---------------------------------|
   P.M...........    ....................

e|---------------------------------------------------------------------------|X2
B|---------------------------------------------------------------------------|
G|---------------------------------------------------------------------------|
D|-4-4--3-3--6-6--6-5--------------------------------------------------------|
A|-4-4--3-3--6-6--6-5--------------------------------------------------------|
E|-2-2--1-1--4-4--4-3--------------------------------------------------------|

e|---------------------------------------------------------------------------|
B|---------------------------------------------------------------------------|
G|-6-6-6-6--8-8-8-8-----------6-6-6-6--8-8-8-8-------------------------------|
D|-6-6-6-6--8-8-8-8--6-6-6-6--6-6-6-6--8-8-8-8--8-8--6-6--4-4----------------|
A|-4-4-4-4--6-6-6-6--6-6-6-6--4-4-4-4--6-6-6-6--8-8--6-6--4-4----------------|
E|-------------------4-4-4-4--------------------6-6--4-4--2-2----------------|

Solo:
e|---9-8-9-8-9-8-9-----------------9-8-9-8-9-8-9-11-13-11-9---------|
B|-----------------9-7-9-7-9-7-6-7--------------------------13-11-9-|
G|------------------------------------------------------------------|
D|------------------------------------------------------------------|
A|------------------------------------------------------------------|
E|------------------------------------------------------------------|

e|---------8b-----------8b-----------8b---11-13-11----------|
B|-9-8-9-8---8-9-8-9-8-----8-9-8-9-8----8----------13-11-9--|
G|----------------------------------------------------------|
D|----------------------------------------------------------|
A|----------------------------------------------------------|
E|----------------------------------------------------------|

e|---------------------------------------------------------------------------|X10
B|---------------------------------------------------------------------------|
G|---------------------------------------------------------------------------|
D|---------------------------------------------------------------------------|
A|---------------------------------------------------------------------------|
E|-2-1-2-1-2-1-2-4-2-1-------------------------------------------------------|

e|-----------------------------------X4--------------------------------------|
B|---------------------------------------------------------------------------|
G|----------------------------6-6-6-6----------------------------------------|
D|-6-6-6-6--4-4-4-4--3-3-3-3--6-6-6-6----6-6-6-6-6-6-6-6---------------------|
A|-6-6-6-6--4-4-4-4--3-3-3-3--4-4-4-4----6-6-6-6-6-6-6-6---------------------|
E|-4-4-4-4--2-2-2-2--1-1-1-1-------------4-4-4-4-4-4-4-4---------------------|

		           WHAT I BELIEVE
  Guitar 1
e|---------------------------------------------------------------------------|
B|---------------------------------------------------------------------------|
G|-11-11-11-11-11-11-11-11---------------------------------------------------|
D|-11-11-11-11-11-11-11-11---------------------------------------------------|
A|--9--9--9--9--9--9--9--9---------------------------------------------------|
E|---------------------------------------------------------------------------|

  Guitar 2
e|---------------------------------------------------------------------------|
B|---------------------------------------------------------------------------|
G|-8-9-11-9-8--9-11-9-6-9----------------------------------------------------|
D|-x-x--x-x-x--x--x-x-x-x----------------------------------------------------|
A|-6-7--9-7-6--7--9-7-4-7----------------------------------------------------|
E|---------------------------------------------------------------------------|

  Guitar 1
e|---------------------------------------------------------------------------|
B|-0-4-0-7-5-4--0-4-0-7-5-4--0-4-0-7-5-4--5-4-2-5-4-5------------------------|
G|---------------------------------------------------------------------------|
D|---------------------------------------------------------------------------|
A|---------------------------------------------------------------------------|
E|---------------------------------------------------------------------------|

e|---------------------------------------------------------------------------|
B|-0-4-0-7-5-4--0-4-0-7-5-4--0-4-0-7-5-4--5-4-2-0----------------------------|
G|------------------------------------------------3-4------------------------|
D|---------------------------------------------------------------------------|
A|---------------------------------------------------------------------------|
E|---------------------------------------------------------------------------|

  Guitar 2
e|---------------------------------------------------------------------------|X2
B|---------------------------------------------------------------------------|
G|-4-4-4-4--------------------9-9-9-9----------------------------------------|
D|-4-4-4-4--6-6-6-6--4-4-4-4--9-9-9-9----------------------------------------|
A|-2-2-2-2--6-6-6-6--4-4-4-4--7-7-7-7----------------------------------------|
E|----------4-4-4-4--2-2-2-2-------------------------------------------------|

e|----------------------------------------------------------0----------------|
B|----------------------------------------------------------0----------------|
G|-4-4-4-4--------------------9-9-9-9---4-4-4-4------------------------------|
D|-4-4-4-4--6-6-6-6--4-4-4-4--9-9-9-9---4-4-4-4--6-6-6-6--4------------------|
A|-2-2-2-2--6-6-6-6--4-4-4-4--7-7-7-7---2-2-2-2--6-6-6-6--4------------------|
E|----------4-4-4-4--2-2-2-2---------------------4-4-4-4--2------------------|

e|---------------------------------------------------------------------------|
B|---------------------------------------------------------------------------|
G|-4-4-4-4-4-4-4-4-----------------------------------------------------------|
D|-4-4-4-4-4-4-4-4-----------------------------------------------------------|
A|-2-2-2-2-2-2-2-2-----------------------------------------------------------|
E|---------------------------------------------------------------------------|

e|---------------------------------------------------------------------------|
B|---------------------------------------------------------------------------|
G|---------------------------------------------------------------------------|
D|-4-4-4-4--2-2-2-2--4-4-4-4--6-6-6-6--4-4-4-4-4-4-4-4--6-6-6-6--4-4-4-4-----|
A|-4-4-4-4--2-2-2-2--4-4-4-4--6-6-6-6--4-4-4-4-4-4-4-4--6-6-6-6--4-4-4-4-----|
E|-2-2-2-2--0-0-0-0--2-2-2-2--4-4-4-4--2-2-2-2-2-2-2-2--4-4-4-4--2-2-2-2-----|

  Guitar 1
e|---------------------------------------------------------------------------|X2
B|---------------------------------------------------------------------------|
G|-8-9-8-6-------------------------------------------------------------------|
D|-x-x-x-x-------------------------------------------------------------------|
A|-6-7-6-4-------------------------------------------------------------------|
E|---------------------------------------------------------------------------|
 
  Guitar 2
e|---------------------------------------------------------------------------|
B|---------------------------------------------------------------------------|
G|-4--------4--------4-----------4-------------------------------------------|
D|-4--2--4--4--2--4--4--2--4--2--4-------------------------------------------|
A|-2--2--4--2--2--4--2--2--4--2--2-------------------------------------------|
E|----0--2-----0--2-----0--2--0----------------------------------------------|

  Guitar 1
e|---------------------------------------------------------------------------|
B|-0-4-0-7-5-4--0-4-0-7-5-4--0-4-0-7-5-4--5-4-2-5-4-5------------------------|
G|---------------------------------------------------------------------------|
D|---------------------------------------------------------------------------|
A|---------------------------------------------------------------------------|
E|---------------------------------------------------------------------------|

e|---------------------------------------------------------------------------|
B|-0-4-0-7-5-4--0-4-0-7-5-4--0-4-0-7-5-4--5-4-2-0----------------------------|
G|------------------------------------------------3-4------------------------|
D|---------------------------------------------------------------------------|
A|---------------------------------------------------------------------------|
E|---------------------------------------------------------------------------|
 
  Guitar 2
e|---------------------------------------------------------------------------|X2
B|---------------------------------------------------------------------------|
G|-4-4-4-4--------------------9-9-9-9----------------------------------------|
D|-4-4-4-4--6-6-6-6--4-4-4-4--9-9-9-9----------------------------------------|
A|-2-2-2-2--6-6-6-6--4-4-4-4--7-7-7-7----------------------------------------|
E|----------4-4-4-4--2-2-2-2-------------------------------------------------|

  Guitar 1
e|---------------------------------------------------------------------------|
B|---------------------------------------------------------------------------|
G|-4-4-4---------------------------------------------------------------------|
D|-4-4-4--4-4-4--2-2-2--6-6-6--4-4-4-----------------------------------------|
A|-2-2-2--4-4-4--2-2-2--6-6-6--4-4-4-----------------------------------------|
E|--------2-2-2--0-0-0--4-4-4--2-2-2-----------------------------------------|

  Guitar 2
e|---------------------------------------------------------------------------|
B|---------------------------------------------------------------------------|
G|--9-8-6-4------------------------------------------------------------------|
D|--x-x-x-x------------------------------------------------------------------|
A|--7-6-4-2------------------------------------------------------------------|
E|---------------------------------------------------------------------------|

e|---------------------------------------------------------------------------|
B|---------------------------------------------------------------------------|
G|-4-------------------------------------------------------------------------|
D|-4--x-x-x-x----------------------------------------------------------------|
A|-2--x-x-x-x----------------------------------------------------------------|
E|----x-x-x-x----------------------------------------------------------------|

Guitar 1
e|---------------------------------------------------------------------------|X2
B|---------------------------------------------------------------------------|
G|-8-9-8-6-------------------------------------------------------------------|
D|-x-x-x-x-------------------------------------------------------------------|
A|-6-7-6-4-------------------------------------------------------------------|
E|---------------------------------------------------------------------------|
 
  Guitar 2
e|---------------------------------------------------------------------------|
B|---------------------------------------------------------------------------|
G|-4--------4--------4-----------4-------------------------------------------|
D|-4--2--4--4--2--4--4--2--4--2--4-------------------------------------------|
A|-2--2--4--2--2--4--2--2--4--2--2-------------------------------------------|
E|----0--2-----0--2-----0--2--0----------------------------------------------|


  Guitar 1
e|---------------------------------------------------------------------------|
B|-0-4-0-7-5-4--0-4-0-7-5-4--0-4-0-7-5-4--5-4-2-5-4-5------------------------|
G|---------------------------------------------------------------------------|
D|---------------------------------------------------------------------------|
A|---------------------------------------------------------------------------|
E|---------------------------------------------------------------------------|

e|---------------------------------------------------------------------------|
B|-0-4-0-7-5-4--0-4-0-7-5-4--0-4-0-7-5-4--5-4-2-0----------------------------|
G|------------------------------------------------3-4------------------------|
D|---------------------------------------------------------------------------|
A|---------------------------------------------------------------------------|
E|---------------------------------------------------------------------------|

  Guitar 2
e|---------------------------------------------------------------------------|X2
B|---------------------------------------------------------------------------|
G|-4-4-4-4--------------------9-9-9-9----------------------------------------|
D|-4-4-4-4--6-6-6-6--4-4-4-4--9-9-9-9----------------------------------------|
A|-2-2-2-2--6-6-6-6--4-4-4-4--7-7-7-7----------------------------------------|
E|----------4-4-4-4--2-2-2-2-------------------------------------------------|

                              T.H.T
e|---------------------------------------------------------------------------|X4
B|---------------------------------------------------------------------------|
G|-7-10-10-10-10--7--10-10-10-10--7-10-10-10-10------------------------------|
D|-7-10-10-10-10--7--10-10-10-10--7-10-10-10-10--7---------------------------|
A|-5--8--8--8--8--5---8--8--8--8--5--8--8--8--8--7---------------------------|
E|-----------------------------------------------5---------------------------|

e|---------------------------------------------------------------------------|X2
B|---------------------------------------------------------------------------|
G|-7-10-9----7-10-9-5--------------------------------------------------------|
D|-7-10-9-7--7-10-9-5--------------------------------------------------------|
A|-5--8-7-7--5--8-7-3--------------------------------------------------------|
E|--------5------------------------------------------------------------------|

e|---------------------------------------------------------------------------|
B|---------------------------------------------------------------------------|
G|-----------7--7-10-10-10-10--7-10-10-10-10---------------------------------|
D|-5-5--7-7--7--7-10-10-10-10--7-10-10-10-10---------------------------------|
A|-5-5--7-7--5--5--8--8--8--8--5--8--8--8--8---------------------------------|
E|-3-3--5-5------------------------------------------------------------------|

e|---------------------------------------------------------------------------|
B|---------------------------------------------------------------------------|
G|-----10-9--------10-10-10-10--7--10-10-10-10--7--10-10-10-10---------------|
D|-5-7-10-9--5-7---10-10-10-10--7--10-10-10-10--7--10-10-10-10---------------|
A|-5-7--8-7--5-7-5--8--8--8--8--5---8--8--8--8--5---8--8--8--8---------------|
E|-3-5-------3-5-------------------------------------------------------------|

                       MAKES NO DIFFERENCE
e|---------------------------------------------------------------------------|X4
B|---------------------------------------------------------------------------|
G|-8-------------------------------8-8-7-------------------------------------|
D|-8---6h8-------------------------8-8-8-------------------------------------|
A|-6-x------8-8-8--8-8-8--10-8h10--6-6-6-------------------------------------|
E|----------6-6-6--6-6-6---8-------------------------------------------------|

e|---------------------------------------------------------------------------|X2
B|---------------------------------------------------------------------------|
G|---------------------------------------------------------------------------|
D|-8-8-8-8--7-7-7-7----------------------------------------------------------|
A|-6-6-6-6--5-5-5-5--10-10-10-10--6-6-6-6------------------------------------|
E|--------------------8--8--8--8--4-4-4-4------------------------------------|
   P.M...................................

e|---------------------------------------------------------------------------|X2
B|---------------------------------------------------------------------------|
G|-8-8-8-8--7-7-7-7----------------------------------------------------------|
D|-8-8-8-8--7-7-7-7--10-10-10-10--6-6-6-6------------------------------------|
A|-6-6-6-6--5-5-5-5--10-10-10-10--6-6-6-6------------------------------------|
E|--------------------8--8--8--8--4-4-4-4------------------------------------|

e|---------------------------------------------------------------------------|X2
B|---------------------------------------------------------------------------|
G|-8-8-8-8-------------------------------------------------------------------|
D|-8-8-8-8--5-5-5-5--6-6-6-6-10-10-10-10-------------------------------------|
A|-6-6-6-6--5-5-5-5--6-6-6-6-10-10-10-10-------------------------------------|
E|----------3-3-3-3--4-4-4-4--8--8--8--8-------------------------------------|

e|-----------------------------------------------------------------------------------------|
B|-----------------------------------------------------------------------------------------|
G|-12-12-12-12-13-12-10---12-12-12-12-13-12--8--12-12-12-12-15-13-10--12-12-12-12-13-15-8--|
D|--x--x--x--x--x--x--x----x--x--x--x--x--x--x---x--x--x--x--x--x--x---x--x--x--x--x--x-x--|
A|-10-10-10-10-11-10--8---10-10-10-10-11-10--6--10-10-10-10-13-11--8--10-10-10-10-11-13-6--|
E|-----------------------------------------------------------------------------------------|

e|---------------------------------------------------------------------------|X2
B|---------------------------------------------------------------------------|
G|---------------------------------------------------------------------------|
D|-8-8-8-8--7-7-7-7----------------------------------------------------------|
A|-6-6-6-6--5-5-5-5--10-10-10-10--6-6-6-6------------------------------------|
E|--------------------8--8--8--8--4-4-4-4------------------------------------|
   P.M...................................

e|---------------------------------------------------------------------------|X2
B|---------------------------------------------------------------------------|
G|-8-8-8-8--7-7-7-7----------------------------------------------------------|
D|-8-8-8-8--7-7-7-7--10-10-10-10--6-6-6-6------------------------------------|
A|-6-6-6-6--5-5-5-5--10-10-10-10--6-6-6-6------------------------------------|
E|--------------------8--8--8--8--4-4-4-4------------------------------------|

e|---------------------------------------------------------------------------|X2
B|---------------------------------------------------------------------------|
G|-8-8-8-8-------------------------------------------------------------------|
D|-8-8-8-8--5-5-5-5--6-6-6-6-10-10-10-10-------------------------------------|
A|-6-6-6-6--5-5-5-5--6-6-6-6-10-10-10-10-------------------------------------|
E|----------3-3-3-3--4-4-4-4--8--8--8--8-------------------------------------|

e|---------------------------------------------------------------------------|X2
B|---------------------------------------------------------------------------|
G|-9-9-9-9--8-8-8-8----------------------------------------------------------|
D|-9-9-9-9--8-8-8-8--8-8-8-8--6-6-6-6----------------------------------------|
A|-7-7-7-7--6-6-6-6--8-8-8-8--6-6-6-6----------------------------------------|
E|-------------------6-6-6-6--4-4-4-4----------------------------------------|

e|---------------------------------------------------------------------------|X8
B|---------------------------------------------------------------------------|
G|---------------------------------------------------------------------------|
D|---------------------------------------------------------------------------|
A|-6-6-6-6-------------------------------------------------------------------|
E|---------6-6-6-6--8-8-8-8--4-4-4-4-----------------------------------------|
   P.M..............................

e|---------------------------------------------------------------------------|X2
B|---------------------------------------------------------------------------|
G|---------------------------------------------------------------------------|
D|-2-2-2-2--4-4-4-4--6-6-6-6--10-10-10-10------------------------------------|
A|-2-2-2-2--4-4-4-4--6-6-6-6--10-10-10-10------------------------------------|
E|-0-0-0-0--2-2-2-2--4-4-4-4---8--8--8--8------------------------------------|

e|-----------------------------------------------------------------------------------------|X2
B|-----------------------------------------------------------------------------------------|
G|-12-12-12-12-13-12-10---12-12-12-12-13-12--8--12-12-12-12-15-13-10--12-12-12-12-13-15-8--|
D|--x--x--x--x--x--x--x----x--x--x--x--x--x--x---x--x--x--x--x--x--x---x--x--x--x--x--x-x--|
A|-10-10-10-10-11-10--8---10-10-10-10-11-10--6--10-10-10-10-13-11--8--10-10-10-10-11-13-6--|
E|-----------------------------------------------------------------------------------------|

e|---------------------------------------X4----------------------------------|
B|---------------------------------------------------------------------------|
G|-8-------------------------------8-8-7-------------------------------------|
D|-8---6h8-------------------------8-8-8-------------------------------------|
A|-6-x------8-8-8--8-8-8--10-8h10--6-6-6-------------------------------------|
E|----------6-6-6--6-6-6---8-------------------------------------------------|

			      SUMMER
e|---------------------------------------------------------------------------|
B|-10-10--10--8-8--8--7-7--7--7-h-8-p-7--------------------------------------|
G|-7--7---7---7-7--7--7-7--7--7---7---7--------------------------------------|
D|---------------------------------------------------------------------------|
A|---------------------------------------------------------------------------|
E|---------------------------------------------------------------------------|

  Guitar 2
e|---------------------------------------------------------------------------|
B|---------------------------------------------------------------------------|
G|-7-4-----------------------------------------------------------------------|
D|-7-4-5-7-------------------------------------------------------------------|
A|-5-2-5-7-------------------------------------------------------------------|
E|-----3-5-------------------------------------------------------------------|

  Guitar 1
e|--------------------------------------------------------------------------------|
B|--------------------------------------------------------------------------------|
G|--7-9-9-11-11-12-11---7-9-9-11-11-12-14----7-9-9-11-11-12-11---7-9-9-11-9-11-9--|
D|--x-x-x--x--x--x--x---x-x-x--x--x--x--x----x-x-x--x--x--x--x---x-x-x--x-x--x-x--|
A|--5-7-7--9--9-10--9---5-7-7--9--9-10-12----5-7-7--9--9-10--9---5-7-7--9-7--9-7--|
E|--------------------------------------------------------------------------------|

  Guitar 2
e|---------------------------------------------------------------------------|
B|---------------------------------------------------------------------------|
G|-7-7-7-7--4-4-4-4----------------------------------------------------------|
D|-7-7-7-7--4-4-4-4--5-5-5-5--7-7-7-7----------------------------------------|
A|-5-5-5-5--2-2-2-2--5-5-5-5--7-7-7-7----------------------------------------|
E|-------------------3-3-3-3--5-5-5-5----------------------------------------|

e|---------------------------------------------------------------------------|X4
B|---------------------------------------------------------------------------|
G|-7-7-7-7--4-4-4-4----------------------------------------------------------|
D|-7-7-7-7--4-4-4-4--2-2-2-2--5-5-5-5----------------------------------------|
A|-5-5-5-5--2-2-2-2--2-2-2-2--5-5-5-5----------------------------------------|
E|-------------------0-0-0-0--3-3-3-3----------------------------------------|
  

e|---------------------------------------------------------------------------|
B|---------------------------------------------------------------------------|
G|------7-7-7-7-------------------7-7-7-7------------------------------------|
D|-2-5--7-7-7-7-4-4-4-4--5-5-5-5--7-7-7-7--4-4-4-4--5-5-5-5------------------|
A|-2-5--5-5-5-5-4-4-4-4--5-5-5-5--5-5-5-5--4-4-4-4--5-5-5-5------------------|
E|-0-3----------2-2-2-2--3-3-3-3-----------2-2-2-2--3-3-3-3------------------|

e|---------------------------------------------------------------------------|X6
B|---------------------------------------------------------------------------|
G|-7-7-7-7--4-4-4-4----------------------------------------------------------|
D|-7-7-7-7--4-4-4-4--5-5-5-5--7-7-7-7----------------------------------------|
A|-5-5-5-5--2-2-2-2--5-5-5-5--7-7-7-7----------------------------------------|
E|-------------------3-3-3-3--5-5-5-5----------------------------------------|

 Guitar 1
e|--------------------------------------------------------------------------------|X2
B|--------------------------------------------------------------------------------|
G|--7-9-9-11-11-12-11---7-9-9-11-11-12-14----7-9-9-11-11-12-11---7-9-9-11-9-11-9--|
D|--x-x-x--x--x--x--x---x-x-x--x--x--x--x----x-x-x--x--x--x--x---x-x-x--x-x--x-x--|
A|--5-7-7--9--9-10--9---5-7-7--9--9-10-12----5-7-7--9--9-10--9---5-7-7--9-7--9-7--|
E|--------------------------------------------------------------------------------|

  Guitar 2
e|---------------------------------------------------------------------------|X2
B|---------------------------------------------------------------------------|
G|-7-7-7-7--4-4-4-4----------------------------------------------------------|
D|-7-7-7-7--4-4-4-4--5-5-5-5--7-7-7-7----------------------------------------|
A|-5-5-5-5--2-2-2-2--5-5-5-5--7-7-7-7----------------------------------------|
E|-------------------3-3-3-3--5-5-5-5----------------------------------------|

e|---------------------------------------------------------------------------|X4
B|---------------------------------------------------------------------------|
G|-7----------4--------------------------------------------------------------|
D|-7----------4----------5----------7----------------------------------------|
A|-5-5-5-5-5--2-2-2-2-2--5----------7----------------------------------------|
E|-----------------------3-3-3-3-3--5-5-5-5-5--------------------------------|
     P.M....    P.M....    P.M....    P.M....

e|---------------------------------------------------------------------------|
B|---------------------------------------------------------------------------|
G|---7-7-7-7-------------------7-7-7-7---------------------------------------|
D|---7-7-7-7-4-4-4-4--5-5-5-5--7-7-7-7--4-4-4-4--5-5-5-5---------------------|
A|---5-5-5-5-4-4-4-4--5-5-5-5--5-5-5-5--4-4-4-4--5-5-5-5---------------------|
E|-----------2-2-2-2--3-3-3-3-----------2-2-2-2--3-3-3-3---------------------|

e|---------------------------------------------------------------------------|X6
B|---------------------------------------------------------------------------|
G|-7-7-7-7--4-4-4-4----------------------------------------------------------|
D|-7-7-7-7--4-4-4-4--5-5-5-5--7-7-7-7----------------------------------------|
A|-5-5-5-5--2-2-2-2--5-5-5-5--7-7-7-7----------------------------------------|
E|-------------------3-3-3-3--5-5-5-5----------------------------------------|

                           32 ways to die
e|---------------------------------------------------------------------------|
B|---------------------------------------------------------------------------|
G|-9-9-9-9/--10-10-10-10/--12-12-12-12/--10-10-10-10/------------------------|
D|-9-9-9-9/--10-10-10-10/--12-12-12-12/--10-10-10-10/------------------------|
A|-7-7-7-7/---8--8--8--8/--10-10-10-10/---8--8--8--8/------------------------|
E|---------------------------------------------------------------------------|

  Guitar 1
e|--------------------------X4-----------------------------------------------|
B|-^-^--^-^-^-^---^--^--^--^--^----------------------------------------------|
G|-8-8--9-9-8-8--10-10-10-10--8----------------------------------------------|
D|---------------------------------------------------------------------------|
A|---------------------------------------------------------------------------|
E|---------------------------------------------------------------------------|
  Guitar 2
e|---------------------------------------------------------------------------|
B|---------------------------------------------------------------------------|
G|---------------------------------------------------------------------------|
D|-2-2--3-3--2-2--5-5-5-5----------------------------------------------------|
A|-2-2--3-3--2-2--5-5-5-5----------------------------------------------------|
E|-0-0--1-1--0-0--3-3-3-3----------------------------------------------------|

               SECOND CHANCE FOR MAX HEADROOM
e|------------------------------------------------------------------------------|
B|------------------------------------------------------------------------------|
G|--5-5-5-5-5-5-5-5-5-5-5-------------------------------------------------------|
D|--5-5-5-5-5-5-5-5-5-5-5--3-2----3-2-----3-3-3-3-3-3-3-3-3--3-2----3-2---------|
A|--3-3-3-3-3-3-3-3-3-3-3------3------3---3-3-3-3-3-3-3-3-3------3------3-------|
E|----------------------------------------1-1-1-1-1-1-1-1-1---------------------|

e|------------------------------------------------------------------------------|
B|------------------------------------------------------------------------------|
G|--5-5-5-5-5-5-5-5-5-5-5-------------------------------------------------------|
D|--5-5-5-5-5-5-5-5-5-5-5--3-2----3-2-----5------------------3------------------|
A|--3-3-3-3-3-3-3-3-3-3-3------3------3---5------------------3------------------|
E|----------------------------------------3------------------1------------------|

e|------------------------------------------------------------------------------|
B|------------------------------------------------------------------------------|
G|--5-5-5-5-5-5-5-5-5-5-5-5-5-5-5-5-----------5-5-5-5---------------------------|
D|--5-5-5-5-5-5-5-5-5-5-5-5-5-5-5-5--3-3-3-3--5-5-5-5--5-5-5-5-5-5-5-5----3--3-3|
A|--3-3-3-3-3-3-3-3-3-3-3-3-3-3-3-3--3-3-3-3--3-3-3-3--5-5-5-5-5-5-5-5----3--3-3|
E|-----------------------------------1-1-1-1-----------3-3-3-3-3-3-3-3----1--1-1|

e|------------------------------------------------------------------------------|
B|------------------------------------------------------------------------------|
G|--5-5-5-5-5-5-5-5------------------5-5-5-5------------------------------------|
D|--5-5-5-5-5-5-5-5---------3-3-3-3--5-5-5-5--5-5-5-5-5-5-5-5-5-5-5-5-----------|
A|--3-3-3-3-3-3-3-3---------3-3-3-3--3-3-3-3--5-5-5-5-5-5-5-5-5-5-5-5-----------|
E|--------------------------1-1-1-1-----------3-3-3-3-3-3-3-3-3-3-3-3-----------|
                                              P.M   P.M   P.M   P.M

e|----------------------------------------------------------------------------|
B|----------------------------------------------------------------------------|
G|----------------------------------------------------------------------------|
D|--7--------5--3-3-3-3-3-3-3-3-3-3-3-3-3-3-3-3-------------------------------|
A|--7--------5--3-3-3-3-3-3-3-3-3-3-3-3-3-3-3-3-------------------------------|
E|--5--------3--1-1-1-1-1-1-1-1-1-1-1-1-1-1-1-1-------------------------------|


e|--------------------------------------------------------------------------|
B|--------------------------------------------------------------------------|
G|--5-5-5-5-----------------------------5-5-5-5-----------------------------|
D|--5-5-5-5--3-3-3-3--5-5-5-5--3-3-3-3--5-5-5-5--3-3-3-3--5-5-5-5--3-3-3-3--|
A|--3-3-3-3--3-3-3-3--5-5-5-5--3-3-3-3--3-3-3-3--3-3-3-3--5-5-5-5--3-3-3-3--|
E|-----------1-1-1-1--3-3-3-3--1-1-1-1-----------1-1-1-1--3-3-3-3--1-1-1-1--|


e|----------------------------------------------------------------|
B|----------------------------------------------------------------|
G|--5-5-5-5-5-5-5-5-----------------------------------------------|
D|--5-5-5-5-5-5-5-5--3-2----3-2----3-3-3-3-3-3-3-3--3-2----3-2----|
A|--3-3-3-3-3-3-3-3------3------3--3-3-3-3-3-3-3-3------3------3--|
E|---------------------------------1-1-1-1-1-1-1-1----------------|

e|-------------------------------------------------------------------------|
B|-------------------------------------------------------------------------|
G|--5-5-5-5-5-5-5-5--------------------------------------------------------|
D|--5-5-5-5-5-5-5-5--3-2----3-2----------------0-2-3-----------------------|
A|--3-3-3-3-3-3-3-3------3------3-------0-2-3------------------------------|
E|-----------------------------------3-------------------------------------|

  Guitar 1
e|---------------------------------------------------------------------------|
B|--8--6--5h6-5h6------------------------------------------------------------|
G|---------------------------------------------------------------------------|
D|---------------------------------------------------------------------------|
A|---------------------------------------------------------------------------|
E|---------------------------------------------------------------------------|

  Guitar 2
e|---------------------------------------------------------------------------|
B|---------------------------------------------------------------------------|
G|---------------------------------------------------------------------------|
D|-5-3--2h3--2h3-------------------------------------------------------------|
A|---------------------------------------------------------------------------|
E|---------------------------------------------------------------------------|

e|----------------------------------------------------------------------|
B|----------------------------------------------------------------------|
G|--5-5-5-5-5-5-5-5-5-5-5-5-5-5-5-5-----------5-5-5-5-------------------|
D|--5-5-5-5-5-5-5-5-5-5-5-5-5-5-5-5--3-3-3-3--5-5-5-5--5-5-5-5-5-5-5-5--|
A|--3-3-3-3-3-3-3-3-3-3-3-3-3-3-3-3--3-3-3-3--3-3-3-3--5-5-5-5-5-5-5-5--|
E|-----------------------------------1-1-1-1-----------3-3-3-3-3-3-3-3--|
                                     P.M..............................

e|-----------------------------------------------------------------------|
B|-----------------------------------------------------------------------|
G|-----------------------------------------------------------------------|
D|--7-7-7-7--3-3-3-3--7-7-7-7--3-3-3-3--5-5-5-5--3-3-3-3-----------------|
A|--7-7-7-7--3-3-3-3--7-7-7-7--3-3-3-3--5-5-5-5--3-3-3-3-----------------|
E|--5-5-5-5--1-1-1-1--5-5-5-5--1-1-1-1--3-3-3-3--1-1-1-1-----------------|
    P.M.................................................

e|-------------------------------------------------------------|
B|--5--6--8--10-12-10--8--10--8---5--5-6-8--5-6-8--6--8-6-5-6--|
G|-------------------------------------------------------------|
D|-------------------------------------------------------------|
A|-------------------------------------------------------------|
E|-------------------------------------------------------------|

e|------------------------------------------------------------------|
B|--6p5-6p5-6p5-6p5-6p5-6p5--10--8----6p5-6p5-6p5-6p5-6p5-6p5--10-8-|
G|------------------------------------------------------------------|
D|------------------------------------------------------------------|
A|------------------------------------------------------------------|
E|------------------------------------------------------------------|

e|------------------------------------------------------------------|
B|--6p5-6p5-6p5-6p5-6p5-6p5--10--8---6p5-6p5-6p5-6p5-6p5-6p5--10--8-|
G|------------------------------------------------------------------|
D|------------------------------------------------------------------|
A|------------------------------------------------------------------|
E|------------------------------------------------------------------|

e|------------------------------------------------------------------------------|
B|--5----5-6-8--6--5----5-6-8--6--5----5-6-8--6--8-6-5-6-8-6-5-6--13------------|
G|------------------------------------------------------------------------------|
D|------------------------------------------------------------------------------|
A|------------------------------------------------------------------------------|
E|------------------------------------------------------------------------------|

e|---------------------------------------------------------------------------|X4
B|-8-8-8--10-10-10--6-6-6--5-5-5---------------------------------------------|
G|---------------------------------------------------------------------------|
D|---------------------------------------------------------------------------|
A|---------------------------------------------------------------------------|
E|---------------------------------------------------------------------------|

e|----------------------------------------------------------------------------|
B|--6p5-6p5-6p5-6p5-6p5-6p5-6p5-6p5--6----------------------------------------|
G|----------------------------------------------------------------------------|
D|----------------------------------------------------------------------------|
A|----------------------------------------------------------------------------|
E|----------------------------------------------------------------------------|

e|-----------------------------------------------------------------------|
B|-----------------------------------------------------------------------|
G|--5-5-5-5-5-5-5-5-------------------5-5-5-5-5-5-5-5--------------------|
D|--5-5-5-5-5-5-5-5--3-3-3-3-3-3-3-3--5-5-5-5-5-5-5-5--5-5-5-5--3-3-3-3--|
A|--3-3-3-3-3-3-3-3--3-3-3-3-3-3-3-3--3-3-3-3-3-3-3-3--5-5-5-5--3-3-3-3--|
E|-------------------1-1-1-1-1-1-1-1-------------------3-3-3-3--1-1-1-1--|
    P.M................................................................

e|-----------------------------------------------------------------------|X4
B|-----------------------------------------------------------------------|
G|--5-5-5-5-5-5-5-5-------------------5-5-5-5-5-5-5-5--------------------|
D|--5-5-5-5-5-5-5-5--3-3-3-3-3-3-3-3--5-5-5-5-5-5-5-5--5-5-5-5--3-3-3-3--|
A|--3-3-3-3-3-3-3-3--3-3-3-3-3-3-3-3--3-3-3-3-3-3-3-3--5-5-5-5--3-3-3-3--|
E|-------------------1-1-1-1-1-1-1-1-------------------3-3-3-3--1-1-1-1--|

 
      DAVE'S POSSESSED HAIR/IT'S WHAT WE'RE ALL ABOUT
e|---------------------------------------------------------------------------|X4
B|---------------------------------------------------------------------------|
G|-4-4-4---------------------------------------------------------------------|
D|-4-4-4--4-4-4-4--2-2-2--7-7-7----------------------------------------------|
A|-2-2-2--4-4-4-4--2-2-2--7-7-7----------------------------------------------|
E|--------2-2-2-2--0-0-0--5-5-5----------------------------------------------|

e|---------------------------------------------------------------------------|X2
B|---------------------------------------------------------------------------|
G|-11--9--8------------------------------------------------------------------|
D|--x--9--8------------------------------------------------------------------|
A|--9--7--6------------------------------------------------------------------|
E|---------------------------------------------------------------------------|

e|---------------------------------------------------------------------------|
B|---------------------------------------------------------------------------|
G|---------------------------------------------------------------------------|
D|-4-4-4-4--2-2-2-2--4-4-4-4--2-2-2-2----------------------------------------|
A|-4-4-4-4--2-2-2-2--4-4-4-4--2-2-2-2----------------------------------------|
E|-2-2-2-2--0-0-0-0--2-2-2-2--0-0-0-0----------------------------------------|

e|-----------------------------------------------------------------------------|
B|-----------------------------------------------------------------------------|
G|-8-8-8-8--6-6-6-6--9-9-9-9-----------8-8-8-8--6-6-6-6--9-9-9-9---------------|
D|-x-x-x-x--x-x-x-x--x-x-x-x--9-9-9-9--x-x-x-x--x-x-x-x--x-x-x-x------9-----9--|
A|-6-6-6-6--4-4-4-4--7-7-7-7--x-x-x-x--6-6-6-6--4-4-4-4--7-7-7-7------9-----9--|
E|----------------------------7-7-7-7-----------------------------7-7-7-7-7-7--|
                                                                  p.m   p.m

e|---------------------------------------------------------------------------|
B|---------------------------------------------------------------------------|
G|-8-8-8-8--6-6-6-6--9-9-9-9-----------8-8-8-8--6-6-6-6--9-9-9-9-------------|
D|-x-x-x-x--x-x-x-x--x-x-x-x--9-9-9-9--x-x-x-x--x-x-x-x--x-x-x-x--9-9-9-9----|
A|-6-6-6-6--4-4-4-4--7-7-7-7--x-x-x-x--6-6-6-6--4-4-4-4--7-7-7-7--x-x-x-x----|
E|----------------------------7-7-7-7-----------------------------7-7-7-7----|

e|---------------------------------------------------------------------------|
B|---------------------------------------------------------------------------|
G|-7-7-7-7--------------------7-7-7-7----------------------------------------|
D|-7-7-7-7--7-7-7-7--2-2-2-2--7-7-7-7--7-7-7-7--4----------------------------|
A|-5-5-5-5--7-7-7-7--2-2-2-2--5-5-5-5--7-7-7-7--4----------------------------|
E|----------5-5-5-5--0-0-0-0-----------5-5-5-5--2----------------------------|

e|--------------------X4------------------------------------X8---------------|
B|---------------------------------------------------------------------------|
G|---------------------------------------------------------------------------|
D|-4----------------------4------------------4-4-4-4-4-4-4-4-----------------|
A|-4----------------------4------------------4-4-4-4-4-4-4-4-----------------|
E|-2-2-2-2-2-2-2-2-2------2-2-2-2-2-2-2-2-2--2-2-2-2-2-2-2-2-----------------|
     P.M............        P.M............

e|---------------------------------------------------------------------------|
B|---------------------------------------------------------------------------|
G|---------------------------------------------------------------------------|
D|-4-4-4-4-4-4-4-4-4-4-4-4-4-4-4-4-------------------------------------------|
A|-4-4-4-4-4-4-4-4-4-4-4-4-4-4-4-4-------------------------------------------|
E|-2-2-2-2-2-2-2-2-2-2-2-2-2-2-2-2-------------------------------------------|

e|---------------------------------------------------------------------------|X3
B|---------------------------------------------------------------------------|
G|-----------4---4-------------4---------------------------------------------|
D|-4-4--7-7--4-7-4---4-4--7-7--4---------------------------------------------|
A|-4-4--7-7--2-7-2---4-4--7-7--2--0-0-2-2-0-0-2-3-2-0------------------------|
E|-2-2--5-5----5-----2-2--5-5-------------------------2----------------------|
                                  P.M..................

e|---------------------------------------------------------------------------|
B|---------------------------------------------------------------------------|
G|-----------4---4-------------4---------------------------------------------|
D|-4-4--7-7--4-7-4---4-4--7-7--4---------------------------------------------|
A|-4-4--7-7--2-7-2---4-4--7-7--2---------------------------------------------|
E|-2-2--5-5----5-----2-2--5-5------------------------------------------------|
                             
e|---------------------------------------------------------------------------|X8
B|---------------------------------------------------------------------------|
G|---------4-4--5------------------------------------------------------------|
D|-4-4--7--4-4--5------------------------------------------------------------|
A|-4-4--7--2-2--3------------------------------------------------------------|
E|-2-2--5--------------------------------------------------------------------|

e|---------------------------------------------------------------------------|X3
B|---------------------------------------------------------------------------|
G|-----------4---4-------------4---------------------------------------------|
D|-4-4--7-7--4-7-4---4-4--7-7--4---------------------------------------------|
A|-4-4--7-7--2-7-2---4-4--7-7--2--0-0-2-2-0-0-2-3-2-0------------------------|
E|-2-2--5-5----5-----2-2--5-5-------------------------2----------------------|
                                  P.M..................

e|---------------------------------------------------------------------------|
B|---------------------------------------------------------------------------|
G|-----------4-----4---------------------------------------------------------|
D|-4-4--7-7--4--7--4--4------------------------------------------------------|
A|-4-4--7-7--2--7--2--4------------------------------------------------------|
E|-2-2--5-5-----5-----2------------------------------------------------------|


                    RIDE THE CHARIOT TO THE DEVIL
e|---------------------------------------------------------------------------|
B|---------------------------------------------------------------------------|
G|------------------9-9-9-9--------------------------------------------------|
D|-11-12-/---7----7-9-9-9-9--------------------------------------------------|
A|-11-12-/---7----7-7-7-7-7--------------------------------------------------|
E|--9-10-/---5----5----------------------------------------------------------|

e|---------------------------------------------------------------------------|X2
B|---------------------------------------------------------------------------|
G|---------------------------------------------------------------------------|
D|---------------------------------------------------------------------------|
A|-9-999-999-999-9--5-555-555-555-5------------------7-777-777-777-7---------|
E|----------------------------------5-555-555-555-5--------------------------|

  Guitar 1
e|---------------------------------------------------------------------------|X2
B|---------------------------------------------------------------------------|
G|---------------------------------------------------------------------------|
D|---------------------------------------------------------------------------|
A|-9-999-999-999-9--5-555-555-555-5------------------7-777-777-777-7---------|
E|----------------------------------5-555-555-555-5--------------------------|

  Guitar2
e|----------------------9----9-----------------------------------------------|X4
B|--10-10-10-10-10-9-10---10---12-10-----------------------------------------|
G|---------------------------------------------------------------------------|
D|---------------------------------------------------------------------------|
A|---------------------------------------------------------------------------|
E|---------------------------------------------------------------------------|

  Guitar 3
e|---------------------------------------------------------------------------|X4
B|---------------5-----------------------------------------------------------|
G|--6-6-6-6-6-4----6---------------------------------------------------------|
D|-------------------7-6-4---------------------------------------------------|
A|---------------------------------------------------------------------------|
E|---------------------------------------------------------------------------|

  Guitar 1
e|---------------------------------------------------------------------------|X2
B|---------------------------------------------------------------------------|
G|---------------------------------------------------------------------------|
D|---------------------------------------------------------------------------|
A|-9-999-999-999-9--5-555-555-555-5------------------7-777-777-777-7---------|
E|----------------------------------5-555-555-555-5--------------------------|

  Guitar 3
e|--9-9-9-9-9----9--12-9--7/9--7-5-------------------------------------------|X4
B|------------12-------------------------------------------------------------|
G|---------------------------------------------------------------------------|
D|---------------------------------------------------------------------------|
A|---------------------------------------------------------------------------|
E|---------------------------------------------------------------------------|

  Guitar 3
e|---------------------------------------------------------------------------|X4
B|---------------5-----------------------------------------------------------|
G|--6-6-6-6-6-4----6---------------------------------------------------------|
D|-------------------7-6-4---------------------------------------------------|
A|---------------------------------------------------------------------------|
E|---------------------------------------------------------------------------|

e|---------------------------------------------------------------------------|
B|---------------------------------------------------------------------------|
G|-11--6-7/-----------9--9--9--9---9-11--6-7/---------9--9--9--9---9--11-----|
D|-11--6-7/--7----7---9--9--9--9---9-11--6-7/---7--7--9--9--9--9---9--11-----|
A|--9--4-5/--7----7---7--7--7--7---7--9--4-5/---7--7--7--7--7--7---7---9-----|
E|-----------5----5-----------------------------5--5-------------------------|

  
                         ANOTHER TIME AROUND
e|---------------------------------------------------------------------------|
B|---------------------------------------------------------------------------|
G|-6-7---9--6-7--------------------------------------------------------------|
D|-6-7-6-9--6-7--6-----------------------------------------------------------|
A|-4-5-6-7--4-5--6-----------------------------------------------------------|
E|-----4---------4-----------------------------------------------------------|

e|---------------------------------------------------------------------------|X4
B|---------------------------------------------------------------------------|
G|---------------------------------------------------------------------------|
D|-7-6-7-6-2-2-2-2-----------------------------------------------------------|
A|-7-6-7-6-2-2-2-2-----------------------------------------------------------|
E|-5-4-5-4-0-0-0-0-----------------------------------------------------------|

e|---------------------------------------------------------------------------|X4
B|---------------------------------------------------------------------------|
G|-7-7-7-7-------------------------------------------------------------------|
D|-7-7-7-7--7-7-7-7--2-2-2-2-2-2-2-2-----------------------------------------|
A|-5-5-5-5--7-7-7-7--2-2-2-2-2-2-2-2-----------------------------------------|
E|----------5-5-5-5--0-0-0-0-0-0-0-0-----------------------------------------|

e|---------------------------------------------------------------------------|X2
B|---------------------------------------------------------------------------|
G|-7-7-7-7--11-11-11-11--9-9-9-9---------------------------------------------|
D|-7-7-7-7--11-11-11-11--9-9-9-9---------------------------------------------|
A|-5-5-5-5---9--9--9--9--7-7-7-7---------------------------------------------|
E|---------------------------------------------------------------------------|

e|---------------------------------------------------------------------------|X2
B|---------------------------------------------------------------------------|
G|-7-------------------------------------------------------------------------|
D|-7-----------7-----------2-------------------------------------------------|
A|-5--5-5-5-5--7-----------2-------------------------------------------------|
E|-------------5--5-5-5-5--0--0-0-0-0----------------------------------------|
      P.M....     P.M....     P.M....

e|---------------------------------------------------------------------------|X4
B|---------------------------------------------------------------------------|
G|-7-7-7-7-------------------------------------------------------------------|
D|-7-7-7-7--7-7-7-7--2-2-2-2-2-2-2-2-----------------------------------------|
A|-5-5-5-5--7-7-7-7--2-2-2-2-2-2-2-2-----------------------------------------|
E|----------5-5-5-5--0-0-0-0-0-0-0-0-----------------------------------------|

e|---------------------------------------------------------------------------|
B|---------------------------------------------------------------------------|
G|-----------7-7-7-7---------------------------------------------------------|
D|--8-8-8-8--7-7-7-7--7-6-4--4-4-4-4--2-2-2-2--------------------------------|
A|--8-8-8-8--5-5-5-5--7-6-4--4-4-4-4--2-2-2-2--------------------------------|
E|--6-6-6-6-----------5-4-2--2-2-2-2--0-0-0-0--------------------------------|

e|---------------------------------------------------------------------------|X4
B|---------------------------------------------------------------------------|
G|---------------------------------------------------------------------------|
D|-7-6-7-6-2-2-2-2-----------------------------------------------------------|
A|-7-6-7-6-2-2-2-2-----------------------------------------------------------|
E|-5-4-5-4-0-0-0-0-----------------------------------------------------------|

e|---------------------------------------------------------------------------|
B|---------------------------------------------------------------------------|
G|-6-7---9--6-7--------------------------------------------------------------|
D|-6-7-6-9--6-7--6-----------------------------------------------------------|
A|-4-5-6-7--4-5--6-----------------------------------------------------------|
E|-----4---------4-----------------------------------------------------------|

e|---------------------------------------------------------------------------|X4
B|---------------------------------------------------------------------------|
G|-7-7-7-7-------------------------------------------------------------------|
D|-7-7-7-7--7-7-7-7--2-2-2-2-2-2-2-2-----------------------------------------|
A|-5-5-5-5--7-7-7-7--2-2-2-2-2-2-2-2-----------------------------------------|
E|----------5-5-5-5--0-0-0-0-0-0-0-0-----------------------------------------|

e|---------------------------------------------------------------------------|
B|---------------------------------------------------------------------------|
G|-7-------------------------------------------------------------------------|
D|-7--7-7-7-7-7-7-7-7--------------------------------------------------------|
A|-5--7-7-7-7-7-7-7-7--------------------------------------------------------|
E|----5-5-5-5-5-5-5-5--------------------------------------------------------|
 
That's It

comments
print report bad tab
5 comments total. Showing first comments.
0 reply
Mark Brown wrote on September 18 2002, 12:00 am

yyyyyeeesss!!!these tabs rock man!! i was thinking of tabbing it myself but damn these rock cheers dude!!!

0 reply
Mark Brown wrote on September 21 2002, 12:00 am

actually there arent all that good, some bits are rite but others are completely off, sorry dude

0 reply
demonchild88 wrote on November 16 2002, 12:00 am

this sounds awesome!!!!!!!!! thanx for the tabs. sum 41 rox!!!!!!!!

I want to post or [tab]
guest
You may want to rate the tab now too:
select rating
Please do not post tabs as comments. Select "correction" instead!