Oops, an error
Loading. Please wait.

Handle This Tab

ver6
ver6
More versions @911Tabs.com
507 views 1 this week
1 commentread comment
1 2 3 4 5
worth learning
x 2
Autoscroll
+/-
esc
set tempo
stop
WARNING: You are trying to view
                                    content from Ultimate-Guitar.com
                                    in an unauthorized application,
                                    which is prohibited.

                                    Please use an official Ultimate
                                    Guitar Tabs application for iPhone,
                                    iPad or Android to access legitimate
                                    chords, guitar, bass, and drum tabs
                                    from Ultimate-Guitar.com database.

                                    Type "ultimate guitar tabs" in Apple
                                    App Store's or Android Market's
                                    search to find the application.
Everything is here from both guitars. I spent two day trying to figure it out, but I got it.
Guitar one is set a little bit heavy for the chords but guitar two is set very clean.

Guitar 1

Intro (x2)
e|-----------------------------------------------------------|
B|-----------------------------------------------------------|
G|-------------77--------------------------------------------|
D|--77---------77-----------55-55----------------------------|
A|--55---------55-----------55-55----------------------------|
E|--55----------------------33-33----------------------------|

e|----------------------------------------------------------------------------|
B|----------------------------------------------------------------------------|
G|-----------------------------------------------------------44444444---------|
D|------------------------------------------2222222-44444444-44444444-55555555|
A|------------------------------------------2222222-44444444-22222222-55555555|
E|------------------------------------------2222222-44444444----------33333333|
				      * * * * * * * * * * * * *
    

Chorus 
e|-----------------------------------------------------------------------------|
B|-----------------------------------------------------------------------------|
G|-4--4--4--4--------------7--7--7--7------------------------------------------|
D|-4--4--4--4--5--5--5--5--7--7--7--7--7--7--7--7--2--2--2--2--5--5--5--5------|
A|-2--2--2--2--5--5--5--5--5--5--5--5--7--7--7--7--2--2--2--2--5--5--5--5------|
E|-------------3--3--3--3--------------5--5--5--5--0--0--0--0--3--3--3--3------| 

e|-----------------------------------------------------|
B|-----------------------------------------------------|
G|-4--4--4--4------------------------------------------|
D|-4--4--4--4--5--5--5--5--2--2--2--2--7--7--7--7------|
A|-2--2--2--2--5--5--5--5--2--2--2--2--7--7--7--7------|
E|-------------3--3--3--3--0--0--0--0--5--5--5--5------| 

Intro (x2)
e|-----------------------------------------------------------|
B|-----------------------------------------------------------|
G|-------------77--------------------------------------------|
D|--77---------77-----------55-55----------------------------|
A|--55---------55-----------55-55----------------------------|
E|--55----------------------33-33----------------------------|

Verse (palm mute)
e|-------------------------------------------------------------------------|
B|-------------------------------------------------------------------------|
G|-------------------------------------------------------------------------|
D|------------------------------------------2222222222222222222222222222222|
A|------------------------------------------2222222222222222222222222222222|
E|------------------------------------------2222222222222222222222222222222|
				      * * * * * * * * * * * *

Chorus 
e|-----------------------------------------------------------------------------|
B|-----------------------------------------------------------------------------|
G|-4--4--4--4--------------7--7--7--7------------------------------------------|
D|-4--4--4--4--5--5--5--5--7--7--7--7--7--7--7--7--2--2--2--2--5--5--5--5------|
A|-2--2--2--2--5--5--5--5--5--5--5--5--7--7--7--7--2--2--2--2--5--5--5--5------|
E|-------------3--3--3--3--------------5--5--5--5--0--0--0--0--3--3--3--3------| 

e|-----------------------------------------------------|
B|-----------------------------------------------------|
G|-4--4--4--4------------------------------------------|
D|-4--4--4--4--5--5--5--5--2--2--2--2--7--7--7--7------|
A|-2--2--2--2--5--5--5--5--2--2--2--2--7--7--7--7------|
E|-------------3--3--3--3--0--0--0--0--5--5--5--5------|






Solo
e|-----------------------------------------------------|
B|-----------------------------------------------------|
G|-4--4--4--4------------------------------------------|
D|-4--4--4--4--5--5--5--5--2--2--2--2--7--7--7--7------|
A|-2--2--2--2--5--5--5--5--2--2--2--2--7--7--7--7------|
E|-------------3--3--3--3--0--0--0--0--5--5--5--5------|

e|-----------------------------------------------------|
B|-----------------------------------------------------|
G|-4--4--4--4------------------------------------------|
D|-4--4--4--4--5--5--5--5--2--2--2--2--7--7--7--7------|
A|-2--2--2--2--5--5--5--5--2--2--2--2--7--7--7--7------|
E|-------------3--3--3--3--0--0--0--0--5--5--5--5------|

e|-----------------------------------------------------|
B|-----------------------------------------------------|
G|-4--4--4--4------------------------------------------|
D|-4--4--4--4--5--5--5--5--2--2--2--2--2--2--2--2------|
A|-2--2--2--2--5--5--5--5--2--2--2--2--2--2--2--2------|
E|-------------3--3--3--3--0--0--0--0--0--0--0--0------|

e|-----------------------------------------------------|
B|-----------------------------------------------------|
G|-----------------------------------------------------|
D|-7--7--7--7--7--7--7--7--7--7--7--7--7--7--7--7------|
A|-7--7--7--7--7--7--7--7--7--7--7--7--7--7--7--7------|
E|-5--5--5--5--5--5--5--5--5--5--5--5--5--5--5--5------|

Intro 
e|-----------------------------------------------------------|
B|-----------------------------------------------------------|
G|-----------------------------------------------------------|
D|--7-7---------7-7------------------------------------------|
A|--5-5---------7-7------------------------------------------|
E|--5-5---------5-5------------------------------------------|

e|---------------------------------------------------------------------------|
B|---------------------------------------------------------------------------|
G|---------------------------------------------------------------------------|
D|-7--7--7--7--7--7--7--7--5--5--5--5--5--5--5--5--7--7--7--7--7--7--7--7----|
A|-7--7--7--7--7--7--7--7--5--5--5--5--5--5--5--5--7--7--7--7--7--7--7--7----|
E|-5--5--5--5--5--5--5--5--3--3--3--3--3--3--3--3--5--5--5--5--5--5--5--5----|

e|-------------------------------------------------|
B|-------------------------------------------------|
G|-------------------------------------------------|
D|-7--7--7--7--7--7--7--7--7--7--7--7--7--7--7--7--|
A|-7--7--7--7--7--7--7--7--7--7--7--7--7--7--7--7--|
E|-5--5--5--5--5--5--5--5--5--5--5--5--5--5--5--5--|
  * * * * * * * * * * * * * * * * * *

Chorus 
e|-----------------------------------------------------------------------------|
B|-----------------------------------------------------------------------------|
G|-4--4--4--4--------------7--7--7--7------------------------------------------|
D|-4--4--4--4--5--5--5--5--7--7--7--7--7--7--7--7--2--2--2--2--5--5--5--5------|
A|-2--2--2--2--5--5--5--5--5--5--5--5--7--7--7--7--2--2--2--2--5--5--5--5------|
E|-------------3--3--3--3--------------5--5--5--5--0--0--0--0--3--3--3--3------| 

e|-----------------------------------------------------------------------------|
B|-----------------------------------------------------------------------------|
G|-4--4--4--4--------------7--7--7--7------------------------------------------|
D|-4--4--4--4--5--5--5--5--7--7--7--7--7--7--7--7--2--2--2--2--5--5--5--5------|
A|-2--2--2--2--5--5--5--5--5--5--5--5--7--7--7--7--2--2--2--2--5--5--5--5------|
E|-------------3--3--3--3--------------5--5--5--5--0--0--0--0--3--3--3--3------| 





e|-----------------------------------------------------|
B|-----------------------------------------------------|
G|-4--4--4--4------------------------------------------|
D|-4--4--4--4--5--5--5--5--2--2--2--2--7--7--7--7------|
A|-2--2--2--2--5--5--5--5--2--2--2--2--7--7--7--7------|
E|-------------3--3--3--3--0--0--0--0--5--5--5--5------|


Last Part
e|-----------------------------------------------------------------------------|
B|-----------------------------------------------------------------------------|
G|--7--7--7--7--7--7--7--7--7--7-----------------------------------------------|
D|--7--7--7--7--7--7--7--7--7--7-------7--7--7--7--7--7--7--7--7--7--7--7------|
A|--5--5--5--5--5--5--5--5--5--5-------7--7--7--7--7--7--7--7--7--7--7--7------|
E|-------------------------------------5--5--5--5--5--5--5--5--5--5--5--5------|
    

  -----------------------------------------------|
  -----------------------------------------------|
  -------------------7--7--7--7------------------| 
  -5-x-5--5--5--5----7--7--7--7---7--7--7--------|
  -5-x-5--5--5--5----5--5--5--5---7--7--7--------|
  -3-x-3--3--3--3-----------------5--5--3--------|

e|--------------------------------------------------------------------------------|
B|--------------------------------------------------------------------------------|
G|--7--7--7--7--7--7--7--7--7--7--------------------------------------------------|
D|--7--7--7--7--7--7--7--7--7--7-------7--7--7--7--7--7--7--7--7--7--7--7---------|
A|--5--5--5--5--5--5--5--5--5--5-------7--7--7--7--7--7--7--7--7--7--7--7---------|
E|-------------------------------------5--5--5--5--5--5--5--5--5--5--5--5---------|
     
  -----------------------------------------------|
  -----------------------------------------------|
  -------------------7--7--7--7------------------| 
  -5-x-5--5--5--5----7--7--7--7---7--7--7--------|
  -5-x-5--5--5--5----5--5--5--5---7--7--7--------|
  -3-x-3--3--3--3-----------------5--5--3--------|

e|--------------------------------------------------------------------------------|
B|--------------------------------------------------------------------------------|
G|--7--7--7--7--7--7--7--7--7--7--------------------------------------------------|
D|--7--7--7--7--7--7--7--7--7--7-------7--7--7--7--7--7--7--7--7--7--7--7---------|
A|--5--5--5--5--5--5--5--5--5--5-------7--7--7--7--7--7--7--7--7--7--7--7---------|
E|-------------------------------------5--5--5--5--5--5--5--5--5--5--5--5---------|
     
  -----------------------------------------------|
  -----------------------------------------------|
  -------------------7--7--7--7------------------| 
  -5-x-5--5--5--5----7--7--7--7---7--7--7--------|
  -5-x-5--5--5--5----5--5--5--5---7--7--7--------|
  -3-x-3--3--3--3-----------------5--5--3--------|

e|--------------------------------------------------------------------------------|
B|--------------------------------------------------------------------------------|
G|--7--7--7--7--7--7--7--7--7--7--------------------------------------------------|
D|--7--7--7--7--7--7--7--7--7--7-------7--7--7--7--7--7--7--7--7--7--7--7---------|
A|--5--5--5--5--5--5--5--5--5--5-------7--7--7--7--7--7--7--7--7--7--7--7---------|
E|-------------------------------------5--5--5--5--5--5--5--5--5--5--5--5---------|
     
  -----------------------------------------------|
  -----------------------------------------------|
  -------------------7--7--7--7------------------| 
  -5-x-5--5--5--5----7--7--7--7---7--7--7--------|
  -5-x-5--5--5--5----5--5--5--5---7--7--7--------|
  -3-x-3--3--3--3-----------------5--5--3--------|




Guitar 2

Intro (x2)
e|----------------------------------------|
B|----------------------------------------|
G|----------------------------------------|
D|-4/5/7---4/5\4\2000000-4/5\4------------|
A|----------------------------------------|
E|----------------------------------------|
After second time play: d|---0------------| (let ring)

Verse 
e|-------------------------------------------------------------------------|
B|-------------------------------------------------------------------------|
G|-------------------------------------------------------------------------|
D|-------------------------------------------------------------------------|
A|-------------------------------------------------------------------------|
E|-------------------------------------------------------------------------|
    

Chorus 
e|-----------------------------------------------------------------------------|
B|-----------------------------------------------------------------------------|
G|-----------------------------------------------------------------------------|
D|-----------------------------------------------------------------------------|
A|-----------------------------------------------------------------------------|
E|-----------------------------------------------------------------------------| 

e|-----------------------------------------------------|
B|-----------------------------------------------------|
G|-----------------------------------------------------|
D|-----------------------------------------------------|
A|-----------------------------------------------------|
E|-----------------------------------------------------| 

	Intro (x2)
e|----------------------------------------|
B|----------------------------------------|
G|----------------------------------------|
D|-4/5/7---4/5\4\2000000-4/5\4------------|
A|----------------------------------------|
E|----------------------------------------|
After second time play: d|---0------------| (let ring)


Verse 
e|--------------------------------------------------------------------------------------|
B|--------------------------------------------------------------------------------------|
G|-------------------------------------------------------------------------------4/5/4/2|
D|----------------------------------------------4-5----4-5----4-5----4-5----------------|
A|--------------------------------------------------------------------------------------|
E|--------------------------------------------------------------------------------------|

Chorus 
e|-----------------------------------------------------------------------------|
B|-----------------------------------------------------------------------------|
G|-----------------------------------------------------------------------------|
D|-----------------------------------------------------------------------------|
A|-----------------------------------------------------------------------------|
E|-----------------------------------------------------------------------------| 

e|-----------------------------------------------------|
B|-----------------------------------------------------|
G|-----------------------------------------------------|
D|-----------------------------------------------------|
A|-----------------------------------------------------|
E|-----------------------------------------------------|

	
Solo
e|-------------14-14/15/14-------------------14-14/15/14----|
B|-------17-15-------------15----15/17/15/17-------------15-|
G|-11-14----------------------16----------------------------|
D|----------------------------------------------------------|
A|----------------------------------------------------------|
E|----------------------------------------------------------|

e|---------------------------------------------------------|
B|---------------10-10------10-10-10/12/10-----------------|
G|-16-14-12-11/12------11/12---------------12/10-9-12/10-7-|
D|---------------------------------------------------------|
A|---------------------------------------------------------|
E|---------------------------------------------------------|

e|---------------------------------------------------------|
B|-----7-------7-----7/6/5-7/6/5-7/6/5-7/6/5-7/6/5---------|
G|---7---7---7---7-----------------------------------------|
D|-7-------7-----------------------------------------------|
A|---------------------------------------------------------|
E|---------------------------------------------------------|

Intro 
e|-----------------------------------------------------------|
B|-----------------------------------------------------------|
G|-----------------------------------------------------------|
D|------4/5/7-------4/5/7------------------------------------|
A|-----------------------------------------------------------|
E|-----------------------------------------------------------|

e|---------------------------------------------------------------------------|
B|---------------------------------------------------------------------------|
G|---------------------------------------------------------------------------|
D|---------------------------------------------------------------------------|
A|---------------------------------------------------------------------------|
E|---------------------------------------------------------------------------|

e|-------------------------------------------------|
B|-------------------------------------------------|
G|-------------------------------------------------|
D|-------------------------------------------------|
A|-------------------------------------------------|
E|-------------------------------------------------|

Chorus 
e|-----------------------------------------------------------------------------|
B|-----------------------------------------------------------------------------|
G|-----------------------------------------------------------------------------|
D|-----------------------------------------------------------------------------|
A|-----------------------------------------------------------------------------|
E|-----------------------------------------------------------------------------| 

e|-----------------------------------------------------------------------------|
B|-----------------------------------------------------------------------------|
G|-----------------------------------------------------------------------------|
D|-----------------------------------------------------------------------------|
A|-----------------------------------------------------------------------------|
E|-----------------------------------------------------------------------------| 

e|-----------------------------------------------------|
B|-----------------------------------------------------|
G|-----------------------------------------------------|
D|-----------------------------------------------------|
A|-----------------------------------------------------|
E|-----------------------------------------------------|





Last Part
e|-----------------------------------------------------------------------------|
B|-----------------------------------------------------------------------------|
G|-----------------------------------------------------------------------------|
D|-----------------------------------------------------------------------------|
A|-----------------------------------------------------------------------------|
E|-----------------------------------------------------------------------------|
    

  -----------------------------------------------|
  -----------------------------------------------|
  -----------------------------------------------| 
  -----------------------------------------------|
  -----------------------------------------------|
  -----------------------------------------------|

e|--------------------------------------------------------------------------------|
B|--------------------------------------------------------------------------------|
G|--------------------------------------------------------------------------------|
D|--------------------------------------------------------------------------------|
A|--------------------------------------------------------------------------------|
E|--------------------------------------------------------------------------------|
     
  -----------------------------------------------|
  -----------------------------------------------|
  -----------------------------------------------| 
  -----------------------------------------------|
  -----------------------------------------------|
  -------------------------------------------------

e|--------------------------------------------------------------------------------|
B|--5/4/5--4/5--4/7/2------------------5/4/5--4/5--4/7/2--------------------------|
G|--------------------------------------------------------------------------------|
D|--------------------------------------------------------------------------------|
A|--------------------------------------------------------------------------------|
E|--------------------------------------------------------------------------------|
     
  -----------------------------------------------|
  -----4—6/7-4--9-9-7-7-6------------------------|
  -----------------------------------------------| 
  -----------------------------------------------|
  -----------------------------------------------|
  -----------------------------------------------|

e|--------------------------------------------------------------------------------|
B|--5/4/5--4/5--4/7/2------------------5/4/5--4/5--4/7/2--------------------------|
G|--------------------------------------------------------------------------------|
D|--------------------------------------------------------------------------------|
A|--------------------------------------------------------------------------------|
E|--------------------------------------------------------------------------------|
     
  -----------------------------------------------|
  -----4—6/7-4--9-9-7-7-6------------------------|
  -----------------------------------------------| 
  -----------------------------------------------|
  -----------------------------------------------|
  -----------------------------------------------|


guitar two pretty much plays nothing because he is the singer but he does play an awesome solo!
comments
We did not receive enough feedback on this tab! Please rate:
print report bad tab
1 2 3 4 5
1 comment total.
0 reply
Baza14 wrote on February 19 2005, 12:00 am

yeah it is pretty crap

I want to post or [tab]
guest
You may want to rate the tab now too:
select rating
Please do not post tabs as comments. Select "correction" instead!