Oops, an error
Loading. Please wait.

Heart Attack Tab

ver2
ver2

Whole song

Interactive

More versions @911Tabs.com
1,358 views 3 this week
6 commentsread comments
1 2 3 4 5
worth learning
x 9
Autoscroll
+/-
esc
set tempo
stop
Contributor
WARNING: You are trying to view
                                    content from Ultimate-Guitar.com
                                    in an unauthorized application,
                                    which is prohibited.

                                    Please use an official Ultimate
                                    Guitar Tabs application for iPhone,
                                    iPad or Android to access legitimate
                                    chords, guitar, bass, and drum tabs
                                    from Ultimate-Guitar.com database.

                                    Type "ultimate guitar tabs" in Apple
                                    App Store's or Android Market's
                                    search to find the application.
Artist - Sum-41
Title - Heart Attack
Album - All Killer No Filler
Tabbed by - Joe Swindells (feeder_r_wicked@hotmail.com)
Notes - This took me bloody AGES to tab so if you think it's wrong then f*** ya!!

Intro
Gtr.1 Capo II (clean)
                                                                          (x2)
e||------------------|-----------------|-----------------|------------------||
B||--------5---------|-------5---------|-------5---------|-------5----------||g
G||*---4-------4---4-|---4-------4---4-|---4-------4---4-|---4-------4---4-*||t
D||*-2---2---2---2---|-1---1---1---1---|-----------------|-----------------*||r
A||------------------|-----------------|-0---0---0---0---|-0---0---0---2----||1
E||------------------|-----------------|-----------------|------------------||

Verse
Gtr.1 Capo II (clean), Gtr.2 (dist.)
                                                                          (x2)
e||------------------|-----------------|-----------------|------------------||
B||--------5---------|-------5---------|-------5---------|-------5----------||g
G||*---4-------4---4-|---4-------4---4-|---4-------4---4-|---4-------4---4-*||t
D||*-2---2---2---2---|-1---1---1---1---|-----------------|-----------------*||r
A||------------------|-----------------|-0---0---0---0---|-0---0---0---2----||1
E||------------------|-----------------|-----------------|------------------||


e||------------------|-----------------|-----------------|------------------||
B||--------5---------|-------5---------|-------5---------|-------5----------||g
G||----4-------4---4-|---4-------4---4-|---4-------4---4-|---4-------4---4--||t
D||--2---2---2---2---|-1---1---1---1---|-----------------|------------------||r
A||------------------|-----------------|-0---0---0---0---|-0---0---0---2----||1
E||------------------|-----------------|-----------------|------------------||
 ||                  |                 |                 |                  ||
e||------------------|-----------------|-----------------|------------------||
B||------------------|-----------------|-----------------|------------------||g
G||------------------|-----------------|-----------------|------------------||t
D||------------------|-3-3-3-3-3-3-3-3-|-4-4-4-4-4-4-4-4-|-4-4-4-4-4-4-4-4--||r
A||--4-4-4-4-4-4-4-4-|-4-4-4-4-4-4-4-4-|-6-6-6-6-6-6-6-6-|-6-6-6-6-6-6-6-6--||2
E||--2-2-2-2-2-2-2-2-|-----------------|-----------------|------------------||
     pm.............   ...............   ...............   ...............

e||------------------|-----------------|-----------------|------------------||
B||--------5---------|-------5---------|-------5---------|------------------||g
G||----4-------4---4-|---4-------4---4-|---4-------4---4-|------------------||t
D||--2---2---2---2---|-1---1---1---1---|-----------------|------------------||r
A||------------------|-----------------|-0---0---0---0---|------------------||1
E||------------------|-----------------|-----------------|------------------||
 ||                                                                         ||
e||------------------|-----------------|-----------------|------------------||
B||------------------|-----------------|-----------------|------------------||g
G||------------------|-----------------|-----------------|------------------||t
D||------------------|-3-3-3-3-3-3-3-3-|-4-4-4-4-4-4-4-4-|-6-x-6-x-6-x-6-x--||r
A||--4-4-4-4-4-4-4-4-|-4-4-4-4-4-4-4-4-|-6-6-6-6-6-6-6-6-|-4-x-4-x-4-x-6-x--||2
E||--2-2-2-2-2-2-2-2-|-----------------|-----------------|------------------||
     pm.............   ...............   ...............

Chorus
Gtr.2 (dist.), Gtr.3 (dist.)

e||------------------|-----------------|-----------------|------------------||
B||------------------|-----------------|-----------------|------------------||g
G||------------------|----------4-4-4--|-----------------|----------4-4-4---||t
D||------------------|----------4-4-4--|-----------------|----------4-4-4---||r
A||--4---4---4---4---|-2---2-2--2-2-2--|-4---4---4---4---|-2---2-2--2-2-2---||2
E||--2---2---2---2---|-0---0-0---------|-2---2---2---2---|-0---0-0----------||
 ||                                                                         ||
e||------------------|-----------------|-----------------|------------------||
B||--11--11--11--11--|-9---9\7--7---7--|-11--11--11--11--|-9---9\7--7---7---||g
G||--x---x---x---x---|-x---x-x--x---x--|-x---x---x---x---|-x---x-x--x---x---||t
D||--8---8---8---8---|-6---6\4--4---4--|-8---8---8---8---|-6---6\4--4---4---||r
A||------------------|-----------------|-----------------|------------------||3
E||------------------|-----------------|-----------------|------------------||


e||------------------|-----------------|-----------------|------------------||
B||------------------|-----------------|-----------------|------------------||g
G||------------------|----------4-4-4--|-----------------|----------4-4-4/--||t
D||------------------|----------4-4-4--|-----------------|-6--------4-4-4/--||r
A||--4---4---4---4---|-2---2-2--2-2-2--|-4---4---4---4---|-4--------2-2-2/--||2
E||--2---2---2---2---|-0---0-0---------|-2---2---2---2---|-4----------------||
 ||                                                                         ||
e||------------------|-----------------|-----------------|------------------||
B||--11--11--11--11--|-9---9\7--7---7--|-11--11--11--11--|-9-----7--7---7/--||g
G||--x---x---x---x---|-x---x-x--x---x--|-x---x---x---x---|-x-----x--x---x---||t
D||--8---8---8---8---|-6---6\4--4---4--|-8---8---8---8---|-6-----4--4---4/--||r
A||------------------|-----------------|-----------------|------------------||3
E||------------------|-----------------|-----------------|------------------||

Interlude
Gtr.2 (dist), Gtr.3 (dist)

e||------------------|-----------------|-----------------|------------------||
B||------------------|-----------------|-----------------|------------------||g
G||--11--11-11111111-|-11--11-111111\8-|-8---8--8-8-8-8--|------------------||t
D||--11--11-11111111-|-11--11-111111\8-|-8---8--8-8-8-8--|------------------||r
A||--9---9--9-9-9-9--|-8---8--8-8-8-\6-|-6---6--6-6-6-6--|-------------8----||2
E||------------------|-----------------|-----------------|-6---7---9--------||
 ||                                                                         ||
e||------------------|-----------------|-----------------|------------------||
B||------------------|-----------------|-----------------|------------------||g
G||--11--11-11111111-|-11--11-111111\8-|-8---8--8-8-8-8--|------------------||t
D||--11--11-11111111-|-11--11-111111\8-|-8---8--8-8-8-8--|------------------||r
A||--9---9--9-9-9-9--|-8---8--8-8-8-\6-|-6---6--6-6-6-6--|-------------8----||3
E||------------------|-----------------|-----------------|-6---7---9--------||


e||------------------|-----------------|-----------------|------------------||
B||------------------|-----------------|-----------------|------------------||g
G||--11--11-11111111-|-11--11-111111\8-|-8---8--8-8-8-8--|------------------||t
D||--11--11-11111111-|-11--11-111111\8-|-8---8--8-8-8-8--|------------------||r
A||--9---9--9-9-9-9--|-8---8--8-8-8-\6-|-6---6--6-6-6-6--|------------------||2
E||------------------|-----------------|-----------------|-6---7---6--7--9--||
 ||                                                                         ||
e||------------------|-----------------|-----------------|------------------||
B||------------------|-----------------|-----------------|------------------||g
G||--11--11-11111111-|-11--11-111111\8-|-8---8--8-8-8-8--|------------------||t
D||--11--11-11111111-|-11--11-111111\8-|-8---8--8-8-8-8--|------------------||r
A||--9---9--9-9-9-9--|-8---8--8-8-8-\6-|-6---6--6-6-6-6--|------------------||3
E||------------------|-----------------|-----------------|-6---7---6--7--9--||

Verse
Gtr.1 Capo II (clean), Gtr.2 (dist.), Gtr.3 (dist.)

e||------------------|-----------------|-----------------|------------------||
B||--------5---------|-------5---------|-------5---------|-------5----------||g
G||----4-------4---4-|---4-------4---4-|---4-------4---4-|---4-------4---4--||t
D||--2---2---2---2---|-1---1---1---1---|-----------------|------------------||r
A||------------------|-----------------|-0---0---0---0---|-0---0---0---2----||1
E||------------------|-----------------|-----------------|------------------||


e||------------------|-----------------|-----------------|------------------||
B||--------5---------|-------5---------|-------5---------|-------5----------||g
G||----4-------4---4-|---4-------4---4-|---4-------4---4-|---4-------4---4--||t
D||--2---2---2---2---|-1---1---1---1---|-----------------|------------------||r
A||------------------|-----------------|-0---0---0---0---|-0---0---0---2----||1
E||------------------|-----------------|-----------------|------------------||
 ||                                                                         ||
e||------------------|-----------------|-----------------|------------------||
B||------------------|-----------------|-----------------|------------------||g
G||------------------|-----------------|-----------------|------------------||t
D||------------------|-----------------|-----------------|------------------||r
A||------------------|-----------------|-----------------|------------------||2
E||------------------|-----------------|-----------------|--------x--x--x---||

                                                                          (x2)
e||------------------|-----------------|-----------------|------------------||
B||------------------|-----------------|-----------------|------------------||g
G||*-----------------|-----10------11--|-----------------|-----------------*||t
D||*-----------------|-1111--111111----|-4-4-4-4-4-4-4---|-6-6-6-6-6-6-6---*||r
A||--4-4-4-4-4-4-4-0-|---------------0-|-2-2-2-2-2-2-2---|-4-4-4-4-4-4-4----||2
E||--2-2-2-2-2-2-2-0-|-----------------|---------------0-|---------------0--||
 ||  pm.   .....   ........  ......  .......   .....   .......   .....   .  ||
e||------------------|-----------------|-----------------|------------------||
B||------------------|-----------------|-----------------|------------------||g
G||*-----------------|-----------------|-----------------|-----------------*||t
D||*-----------------|-----8-------9---|-4-4-4-4-4-4-4---|-6-6-6-6-6-6-6---*||r
A||--4-4-4-4-4-4-4-0-|-9-9---9-9-9---0-|-2-2-2-2-2-2-2---|-4-4-4-4-4-4-4----||3
E||--2-2-2-2-2-2-2-0-|-----------------|---------------0-|---------------0--||
     pm.   .....   .......   .....   .......   .....   .......   .....   .

e||------------------|------------------||
B||------------------|------------------||g
G||------------------|------------------||t
D||--4---------------|-6-x-6-x-6-x-6----||r
A||--2---------------|-4-x-4-x-4-x-4----||2
E||------------------|---------------0--||
 ||                                     ||
e||------------------|------------------||
B||------------------|------------------||g
G||------------------|------------------||t
D||--4---------------|-6-x-6-x-6-x-6----||r
A||--2---------------|-4-x-4-x-4-x-4----||3
E||------------------|---------------0--||

Chorus
Gtr.2 (dist), Gtr.3 (dist)

e||------------------|-----------------|-----------------|------------------||
B||------------------|-----------------|-----------------|------------------||g
G||------------------|----------4-4-4--|-----------------|----------4-4-4---||t
D||------------------|----------4-4-4--|-----------------|----------4-4-4---||r
A||--4---4---4---4---|-2---2-2--2-2-2--|-4---4---4---4---|-2---2-2--2-2-2---||2
E||--2---2---2---2---|-0---0-0---------|-2---2---2---2---|-0---0-0----------||
 ||                                                                         ||
e||------------------|-----------------|-----------------|------------------||
B||--11--11--11--11--|-9---9\7--7---7--|-11--11--11--11--|-9---9\7--7---7---||g
G||--x---x---x---x---|-x---x-x--x---x--|-x---x---x---x---|-x---x-x--x---x---||t
D||--8---8---8---8---|-6---6\4--4---4--|-8---8---8---8---|-6---6\4--4---4---||r
A||------------------|-----------------|-----------------|------------------||3
E||------------------|-----------------|-----------------|------------------||


e||------------------|-----------------|-----------------|------------------||
B||------------------|-----------------|-----------------|------------------||g
G||------------------|----------4-4-4--|-----------------|----------4-4-4/--||t
D||------------------|----------4-4-4--|-----------------|-6--------4-4-4/--||r
A||--4---4---4---4---|-2---2-2--2-2-2--|-4---4---4---4---|-4--------2-2-2/--||2
E||--2---2---2---2---|-0---0-0---------|-2---2---2---2---|-4----------------||
 ||                                                                         ||
e||------------------|-----------------|-----------------|------------------||
B||--11--11--11--11--|-9---9\7--7---7--|-11--11--11--11--|-9-----7--7---7/--||g
G||--x---x---x---x---|-x---x-x--x---x--|-x---x---x---x---|-x-----x--x---x---||t
D||--8---8---8---8---|-6---6\4--4---4--|-8---8---8---8---|-6-----4--4---4/--||r
A||------------------|-----------------|-----------------|------------------||3
E||------------------|-----------------|-----------------|------------------||

Interlude
Gtr.2 (dist), Gtr.3 (dist)

e||------------------|------------------||
B||------------------|------------------||g
G||------------------|------------0-----||t
D||------------------|------------0-----||r
A||--4-4-------------|------------------||2
E||--2-2-------------|-----/14\---------||
 ||                                     ||
e||------------------|------------------||
B||--7-7---7-7---7-7-|-7-7--7--7--7--7--||g
G||--x-x---x-x---x-x-|-x-x--x--x--x--x--||t
D||--4-4---4-4---4-4-|-4-4--4--4--4--4--||r
A||------------------|------------------||3
E||------------------|------------------||

                                                         |1.-----------------|2.-----------------|
                                                         |                   |                   |
e||------------------|-----------------|-----------------|------------------||------------------||
B||------------------|-----------------|-----------------|------------------||------------------||g
G||*-----------------|-----------------|-----------------|-----------------*||------------------||t
D||*-------------4-4-|-----------------|-------------4-4-|-----------------*||------------------||r
A||--4-4-2-2-2---2-2-|-2-2--1--2--1--0-|-4-4-2-2-2---2-2-|-2-2--1--2--1--0--||-2-2--1--2--1-----||2
E||--2-2-0-0-0-------|-0-0-------------|-2-2-0-0-0-------|-0-0--------------||-0-0-----------4--||
 ||                                                                         ||                  ||
e||------------------|-----------------|-----------------|------------------||------------------||
B||--7-7---7-7---7-7-|-7-7--7--7--7--7-|-7-7---7-7---7-7-|-7-7--7--7--7--7--||-7-7--7--7--7--7--||g
G||*-x-x---x-x---x-x-|-x-x--x--x--x--x-|-x-x---x-x---x-x-|-x-x--x--x--x--x-*||-x-x--x--x--x--x--||t
D||*-4-4---4-4---4-4-|-4-4--4--4--4--4-|-4-4---4-4---4-4-|-4-4--4--4--4--4-*||-4-4--4--4--4--4--||r
A||------------------|-----------------|-----------------|------------------||------------------||3
E||------------------|-----------------|-----------------|------------------||------------------||

Verse
Gtr.1 Capo II (clean), Gtr.2 (dist/clean), Gtr.3 (dist)

e||------------------|-----------------|-----------------|------------------||
B||--------5---------|-------5---------|-------5---------|-------5----------||g
G||----4-------4---4-|---4-------4---4-|---4-------4---4-|---4-------4---4--||t
D||--2---2---2---2---|-1---1---1---1---|-----------------|------------------||r
A||------------------|-----------------|-0---0---0---0---|-0---0---0---2----||1
E||------------------|-----------------|-----------------|------------------||
 ||Gtr.2 (dist.)                                                            ||
e||------------------|-----------------|-----------------|------------------||
B||------------------|-----------------|-----------------|------------------||g
G||------------------|-----------------|-----------------|------------------||t
D||------------------|-----------------|-----------------|------------------||r
A||------------------|-----------------|-----------------|------------------||2
E||--2\--------------|-----------------|-----------------|------------------||
 ||                                                                         ||
e||------------------|-----------------|-----------------|------------------||
B||--7\--------------|-----------------|-----------------|------------------||g
G||--x---------------|-----------------|-----------------|------------------||t
D||--4\--------------|-----------------|-----------------|------------------||r
A||------------------|-----------------|-----------------|------------------||3
E||------------------|-----------------|-----------------|------------------||


e||------------------|-----------------|-----------------|------------------||
B||--------5---------|-------5---------|-------5---------|-------5----------||g
G||----4-------4---4-|---4-------4---4-|---4-------4---4-|---4-------4---4--||t
D||--2---2---2---2---|-1---1---1---1---|-----------------|------------------||r
A||------------------|-----------------|-0---0---0---0---|-0---0---0---2----||1
E||------------------|-----------------|-----------------|------------------||


e||------------------|-----------------|-----------------|------------------||
B||--------5---------|-------5---------|-------5---------|-------5----------||g
G||----4-------4---4-|---4-------4---4-|---4-------4---4-|---4-------4---4--||t
D||--2---2---2---2---|-1---1---1---1---|-----------------|------------------||r
A||------------------|-----------------|-0---0---0---0---|-0---0---0---2----||1
E||------------------|-----------------|-----------------|------------------||
 ||Gtr.2 (clean)                                                            ||
e||------------------|-----------------|-----------------|------------------||
B||------------------|-----------------|-----------------|------------------||g
G||------------------|-----------------|-----------------|------------------||t
D||------------------|---3---3---3---3-|---4---4---4---4-|---4---4---4---4--||r
A||----4---4---4---4-|-4---4---4---4---|-6---6---6---6---|-6---6---6---6----||2
E||--2---2---2---2---|-----------------|-----------------|------------------||


e||------------------|-----------------|-----------------|------------------||
B||--------5---------|-------5---------|-------5---------|-------5----------||g
G||----4-------4---4-|---4-------4---4-|---4-------4---4-|---4-------4---4--||t
D||--2---2---2---2---|-1---1---1---1---|-----------------|------------------||r
A||------------------|-----------------|-0---0---0---0---|-0---0---0---2----||1
E||------------------|-----------------|-----------------|------------------||
 ||Gtr.2 (clean)                        Gtr.2 (dist.)                       ||
e||------------------|-----------------|-----------------|------------------||
B||------------------|-----------------|-----------------|------------------||g
G||------------------|-----------------|-----------------|------------------||t
D||------------------|---3---3---3---3-|-4-4-4-4-4-4-4-4-|-6-6-6-6-6-6-6----||r
A||----4---4---4---4-|-4---4---4---4---|-2-2-2-2-2-2-2-2-|-4-4-4-4-4-4-4-0--||2
E||--2---2---2---2---|-----------------|-----------------|------------------||
                                         pm.............   .............

e||------------------|------------------||
B||------------------|------------------||g
G||------------------|------------------||t
D||--4---------------|-6-x-6-x-6-x-6----||r
A||--2---------------|-4-x-4-x-4-x-4----||2
E||------------------|---------------0--||
 ||                                     ||
e||------------------|------------------||
B||------------------|-6-x-6-x-6-x-6-x--||g
G||--8---------------|-x-x-x-x-x-x-x-x--||t
D||--x---------------|-3-x-3-x-3-x-3-x--||r
A||--6---------------|------------------||3
E||------------------|------------------||

Chorus
Gtr.2 (dist), Gtr.3 (dist)

e||------------------|-----------------|-----------------|------------------||
B||------------------|-----------------|-----------------|------------------||g
G||------------------|----------4-4-4--|-----------------|----------4-4-4---||t
D||------------------|----------4-4-4--|-----------------|----------4-4-4---||r
A||--4---4---4---4---|-2---2-2--2-2-2--|-4---4---4---4---|-2---2-2--2-2-2---||2
E||--2---2---2---2---|-0---0-0---------|-2---2---2---2---|-0---0-0----------||
 ||                                                                         ||
e||------------------|-----------------|-----------------|------------------||
B||--11--11--11--11--|-9---9\7--7---7--|-11--11--11--11--|-9---9\7--7---7---||g
G||--x---x---x---x---|-x---x-x--x---x--|-x---x---x---x---|-x---x-x--x---x---||t
D||--8---8---8---8---|-6---6\4--4---4--|-8---8---8---8---|-6---6\4--4---4---||r
A||------------------|-----------------|-----------------|------------------||3
E||------------------|-----------------|-----------------|------------------||


e||------------------|-----------------|-----------------|------------------||
B||------------------|-----------------|-----------------|------------------||g
G||------------------|----------4-4-4--|-----------------|----------4-4-4/--||t
D||------------------|----------4-4-4--|-----------------|-6--------4-4-4/--||r
A||--4---4---4---4---|-2---2-2--2-2-2--|-4---4---4---4---|-4--------2-2-2/--||2
E||--2---2---2---2---|-0---0-0---------|-2---2---2---2---|-4----------------||
 ||                                                                         ||
e||------------------|-----------------|-----------------|------------------||
B||--11--11--11--11--|-9---9\7--7---7--|-11--11--11--11--|-9-----7--7---7/--||g
G||--x---x---x---x---|-x---x-x--x---x--|-x---x---x---x---|-x-----x--x---x---||t
D||--8---8---8---8---|-6---6\4--4---4--|-8---8---8---8---|-6-----4--4---4/--||r
A||------------------|-----------------|-----------------|------------------||3
E||------------------|-----------------|-----------------|------------------||

Outro
Gtr.2 (dist.), Gtr.3 (dist.), Gtr.4 (dist.)

e||------------------|-----------------|-----------------|------------------||
B||------------------|-----------------|-----------------|------------------||g
G||------------------|-----------------|-----------------|------------------||t
D||--------------4-4-|-----------------|-------------4-4-|------------------||r
A||--4-4-2-2-2---2-2-|-2-2--1--2--1--0-|-4-4-2-2-2---2-2-|-2-2--1--2--1--0--||2
E||--2-2-0-0-0-------|-0-0-------------|-2-2-0-0-0-------|-0-0--------------||
 ||                                                                         ||
e||--------------7-7-|------6--7--6-\4-|-------------7-7-|------6--7--6--4--||
B||--7-7-5-5-5---x-x-|-5-5--x--x--x-\x-|-7-7-5-5-5---x-x-|-5-5--x--x--x--x--||g
G||--x-x-x-x-x---4-4-|-x-x--3--4--3-\1-|-x-x-x-x-x---4-4-|-x-x--3--4--3-\1--||t
D||--4-4-2-2-2-------|-2-2-------------|-4-4-2-2-2-------|-2-2--------------||r
A||------------------|-----------------|-----------------|------------------||3
E||------------------|-----------------|-----------------|------------------||


e||------------------|-----------------|-----------------|------------------||
B||------------------|-----------------|-----------------|------------------||g
G||------------------|-----------------|-----------------|------------------||t
D||--------------4-4-|-----------------|-------------4-4-|------------------||r
A||--4-4-2-2-2---2-2-|-2-2--1--2--1--0-|-4-4-2-2-2---2-2-|-2-2--1--2--1--0--||2
E||--2-2-0-0-0-------|-0-0-------------|-2-2-0-0-0-------|-0-0--------------||
 ||                                                                         ||
e||--------------7-7-|------6--7--6-\4-|-------------7-7-|------6--7--6--4--||
B||--7-7-5-5-5---x-x-|-5-5--x--x--x-\x-|-7-7-5-5-5---x-x-|-5-5--x--x--x--x--||g
G||--x-x-x-x-x---4-4-|-x-x--3--4--3-\1-|-x-x-x-x-x---4-4-|-x-x--3--4--3-\1--||t
D||--4-4-2-2-2-------|-2-2-------------|-4-4-2-2-2-------|-2-2--------------||r
A||------------------|-----------------|-----------------|------------------||3
E||------------------|-----------------|-----------------|------------------||
 ||                                                                         ||
e||------------------|-----------------|-----------------|------------------||
B||--7-7---7-7---7-7-|-7-7--7--7--7--7-|-7-7---7-7---7-7-|-7-7--7--7--7--7--||g
G||--x-x---x-x---x-x-|-x-x--x--x--x--x-|-x-x---x-x---x-x-|-x-x--x--x--x--x--||t
D||--4-4---4-4---4-4-|-4-4--4--4--4--4-|-4-4---4-4---4-4-|-4-4--4--4--4--4--||r
A||------------------|-----------------|-----------------|------------------||4
E||------------------|-----------------|-----------------|------------------||


e||-------------------||
B||-------------------||g
G||-------------------||t
D||--4----------------||r
A||--4----------------||2
E||--2----------------||
 ||                   ||
e||-------------------||
B||-------------------||g
G||-------------------||t
D||--4----------------||r
A||--x----------------||3
E||--2----------------||
 ||                   ||
e||-------------------||
B||--7----------------||g
G||--x----------------||t
D||--4----------------||r
A||-------------------||4
E||-------------------||

And that's it...
comments
print report bad tab
6 comments total. Showing first comments.
0 reply
NeoMan123 wrote on March 13 2002, 12:00 am

YEAH RIGHT I HAVE THE BOOK AND U COPIED IT STRAIGHT OUT OF IT! IT TOOK U AGES MY ASS! U GOT IT STRAIGHT FROM THE BOOK! but hey its right, so ppl use this if u want the right tab for that song. BUT U STILL COPIED IT!

0 reply
Mark Brown wrote on March 20 2002, 12:00 am

Does it matter if he copied it!! i think it's better this way

0 reply
Art wrote on April 9 2002, 12:00 am

finally someone did the rigth thing thank you!!!!

I want to post or [tab]
guest
You may want to rate the tab now too:
select rating
Please do not post tabs as comments. Select "correction" instead!