Oops, an error
Loading. Please wait.

Heart Attack Tab

ver4
ver4

Whole song

More versions @911Tabs.com
11,441 views 6 this week
no commentswrite comment
1 2 3 4 5
excellent!
x 5
Autoscroll
+/-
esc
set tempo
stop
Contributor
WARNING: You are trying to view
                                    content from Ultimate-Guitar.com
                                    in an unauthorized application,
                                    which is prohibited.

                                    Please use an official Ultimate
                                    Guitar Tabs application for iPhone,
                                    iPad or Android to access legitimate
                                    chords, guitar, bass, and drum tabs
                                    from Ultimate-Guitar.com database.

                                    Type "ultimate guitar tabs" in Apple
                                    App Store's or Android Market's
                                    search to find the application.
HEART ATTACK                       Sum 41


Gtr I (D A D G B E) - 'Clean Electric I'
Gtr II (D A D G B E) - 'Guitar I'
Gtr III (D A D G B E) - 'Guitar II'
Gtr IV (D A D G B E) - 'Clean Electric II'
Gtr V (D A D G B E) - 'Guitar III'


 Intro
  Moderately Fast Rock Q=170
  N.C.(F#5)             N.C.(C#add11)
 4/4
  Gtr I
  <
  E  E E  E E  E E  E   E  E E  E E  E E  E
|---------------------|---------------------|
|---------------------|---------------------|
|--------11-----------|--------11-----------|
|---11--------11---11-|---11--------11---11-|
|-9----9----9----9----|-8----8----8----8----|
|---------------------|---------------------|


  N.C.(Badd9)
  E  E E  E E  E E  E   E  E E  E E  E  E  E
|---------------------|-----------------------|
|---------------------|-----------------------|
|--------11-----------|--------11-------------|
|---11--------11---11-|---11--------11----11--|
|---------------------|-----------------------|
|-9----9----9----9----|-9----9----9----11-----|


  N.C.(F#5)             N.C.(C#add11)
  E  E E  E E  E E  E   E  E E  E E  E E  E
|---------------------|---------------------|
|---------------------|---------------------|
|--------11-----------|--------11-----------|
|---11--------11---11-|---11--------11---11-|
|-9----9----9----9----|-8----8----8----8----|
|---------------------|---------------------|


  N.C.(Badd9)
  E  E E  E E  E E  E   E  E E  E E  E  E  E
|---------------------|----------------------||
|---------------------|----------------------||
|--------11-----------|--------11------------||
|---11--------11---11-|---11--------11----11-||
|---------------------|----------------------||
|-9----9----9----9----|-9----9----9----11----||


   First Verse
    N.C.(F#5)             N.C.(C#add11)
    E  E E  E E  E E  E   E  E E  E E  E E  E
||----------------------|---------------------|
||o---------------------|---------------------|
||---------11-----------|--------11-----------|
||----11--------11---11-|---11--------11---11-|
||o-9----9----9----9----|-8----8----8----8----|
||----------------------|---------------------|


  N.C.(Badd9)
  E  E E  E E  E E  E   E  E E  E E  E  E  E
|---------------------|------------------------||
|---------------------|-----------------------o||
|--------11-----------|--------11--------------||
|---11--------11---11-|---11--------11----11---||
|---------------------|-----------------------o||
|-9----9----9----9----|-9----9----9----11------||


  N.C.(F#5)             N.C.(C#add11)
  Gtr I
  E  E E  E E  E E  E   E  E E  E E  E E  E
|---------------------|---------------------|
|---------------------|---------------------|
|--------11-----------|--------11-----------|
|---11--------11---11-|---11--------11---11-|
|-9----9----9----9----|-8----8----8----8----|
|---------------------|---------------------|
|
| Gtr II
| PM-----------------------------------------
| E  E E  E E  E E  E   E  E E  E E  E E  E
|---------------------|---------------------|
|---------------------|---------------------|
|---------------------|---------------------|
|---------------------|---------------------|
|-9--9-9--9-9--9-9--9-|-8--8-8--8-8--8-8--8-|
|---------------------|---------------------|


  N.C.(Badd9)
  E  E E  E E  E E  E   E  E E  E E  E  E  E
|---------------------|----------------------|
|---------------------|----------------------|
|--------11-----------|--------11------------|
|---11--------11---11-|---11--------11----11-|
|---------------------|----------------------|
|-9----9----9----9----|-9----9----9----11----|
|
|-----------------------------------------|
| E  E E  E E  E E  E   E  E E  E E  E  E  E
|---------------------|----------------------|
|---------------------|----------------------|
|---------------------|----------------------|
|---------------------|----------------------|
|-6--6-6--6-6--6-6--6-|-6--6-6--6-6--6--6--6-|
|---------------------|----------------------|


  N.C.(F#5)             N.C.(C#add11)
  E  E E  E E  E E  E   E  E E  E E  E E  E
|---------------------|---------------------|
|---------------------|---------------------|
|--------11-----------|--------11-----------|
|---11--------11---11-|---11--------11---11-|
|-9----9----9----9----|-8----8----8----8----|
|---------------------|---------------------|
|
| PM-----------------------------------------
| E  E E  E E  E E  E   E  E E  E E  E E  E
|---------------------|---------------------|
|---------------------|---------------------|
|---------------------|---------------------|
|---------------------|---------------------|
|-9--9-9--9-9--9-9--9-|-8--8-8--8-8--8-8--8-|
|---------------------|---------------------|


                        Triplet Feel Q=170(8=s8)
  N.C.(Badd9)           C#5
                        Gtr III
  E  E E  E E  E E  E   E E E E E E E E
|---------------------|-----------------||
|---------------------|-----------------||
|--------11-----------|-6---6---6---6---||
|---11--------11---11-|-6---6---6---6---||
|---------------------|-4---4---4---4---||
|-9----9----9----9----|-----------------||
|
|------------------|
| E  E E  E E  E E  E   E E E E E E E E
|---------------------|-----------------||
|---------------------|-----------------||
|---------------------|-6---6---6---6---||
|---------------------|-6---6---6---6---||
|-6--6-6--6-6--6-6--6-|-4---4---4---4---||
|---------------------|-----------------||


 Chorus
  $
  $$
  F#                    E         B5
  Gtr III
   E E  E E  E E  E E    E E  E E  E E  E E
|---------------------|---------------------|
|---------------------|---------------------|
|-15---15---15---15---|-13---13---11---11---|
|---------------------|---------------------|
|-13---13---13---13---|-11---11----9----9---|
|---------------------|---------------------|
|
| Gtr II
|  Q    Q    Q    Q      Q    Q    Q    Q
|---------------------|---------------------|
|---------------------|---------------------|
|---------------------|------------4----4---|
|--4----4----4----4---|--2----2----4----4---|
|--4----4----4----4---|--2----2----2----2---|
|--4----4----4----4---|--2----2-------------|


  F#                    E         B5
   E E  E E  E E  E E    E E  E E  E E  E E
|---------------------|---------------------|
|---------------------|---------------------|
|-15---15---15---15---|-13---13---11---11---|
|---------------------|---------------------|
|-13---13---13---13---|-11---11----9----9---|
|---------------------|---------------------|
|
|  Q    Q    Q    Q      Q    Q    Q    Q
|---------------------|---------------------|
|---------------------|---------------------|
|---------------------|------------4----4---|
|--4----4----4----4---|--2----2----4----4---|
|--4----4----4----4---|--2----2----2----2---|
|--4----4----4----4---|--2----2-------------|


  F#                    E         B5
   E E  E E  E E  E E    E E  E E  E E  E E
|---------------------|---------------------|
|---------------------|---------------------|
|-15---15---15---15---|-13---13---11---11---|
|---------------------|---------------------|
|-13---13---13---13---|-11---11----9----9---|
|---------------------|---------------------|
|
|  Q    Q    Q    Q      Q    Q    Q    Q
|---------------------|---------------------|
|---------------------|---------------------|
|---------------------|------------4----4---|
|--4----4----4----4---|--2----2----4----4---|
|--4----4----4----4---|--2----2----2----2---|
|--4----4----4----4---|--2----2-------------|


                        Normal Feel Q=170
                                 To Coda
                                 To Coda
  F#                    C#5   B5
   E E  E E  E E  E E    Q  E  E  Q   Q
|---------------------|------------------||
|---------------------|------------------||
|-15---15---15---15---|-13----11-11--11--||
|---------------------|------------------||
|-13---13---13---13---|-11-----9--9---9--||
|---------------------|------------------||
|
|  Q    Q    Q    Q      Q  E  E  Q   Q
|---------------------|------------------||
|---------------------|------------------||
|---------------------|--6-----4--4---4--||
|--4----4----4----4---|--6-----4--4---4--||
|--4----4----4----4---|--4-----2--2---2--||
|--4----4----4----4---|------------------||


  F#5                     C#/F                    D#5               N.C.
                                                                   2/4
  Gtrs II, III
   E E  E E  E  E  E  E    E E  E E  E  E  E  E   E E E E E E E E   E E  E E
|-----------------------|-----------------------|-----------------|-----------|
|-----------------------|-----------------------|-----------------|-----------|
|-11---11---11-11-11-11-|-----------------------|-8---8---8-8-8-8-|-----------|
|-11---11---11-11-11-11-|-11---11---11-11-11-11-|-8---8---8-8-8-8-|-----------|
|--9----9----9--9--9--9-|--8----8----8--8--8--8-|-6---6---6-6-6-6-|--------8--|
|-----------------------|-----------------------|-----------------|-8-9-11----|


  F#5                     C#/F                    D#5
 4/4
   E E  E E  E  E  E  E    E E  E E  E  E  E  E   E E E E E E E E
|-----------------------|-----------------------|-----------------|
|-----------------------|-----------------------|-----------------|
|-11---11---11-11-11-11-|-----------------------|-8---8---8-8-8-8-|
|-11---11---11-11-11-11-|-11---11---11-11-11-11-|-8---8---8-8-8-8-|
|--9----9----9--9--9--9-|--8----8----8--8--8--8-|-6---6---6-6-6-6-|
|-----------------------|-----------------------|-----------------|


  N.C.
 2/4       4/4
  E E E E    W           +W
|---------|-----------|---------||
|---------|-----------|---------||
|---------|-----------|---------||
|---------|-----------|---------||
|---------|-----------|---------||
|-8-9-8-9-|-11--------|-(11)----||


   Second Verse
    N.C.(F#5)             N.C.(C#add11)
    Gtr I
    E  E E  E E  E E  E   E  E E  E E  E E  E
||----------------------|---------------------|
||o---------------------|---------------------|
||---------11-----------|--------11-----------|
||----11--------11---11-|---11--------11---11-|
||o-9----9----9----9----|-8----8----8----8----|
||----------------------|---------------------|


  N.C.(Badd9)
  E  E E  E E  E E  E   E  E E  E E  E  E  E
|---------------------|------------------------||
|---------------------|-----------------------o||
|--------11-----------|--------11--------------||
|---11--------11---11-|---11--------11----11---||
|---------------------|-----------------------o||
|-9----9----9----9----|-9----9----9----11------||


  N.C.F#N.C.  F#N.C.                  N.C.B5N.C.  B5N.C.    C#N.C.  C#N.C.
  Gtr III
  PM|   PM--|   PM----|   PM--|   PM----|   PM--|   PM----|   PM--|   PM
  E E E E E E E E   E E E E E E E E   E E E E E E E E   E E E E E E E E
|-----------------|-----------------|-----------------|-----------------|
|-----------------|-----6-------7---|-----------------|-----------------|
|-----------------|-6-6---6-6-6---6-|-----4-------4---|-----6-------6---|
|-----4-------4---|-----------------|-----4-------4---|-----6-------6---|
|-----4-------4---|-----------------|-2-2-2-2-2-2-2-2-|-4-4-4-4-4-4-4-4-|
|-4-4-4-4-4-4-4-4-|-----------------|-----------------|-----------------|


  N.C.F#N.C.  F#N.C.                  N.C.B5N.C.  B5N.C.
  PM|   PM--|   PM----|   PM--|   PM----|   PM--|   PM
  E E E E E E E E   E E E E E E E E   E E E E E E E E
|-----------------|-----------------|-----------------|
|-----------------|-----6-------7---|-----------------|
|-----------------|-6-6---6-6-6---6-|-----4-------4---|
|-----4-------4---|-----------------|-----4-------4---|
|-----4-------4---|-----------------|-2-2-2-2-2-2-2-2-|
|-4-4-4-4-4-4-4-4-|-----------------|-----------------|


                               Triplet Feel Q=170(8=s8)
                                 D.S. al Coda
  N.C.C#N.C.  C#N.C.B5         C#5
                    Gtrs II, III
  PM|   PM--|   PM
  E E E E E E E E   W          E E E E E E E E
|-----------------|----------|-----------------||
|-----------------|----------|-----------------||
|-----6-------6---|-4--------|-6---6---6---6---||
|-----6-------6---|-4--------|-6---6---6---6---||
|-4-4-4-4-4-4-4-4-|-2--------|-4---4---4---4---||
|-----------------|----------|-----------------||


 Interlude
  Normal Feel Q=170
  &
  F#5     N.C.
  Gtr III
   E  E E  E  E E  E  E   E  E  E E  E   E  E   E
|-----------------------|-------------------------|
|-----------------------|-------------------------|
|-11-11---11-11---11-11-|---11-11---11--11-11--11-|
|-----------------------|-------------------------|
|--9--9----9--9----9--9-|----9--9----9---9--9---9-|
|-----------------------|-------------------------|
|
| Gtr II
|  E  E Q     H           H          Q      Q
|-----------------------|-------------------------|
|-----------------------|-------------------------|
|-----------------------|-------------------------|
|--4--4-----------------|-------------------------|
|--4--4-----------------|-------------------------|
|--4--4-----------------|-----------/9\-----9\----|


  F#5     E5      B5          E5      N.C.
   E  E E  E  E E  E  E    E   E  E E  E  E  E  E
|-----------------------|-------------------------|
|-----------------------|-------------------------|
|-11-11---11-11---11-11-|-----11-11---11-11-11-11-|
|-----------------------|-------------------------|
|--9--9----9--9----9--9-|------9--9----9--9--9--9-|
|-----------------------|-------------------------|
|
|  E  Q    E  Q    E  E   +E   E  Q    E  E  E  E
|-----------------------|-------------------------|
|-----------------------|-------------------------|
|------------------4--4-|-(4)---------------------|
|--4--4----2--2----4--4-|-(4)--2--2---------------|
|--4--4----2--2----2--2-|-(2)--2--2---------------|
|--4--4----2--2---------|------2--2----8--9--8--6-|


  F#5     E5      B5          E5      N.C.          F#5     E5      B5
   E  E E  E  E E  E  E    E   E  E E  E  E  E  E    E  E E  E  E E  E  E
|-----------------------|-------------------------|-----------------------|
|-----------------------|-------------------------|-----------------------|
|-11-11---11-11---11-11-|-----11-11---11-11-11-11-|-11-11---11-11---11-11-|
|-----------------------|-------------------------|-----------------------|
|--9--9----9--9----9--9-|------9--9----9--9--9--9-|--9--9----9--9----9--9-|
|-----------------------|-------------------------|-----------------------|
|
|  E  Q    E  Q    E  E   +E   E  Q    E  E  E  E    E  Q    E  Q    E  E
|-----------------------|-------------------------|-----------------------|
|-----------------------|-------------------------|-----------------------|
|------------------4--4-|-(4)---------------------|------------------4--4-|
|--4--4----2--2----4--4-|-(4)--2--2---------------|--4--4----2--2----4--4-|
|--4--4----2--2----2--2-|-(2)--2--2---------------|--4--4----2--2----2--2-|
|--4--4----2--2---------|------2--2----8--9--8--6-|--4--4----2--2---------|


      E5      N.C.          F#      E5      B5          E5      N.C.
   E   E  E E  E  E  E  E    E  E E  E  E E  E  E    E   E  E E  E  E  E  E
|-------------------------|-----------------------|-------------------------||
|-------------------------|-----------------------|-------------------------||
|-----11-11---11-11-11-11-|-11-11---11-11---11-11-|-----11-11---11-11-11-11-||
|-------------------------|-----------------------|-------------------------||
|------9--9----9--9--9--9-|--9--9----9--9----9--9-|------9--9----9--9--9--9-||
|-------------------------|-----------------------|-------------------------||
|
| +E   E  Q    E  E  E  E    E  Q    E  Q    E  E   +E   E  Q    E  E  E  E
|-------------------------|-----------------------|-------------------------||
|-------------------------|-----------------------|-------------------------||
|-(4)---------------------|------------------4--4-|-(4)---------------------||
|-(4)--2--2---------------|--4--4----2--2----4--4-|-(4)--2--2---------------||
|-(2)--2--2---------------|--4--4----2--2----2--2-|-(2)--2--2---------------||
|------2--2----8--9--8--6-|--4--4----2--2---------|------2--2----8--9--8--6-||


 Third Verse
  F#5       N.C.(F#5)   N.C.(C#add11)
  Gtr I
  E  E E  E E  E E  E   E  E E  E E  E E  E
|---------------------|---------------------|
|---------------------|---------------------|
|--------11-----------|--------11-----------|
|---11--------11---11-|---11--------11---11-|
|-9----9----9----9----|-8----8----8----8----|
|---------------------|---------------------|
|
| Gtr II
| H         H           W
|---------------------|---------------------|
|---------------------|---------------------|
|---------------------|---------------------|
|-4-------------------|---------------------|
|-4-------------------|---------------------|
|-4-------------------|---------------------|


  N.C.(Badd9)
  E  E E  E E  E E  E   E  E E  E E  E  E  E
|---------------------|----------------------|
|---------------------|----------------------|
|--------11-----------|--------11------------|
|---11--------11---11-|---11--------11----11-|
|---------------------|----------------------|
|-9----9----9----9----|-9----9----9----11----|
|
| W                     W
|---------------------|----------------------|
|---------------------|----------------------|
|---------------------|----------------------|
|---------------------|----------------------|
|---------------------|----------------------|
|---------------------|----------------------|


  N.C.(F#5)             N.C.(C#add11)
  Gtr I
  E  E E  E E  E E  E   E  E E  E E  E E  E
|---------------------|---------------------|
|---------------------|---------------------|
|--------11-----------|--------11-----------|
|---11--------11---11-|---11--------11---11-|
|-9----9----9----9----|-8----8----8----8----|
|---------------------|---------------------|


  N.C.(Badd9)
  E  E E  E E  E E  E   E  E E  E E  E  E  E
|---------------------|----------------------|
|---------------------|----------------------|
|--------11-----------|--------11------------|
|---11--------11---11-|---11--------11----11-|
|---------------------|----------------------|
|-9----9----9----9----|-9----9----9----11----|


  N.C.(F#5)             N.C.(C#add11)
  Gtr I
  E  E E  E E  E E  E   E  E E  E E  E E  E
|---------------------|---------------------|
|---------------------|---------------------|
|--------11-----------|--------11-----------|
|---11--------11---11-|---11--------11---11-|
|-9----9----9----9----|-8----8----8----8----|
|---------------------|---------------------|
|
| Gtr IV
| E  E E  E E  E E  E   E  E E  E E  E E  E
|---------------------|---------------------|
|---------------------|---------------------|
|---------------------|---------------------|
|---------------------|---------------------|
|-9--9-9--9-9--9-9--9-|-8--8-8--8-8--8-8--8-|
|---------------------|---------------------|


  N.C.(Badd9)
  E  E E  E E  E E  E   E  E E  E E  E  E  E
|---------------------|----------------------|
|---------------------|----------------------|
|--------11-----------|--------11------------|
|---11--------11---11-|---11--------11----11-|
|---------------------|----------------------|
|-9----9----9----9----|-9----9----9----11----|
|
| E  E E  E E  E E  E   E  E E  E E  E  E  E
|---------------------|----------------------|
|---------------------|----------------------|
|---------------------|----------------------|
|---------------------|----------------------|
|-6--6-6--6-6--6-6--6-|-6--6-6--6-6--6--6--6-|
|---------------------|----------------------|


  N.C.(F#5)             N.C.(C#add11)         N.C.(Badd9)
  E  E E  E E  E E  E   E  E E  E E  E E  E   E  E E  E E  E E  E
|---------------------|---------------------|---------------------|
|---------------------|---------------------|---------------------|
|--------11-----------|--------11-----------|--------11-----------|
|---11--------11---11-|---11--------11---11-|---11--------11---11-|
|-9----9----9----9----|-8----8----8----8----|---------------------|
|---------------------|---------------------|-9----9----9----9----|
|
|                                             Gtr II
|                                             PM---------------|
| E  E E  E E  E E  E   E  E E  E E  E E  E   E  E E  E E  E E  E
|---------------------|---------------------|---------------------|
|---------------------|---------------------|---------------------|
|---------------------|---------------------|---------------------|
|---------------------|---------------------|---------------------|
|-9--9-9--9-9--9-9--9-|-8--8-8--8-8--8-8--8-|-2--2-2--2-2--2-2--2-|
|---------------------|---------------------|---------------------|


                                       Triplet Feel Q=170(8=s8)
                                      D.S.S. al Dbl. Coda
  N.C.(C#sus4)              B          C#
                            Gtr III
   E  E  E  E  E  E  E  E   W           E E  E E  E E  E E
|-------------------------|----------|---------------------||
|-------------------------|----------|---------------------||
|----------11-------------|-8--------|-10---10---10---10---||
|----11----------11----11-|----------|---------------------||
|-------------------------|-6--------|--8----8----8----8---||
|-11----11----11----11----|----------|---------------------||
|
|                           Gtr II
|  PM------------------|
|  E  E  E  E  E  E  E  E   W           E E  E E  E E  E E
|-------------------------|----------|---------------------||
|-------------------------|----------|---------------------||
|-------------------------|-4--------|--6----6----6----6---||
|-------------------------|-4--------|--6----6----6----6---||
|--4--4--4--4--4--4--4--4-|-2--------|--4----4----4----4---||
|-------------------------|----------|---------------------||


 Outro
  Normal Feel Q=170
  &&
  F#5        E5      B5           E5   N.C.
   E  E  +E  E E +E   E  E    +E  E Q   E  E  E  E
|--------------------------|-----------------------|
|--------------------------|-----------------------|
|-11-11-(11)S9-9-(9)S16-16-|-(16)S9-9--15-16-15-13-|
|--------------------------|-----------------------|
|--9--9--(9)S7-7-(7)S14-14-|-(14)S7-7--13-14-13-11-|
|--------------------------|-----------------------|
|
|  E  Q      E Q      E  E    +E  E Q   E  E  E  E
|--------------------------|-----------------------|
|--------------------------|-----------------------|
|---------------------4--4-|--(4)------------------|
|--4--4------2-2------4--4-|--(4)-2-2--------------|
|--4--4------2-2------2--2-|--(2)-2-2--------------|
|--4--4------2-2-----------|------2-2---8--9--8--6-|


  F#5        E5      B5           E5   N.C.
   E  E  +E  E E +E   E  E    +E  E Q   E  E  E  E
|--------------------------|-----------------------|
|--------------------------|-----------------------|
|-11-11-(11)S9-9-(9)S16-16-|-(16)S9-9--15-16-15-13-|
|--------------------------|-----------------------|
|--9--9--(9)S7-7-(7)S14-14-|-(14)S7-7--13-14-13-11-|
|--------------------------|-----------------------|
|
|  E  Q      E Q      E  E    +E  E Q   E  E  E  E
|--------------------------|-----------------------|
|--------------------------|-----------------------|
|---------------------4--4-|--(4)------------------|
|--4--4------2-2------4--4-|--(4)-2-2--------------|
|--4--4------2-2------2--2-|--(2)-2-2--------------|
|--4--4------2-2-----------|------2-2---8--9--8--6-|


  F#5        E5        B5           E5      N.C.
  Gtr V
   E  E   E   E  E  E   E  E     E   E  E E  E  E  E  E
|----------------------------|--------------------------|
|----------------------------|--------------------------|
|-11-11------11-11-----11-11-|------11-11---11-11-11-11-|
|----------------------------|--------------------------|
|--9--9-------9--9------9--9-|-------9--9----9--9--9--9-|
|----------------------------|--------------------------|
|
| Gtr III
|  E  E  +E   E  E +E   E  E    +E   E  Q    E  E  E  E
|----------------------------|--------------------------|
|----------------------------|--------------------------|
|-11-11-(11)S=9--9-(9)S16-16-|-(16)S=9--9---15-16-15-13-|
|----------------------------|--------------------------|
|--9--9--(9)S=7--7-(7)S14-14-|-(14)S=7--7---13-14-13-11-|
|----------------------------|--------------------------|
|
| Gtr II
|  E  Q       E  Q      E  E    +E   E  Q    E  E  E  E
|----------------------------|--------------------------|
|----------------------------|--------------------------|
|-----------------------4--4-|--(4)---------------------|
|--4--4-------2--2------4--4-|--(4)--2--2---------------|
|--4--4-------2--2------2--2-|--(2)--2--2---------------|
|--4--4-------2--2-----------|-------2--2----8--9--8--6-|


  F#5        E5        B5           E5      N.C.
   E  E   E   E  E  E   E  E     E   E  E E  E  E  E  E
|----------------------------|--------------------------|
|----------------------------|--------------------------|
|-11-11------11-11-----11-11-|------11-11---11-11-11-11-|
|----------------------------|--------------------------|
|--9--9-------9--9------9--9-|-------9--9----9--9--9--9-|
|----------------------------|--------------------------|
|
|  E  E  +E   E  E +E   E  E    +E   E  Q    E  E  E  E
|----------------------------|--------------------------|
|----------------------------|--------------------------|
|-11-11-(11)S=9--9-(9)S16-16-|-(16)S=9--9---15-16-15-13-|
|----------------------------|--------------------------|
|--9--9--(9)S=7--7-(7)S14-14-|-(14)S=7--7---13-14-13-11-|
|----------------------------|--------------------------|
|
|  E  Q       E  Q      E  E    +E   E  Q    E  E  E  E
|----------------------------|--------------------------|
|----------------------------|--------------------------|
|-----------------------4--4-|--(4)---------------------|
|--4--4-------2--2------4--4-|--(4)--2--2---------------|
|--4--4-------2--2------2--2-|--(2)--2--2---------------|
|--4--4-------2--2-----------|-------2--2----8--9--8--6-|


  F#5
  Gtrs III, V
   W           +W            +W            +W
|-----------|-------------|-------------|---------*|
|-----------|-------------|-------------|---------*|
|-11--------|-(11)--------|-(11)--------|-(11)----*|
|-----------|-------------|-------------|---------*|
|--9--------|--(9)--------|--(9)--------|--(9)----*|
|-----------|-------------|-------------|---------*|
|
| Gtr II
|  W           +W            +W            +W
|-----------|-------------|-------------|---------*|
|-----------|-------------|-------------|---------*|
|-----------|-------------|-------------|---------*|
|--4--------|--(4)--------|--(4)--------|--(4)----*|
|--4--------|--(4)--------|--(4)--------|--(4)----*|
|--4--------|--(4)--------|--(4)--------|--(4)----*|

comments
print report bad tab
I want to post or [tab]
guest
You may want to rate the tab now too:
select rating
Please do not post tabs as comments. Select "correction" instead!