Oops, an error
Loading. Please wait.

Hell Song Tab

ver8
43,359 views 60 this week
49 commentsread comments
1 2 3 4 5
accurate
x 91
Autoscroll
+/-
esc
set tempo
stop
Contributor
WARNING: You are trying to view
                                    content from Ultimate-Guitar.com
                                    in an unauthorized application,
                                    which is prohibited.

                                    Please use an official Ultimate
                                    Guitar Tabs application for iPhone,
                                    iPad or Android to access legitimate
                                    chords, guitar, bass, and drum tabs
                                    from Ultimate-Guitar.com database.

                                    Type "ultimate guitar tabs" in Apple
                                    App Store's or Android Market's
                                    search to find the application.
-------------------------------------------------------------------------------
                               Hell Song - Sum 41
-------------------------------------------------------------------------------

Tabbed by: Ignacio "Coco" Vespoli
Email: cocofuhgawz@hotmail.com

Tuning: Normal


INTRO


Guitar 1
e|---------------------------------------------------------------------------|
B|---------------------------------------------------------------------------|
G|---------------------------------------------------------------------------|
D|---------------------------------------------------------------------------|
A|------4-6--------4-6--------4-6--------7-7-6-6-4-4-------------------------|
E|--4-7-----7--0-7-----7--7-7-----7--2-2-------------------------------------|


Guitar 2
e|---------------------------------------------------------------------------|
B|---------------------------------------------------------------------------|
G|--Guitar 2 don't play anYthing----------------------------------------------|
D|---------------------------------------------------------------------------|
A|---------------------------------------------------------------------------|
E|---------------------------------------------------------------------------|


Guitar 1
e|---------------------------------------------------------------------------|
B|---------------------------------------------------------------------------|
G|---------------------------------------------------------------------------|
D|---------------------------------------------------------------------------|
A|------4-6--------4-6--------4-6--------7-7-6-6-4-4-------------------------|
E|--4-7-----7--0-7-----7--7-7-----7--2-2-------------------------------------|


Guitar 2
e|---------------------------------------------------------------------------|
B|---------------------------------------------------------------------------|
G|------------------------444444444------------------------------------------|
D|--666666666--222222222--444444444--444444444-------------------------------|
A|--666666666--222222222--222222222--444444444-------------------------------|
E|--444444444--000000000-------------222222222-------------------------------|


Guitar 1
e|---------------------------------------------------------------------------|
B|---------------------------------------------------------------------------|
G|---------------------------------------------------------------------------|
D|---------------------------------------------------------------------------|
A|------4-6--------4-6--------4-6--------7-7-6-6-4-4-------------------------|
E|--4-7-----7--0-7-----7--7-7-----7--2-2-------------4-----------------------|


Guitar 2
e|---------------------------------------------------------------------------|
B|---------------------------------------------------------------------------|
G|------------------------444444444------------------------------------------|
D|--666666666--222222222--444444444--44444444444444--------------------------|
A|--666666666--222222222--222222222--44444444444444--------------------------|
E|--444444444--000000000-------------22222222222222--------------------------|



CHORUS (THE TWO GUITARS PLAY THE SAME)
**PALM MUTED**

e|---------------------------------------------------------------------------|
B|---------------------------------------------------------------------------|
G|--------------------------x444444444---------------------------------------|
D|--x666666666--x222222222--x444444444--x444444444---------------------------|
A|--x666666666--x222222222--x222222222--x444444444---------------------------|
E|--x444444444--x000000000--------------x222222222---------------------------|


e|---------------------------------------------------------------------------|
B|---------------------------------------------------------------------------|
G|--------------------------x444444444---------------------------------------|
D|--x666666666--x222222222--x444444444--x44444-------------------------------|
A|--x666666666--x222222222--x222222222--x44444-------------------------------|
E|--x444444444--x000000000--------------x22222-------------------------------|



VERSE (THE TWO GUITARS PLAY THE SAME) 


e|---------------------------------------------------------------------------|
B|---------------------------------------------------------------------------|
G|-------------------4--4--------------------4--4----------------------------|
D|-4--4--6--6--2--2--4--4--4--4--6--6--2--2--4--4--444444444-----------------|
A|-4--4--6--6--2--2--2--2--4--4--6--6--2--2--2--2--444444444-----------------|
E|-2--2--4--4--0--0--------2--2--4--4--0--0--------222222222-----------------|



VERSE 2


Guitar 1
e|---------------------------------------------------------------------------|
B|---------------------------------------------------------------------------|
G|---------------------------------------------------------------------------|
D|---------------------------------------------------------------------------|
A|------4-6--------4-6--------4-6--------7-7-6-6-4-4-------------------------|
E|--4-7-----7--0-7-----7--7-7-----7--2-2-------------------------------------|


Guitar 2
e|---------------------------------------------------------------------------|
B|---------------------------------------------------------------------------|
G|------------------------444444444------------------------------------------|
D|--666666666--222222222--444444444--444444444-------------------------------|
A|--666666666--222222222--222222222--444444444-------------------------------|
E|--444444444--000000000-------------222222222-------------------------------|


Guitar 1
e|---------------------------------------------------------------------------|
B|---------------------------------------------------------------------------|
G|---------------------------------------------------------------------------|
D|---------------------------------------------------------------------------|
A|------4-6--------4-6--------4-6--------7-7-6-6-4-4-------------------------|
E|--4-7-----7--0-7-----7--7-7-----7--2-2-------------4-----------------------|


Guitar 2
e|---------------------------------------------------------------------------|
B|---------------------------------------------------------------------------|
G|------------------------444444444------------------------------------------|
D|--666666666--222222222--444444444--44444444444444--------------------------|
A|--666666666--222222222--222222222--44444444444444--------------------------|
E|--444444444--000000000-------------22222222222222--------------------------|



VERSE (THE TWO GUITARS PLAY THE SAME) (with some changes)


e|--------------------------------------------|
B|--------------------------------------------|
G|--------------4--4--------------------4--4--|
D|--6--6--2--2--4--4--4--4--6--6--2--2--4--4--|
A|--6--6--2--2--2--2--4--4--6--6--2--2--2--2--|
E|--4--4--0--0--------2--2--4--4--0--0--------|


e|------------------------------------------------------------|
B|------------------------------------------------------------|
G|-------------------4--4--------------------4--4-------------|
D|-4--4--6--6--2--2--4--4--4--4--6--6--2--2--4--4--444444444--|
A|-4--4--6--6--2--2--2--2--4--4--6--6--2--2--2--2--444444444--|
E|-2--2--4--4--0--0--------2--2--4--4--0--0--------222222222--|



VERSE 3 (THE TWO GUITARS PLAY THE SAME)


e|---------------------------------------------------------------------------|
B|---------------------------------------------------------------------------|
G|------------------------444444444------------------------------------------|
D|--666666666--222222222--444444444--444444444-------------------------------|
A|--666666666--222222222--222222222--444444444-------------------------------|
E|--444444444--000000000-------------222222222-------------------------------|


e|---------------------------------------------------------------------------|
B|---------------------------------------------------------------------------|
G|------------------------444444444------------------------------------------|
D|--666666666--222222222--444444444--444444444-------------------------------|
A|--666666666--222222222--222222222--444444444-------------------------------|
E|--444444444--000000000-------------222222222-------------------------------|


e|---------------------------------------------------------------------------|
B|---------------------------------------------------------------------------|
G|------------------------444444444------------------------------------------|
D|--666666666--222222222--444444444--444444444-------------------------------|
A|--666666666--222222222--222222222--444444444-------------------------------|
E|--444444444--000000000-------------222222222-------------------------------|


e|-----------------------------------------------------------|
B|-----------------------------------------------------------|
G|------------------------444444444--------------------------|
D|--666666666--222222222--444444444--444444444--66-66-66-66--|
A|--666666666--222222222--222222222--444444444--66-66-66-66--|
E|--444444444--000000000-------------222222222--44-44-44-44--|



SOLO 100% PERFECT


Guitar 1

    b.u.  r.b.   r.b.   r.b.   r.b.   r.b.
e|------------------------------------------|
B|---9--------------------------------------|
G|--11----(13)---(13)---(13)---(13)---(13)--| x 2
D|------------------------------------------|
A|------------------------------------------|
E|------------------------------------------|


e|-----------------------------|----------------------|
B|-----------------------------|----------------------|
G|--/11-11-11-11-11------------|----------------------|
D|-------------------14-13-11--|--13h14--11h13--9h11--|
A|-----------------------------|----------------------|
E|-----------------------------|----------------------|


e|------------------------|
B|------------------------|
G|-------8-9-8---------8--|
D|--9-11-------11-9-11----|<<< 2 guitars play this at the same time
A|------------------------|
E|------------------------|


     tr.     tr.      tr.       tr.
e|-------------------------------------|
B|-------------------------------------|
G|-------------------------------------|
D|--8h9h----9h11h----11h13h----13h14h--|
A|-------------------------------------|
E|-------------------------------------|


     b.u.      b.u.             b.u.             b.u.            b.d.
e|------------------------------------------------------------------------|
B|---9--------11---------11----12---------12----14---------14-------------|
G|--11-(13)---13-(15)---(15)---14-(16)---(16)---16-(18)---(18)____16--13--|
D|------------------------------------------------------------------------|
A|------------------------------------------------------------------------|
E|------------------------------------------------------------------------|


      b.u.    r.b.    r.b.   r.b.   r.b.   b.d.
e|-------------------------------------------------------|
B|--14-(16)---(16)---(16)---(16)---(16)____14____12------|
G|---------------------------------------------------13--|
D|-------------------------------------------------------|
A|-------------------------------------------------------|
E|-------------------------------------------------------|


     b.u.      b.u.   b.d. 
e|---------------------------------------|
B|--14-(16)---14-(16)___14---12--14--12--|
G|---------------------------------------|
D|---------------------------------------|
A|---------------------------------------|
E|---------------------------------------|


     b.u.          r.b.   b.d.
e|------------14---------------------|
B|--14-(16)--------(16)___14----12---|
G|-----------------------------------| x 2
D|-----------------------------------|
A|-----------------------------------|
E|-----------------------------------|


e|--------------------------------------------------------------|
B|--11-11-12-11-------------------------------------------------|
G|--------------11-13-11----------------------------------------|
D|-----------------------11h13--11-9-11-9--9h11--9--9---6-4-6---|
A|------------------------------------------------------6-4-6---|
E|------------------------------------------------------4-2-4---|


After the solo the guitar 2 plays:
**PALM MUTED EXCEPT LAST NOTE**

e|--------------------------------------------------|
B|--------------------------------------------------|
G|----------------------x4444444444444444444---4~---|
D|--x66666666666666666--x4444444444444444444---4~---|
A|--x66666666666666666--x2222222222222222222---2~---|
E|--x44444444444444444------------------------------|



VERSE 4

Guitar 1
e|-------------------------------|
B|-------------------------------|
G|-----------------1-------------|
D|--6666666666666----4-2-1-------|
A|--6666666666666----------4-2---|
E|--4444444444444----------------|

Guitar 2
e|-----------------------------------------------|
B|-----------------------------------------------|
G|------------------------444444444--------------|
D|--666666666--222222222--444444444--444444444---|
A|--666666666--222222222--222222222--444444444---|
E|--444444444--000000000-------------222222222---|


Guitar 1
e|-------------------------------|
B|-------------------------------|
G|-----------------1-------------|
D|--6666666666666----4-2-1-------|
A|--6666666666666----------4-2---|
E|--4444444444444----------------|

Guitar 2
e|-----------------------------------------------|
B|-----------------------------------------------|
G|------------------------444444444--------------|
D|--666666666--222222222--444444444--444444444---|
A|--666666666--222222222--222222222--444444444---|
E|--444444444--000000000-------------222222222---|


Guitar 1
e|-------------------------------|
B|-------------------------------|
G|-----------------1-------------|
D|--6666666666666----4-2-1-------|
A|--6666666666666----------4-2---|
E|--4444444444444----------------|

Guitar 2
e|-----------------------------------------------|
B|-----------------------------------------------|
G|------------------------444444444--------------|
D|--666666666--222222222--444444444--444444444---|
A|--666666666--222222222--222222222--444444444---|
E|--444444444--000000000-------------222222222---|


Guitar 1
e|-------------------------------|
B|-------------------------------|
G|-----------------1-------------|
D|--6666666666666----4-2-1-------|
A|--6666666666666----------4-2---|
E|--4444444444444----------------|

Guitar 2
e|-----------------------------------------------|
B|-----------------------------------------------|
G|------------------------444444444--------------|
D|--666666666--222222222--444444444--444444444---|
A|--666666666--222222222--222222222--444444444---|
E|--444444444--000000000-------------222222222---|


END

Guitar 1
e|---------------------------------------------------------------------------|
B|---------------------------------------------------------------------------|
G|---------------------------------------------------------------------------|
D|---------------------------------------------------------------------------|
A|------4-6--------4-6--------4-6--------7-7-6-6-4-4-------------------------|
E|--4-7-----7--0-7-----7--7-7-----7--2-2-------------------------------------|


Guitar 2
e|---------------------------------------------------------------------------|
B|---------------------------------------------------------------------------|
G|------------------------444444444------------------------------------------|
D|--666666666--222222222--444444444--444444444-------------------------------|
A|--666666666--222222222--222222222--444444444-------------------------------|
E|--444444444--000000000-------------222222222-------------------------------|


Guitar 1
e|---------------------------------------------------------------------------|
B|---------------------------------------------------------------------------|
G|---------------------------------------------------------------------------|
D|---------------------------------------------------------------------------|
A|------4-6--------4-6--------4-6--------7-7-6-6-4-4-------------------------|
E|--4-7-----7--0-7-----7--7-7-----7--2-2-------------------------------------|


Guitar 2
e|---------------------------------------------------------------------------|
B|---------------------------------------------------------------------------|
G|------------------------444444444------------------------------------------|
D|--666666666--222222222--444444444--444444444-------------------------------|
A|--666666666--222222222--222222222--444444444-------------------------------|
E|--444444444--000000000-------------222222222-------------------------------|


Guitar 1
e|---------------------------------------------------------------------------|
B|---------------------------------------------------------------------------|
G|---------------------------------------------------------------------------|
D|---------------------------------------------------------------------------|
A|------4-6--------4-6--------4-6--------7-7-6-6-4-4-------------------------|
E|--4-7-----7--0-7-----7--7-7-----7--2-2-------------------------------------|


Guitar 2
e|---------------------------------------------------------------------------|
B|---------------------------------------------------------------------------|
G|------------------------444444444------------------------------------------|
D|--666666666--222222222--444444444--444444444-------------------------------|
A|--666666666--222222222--222222222--444444444-------------------------------|
E|--444444444--000000000-------------222222222-------------------------------|


Guitar 1
e|---------------------------------------------------------------------------|
B|---------------------------------------------------------------------------|
G|---------------------------------------------------------------------------|
D|---------------------------------------------------------------------------|
A|------4-6--------4-6--------4-6--------7-7-6-6-4-4-------------------------|
E|--4-7-----7--0-7-----7--7-7-----7--2-2-------------4-----------------------|


Guitar 2
e|---------------------------------------------------------------------------|
B|---------------------------------------------------------------------------|
G|------------------------444444444------------------------------------------|
D|--666666666--222222222--444444444--44444444444444--------------------------|
A|--666666666--222222222--222222222--44444444444444--------------------------|
E|--444444444--000000000-------------22222222222222--------------------------|


 tr.   Tremolo
 b.u.  Bending up 
 b.d.  Bending down
 b.r.  Bending released
 /     slide up
 h     hammer-on
 ~     vibrato
 x     Mute note

===============================================================================

This tab is 100% percent right, so please DON'T FORGET TO R.A.T.E.!!!!!
comments
print report bad tab
49 comments total. Showing first comments.
0 reply
Uncommonresults wrote on February 23 2005, 12:00 am

on the verse and intro i think guitar two only plays the chord once and holds it

0 reply
cocox2 wrote on February 24 2005, 12:00 am

Well, i play like you said, and it sound good. but if you listen the song, you can heard how the guistarrist change notes.

0 reply
cocox2 wrote on March 14 2005, 12:00 am

Rate!!!!!!

I want to post or [tab]
guest
You may want to rate the tab now too:
select rating
Please do not post tabs as comments. Select "correction" instead!