Oops, an error
Loading. Please wait.

Noots Tab

ver2
ver2

Whole song

Interactive

More versions @911Tabs.com
31,675 views 51 this week
6 commentsread comments
1 2 3 4 5
accurate
x 9
Autoscroll
+/-
esc
set tempo
stop
Contributor
Difficulty
PjP
intermediate
Hey! There's an official Ultimate Guitar app which is ideal
for learning songs when you're away from computer. Get the app
WARNING: You are trying to view
                                    content from Ultimate-Guitar.com
                                    in an unauthorized application,
                                    which is prohibited.

                                    Please use an official Ultimate
                                    Guitar Tabs application for iPhone,
                                    iPad or Android to access legitimate
                                    chords, guitar, bass, and drum tabs
                                    from Ultimate-Guitar.com database.

                                    Type "ultimate guitar tabs" in Apple
                                    App Store's or Android Market's
                                    search to find the application.
This song Noots is from the Sum 41 album Chuck, but this song is only found on the UK Version.
I have this song as a Power Tab, so if you would like to get that, email me at 
and I can send it to you.

Sum 41 is:
Deryck "Bizzy D" Whibley - Rhythm Guitar, Lead Vocals
Dave "Brownsound" Baksh - Lead Guitar, Backing Vocals
Jason "Cone" McCaslin - Bass, Backing Vocals
Steve "Stevo32" Jocz - Drums, Backing Vocals


Gtr I (E A D G B E) - 'Lead Guitar'
Gtr II (E A D G B E) - 'Rhythm Guitar'


  Q=192
 4/4
  Gtr II
   E E  E E  E E  E  E    E E  E E  E E  E  E
|--8----8----8----8--8h|==9----9----9----9--9p|
|--9----9----9----9--9-|--9----9----9----9--9-|
|-10---10---10---10-10-|-10---10---10---10-10-|
|----------------------|----------------------|
|----------------------|----------------------|
|----------------------|----------------------|
|
| Gtr I
|----------------------|----------------------|
|----------------------|----------------------|
|----------------------|----------------------|
|----------------------|----------------------|
|----------------------|----------------------|
|----------------------|----------------------|


   E E  E E  E E  E  E    E E  E E  E E  E  E
|--8----8----8----8--8h|==9----9----9----9--9---|
|--9----9----9----9--9-|--9----9----9----9--9---|
|-10---10---10---10-10-|-10---10---10---10-10---|
|----------------------|------------------------|
|----------------------|------------------------|
|----------------------|------------------------|
|
|                         E E  E E  E E  E  E
|----------------------|------------------------|
|----------------------|------------------------|
|----------------------|------------------------|
|----------------------|--x-x--x-x--x-x--x--x---|
|----------------------|--x-x--x-x--x-x--x--x---|
|----------------------|--x-x--x-x--x-x--x--x---|


     E  E  E  E  Q    Q      E  E  E  E  Q    Q
||------------------------|-----------------------|
||o-----------------------|-----------------------|
||--10-10-12-12-13---12---|-10-10-12-12-13---12---|
||------------------------|-----------------------|
||o--8--8-10-10-11---10---|--8--8-10-10-11---10---|
||------------------------|-----------------------|
|
|    E  E  E  E  E E  E E    E  E  E  E  E E  E E
||------------------------|-----------------------|
||o-----------------------|-----------------------|
||------------------------|-----------------------|
||---3--3--3--3--3-3--3-3-|--3--3--3--3--3-3--3-3-|
||o--3--3--3--3--3-3--3-3-|--3--3--3--3--3-3--3-3-|
||---1--1--1--1--1-1--1-1-|--1--1--1--1--1-1--1-1-|


  E E  E  E  E  E  E  E    E  E  E  E  Q    Q
|-----------------------|------------------------||
|-----------------------|-----------------------o||
|-8-8-10-10-12-12-13-13-|-15-15-13-13-12---13----||
|-----------------------|------------------------||
|-6-6--8--8-10-10-11-11-|-13-13-11-11-10---11---o||
|-----------------------|------------------------||
|
| E E  E  E  E  E  E  E    E  E  E  E  E E  E E
|-----------------------|------------------------||
|-----------------------|-----------------------o||
|-8-8--8--8--8--8--8--8-|------------------------||
|-8-8--8--8--8--8--8--8-|--8--8--8--8--8-8--8-8--||
|-6-6--6--6--6--6--6--6-|--8--8--8--8--8-8--8-8-o||
|-----------------------|--6--6--6--6--6-6--6-6--||


          W               W               W               W
||------------------|-----------------|-----------------|------------------||
||o-----------------|-----------------|-----------------|-----------------o||
||------------------|-----------------|-----------------|------------------||
||------------------|-----------------|-----------------|------------------||
||o-----------------|-----------------|-----------------|-----------------o||
||------------------|-----------------|-----------------|------------------||
|
|   PM------------------------------------------------------------------|
|   E E E E E E E E   E E E E E E E E   E E E E E E E E   E E E E E E E E
||------------------|-----------------|-----------------|------------------||
||o-----------------|-----------------|-----------------|-----------------o||
||------------------|-----------------|-----------------|------------------||
||------------------|-----------------|-8-8-8-8-8-8-8-8-|-8-8-8-8-8-8-8-8--||
||o-3-3-3-3-3-3-3-3-|-6-6-6-6-6-6-6-6-|-6-6-6-6-6-6-6-6-|-6-6-6-6-6-6-6-6-o||
||--1-1-1-1-1-1-1-1-|-4-4-4-4-4-4-4-4-|-----------------|------------------||


   E  E  E E  E  E  E E    E  E  E E  E  E  E E
|--8--8--8----8--8--8---|--9--9--9----9--9--9---|
|--9--9--9----9--9--9---|--9--9--9----9--9--9---|
|-10-10-10---10-10-10---|-10-10-10---10-10-10---|
|-----------------------|-----------------------|
|-----------------------|-----------------------|
|-----------------------|-----------------------|
|
|  PM--------------------------------------------
|  E  E  E E  E  E  E E    E  E  E E  E  E  E E
|-----------------------|-----------------------|
|-----------------------|-----------------------|
|-----------------------|-----------------------|
|-----------------------|-----------------------|
|--3--3--3-3--3--3--3-3-|--3--3--3-3--3--3--3-3-|
|--1--1--1-1--1--1--1-1-|--1--1--1-1--1--1--1-1-|


        W                 W
|-----------------|--------------------|
|-----------------|--------------------|
|-----------------|--------------------|
|-----------------|--------------------|
|-----------------|--------------------|
|-----------------|--------------------|
|
|---------------------------------|
| E E E E E E E E   E E E E E E E E
|-----------------|--------------------|
|-----------------|--------------------|
|-----------------|--------------------|
|-----------------|-8-8-8-8-8-8-8-8----|
|-6-6-6-6-6-6-6-6-|-6-6-6-6-6-6-6-6----|
|-4-4-4-4-4-4-4-4-|--------------------|


  W                 W                 Q   E E Q   E E   Q   E E Q   E E
|-----------------|-----------------|-----------------|------------------|
|-----------------|-----------------|-----------------|------------------|
|-----------------|-----------------|-----------------|-8---8-8-8---8-8--|
|-----------------|-----------------|-6---x-x-6---x-x-|-8---8-8-8---8-8--|
|-----------------|-----------------|-6---x-x-6---x-x-|-6---6-6-6---6-6--|
|-----------------|-----------------|-4---x-x-4---x-x-|------------------|
|
| PM------------------------------------------------------------------|
| E E E E E E E E   E E E E E E E E   E E E E E E E E   E E E E E E E E
|-----------------|-----------------|-----------------|------------------|
|-----------------|-----------------|-----------------|------------------|
|-----------------|-----------------|-----------------|------------------|
|-----------------|-----------------|-----------------|-8-8-8-8-8-8-8-8--|
|-3-3-3-3-3-3-3-3-|-3-3-3-3-3-3-3-3-|-6-6-6-6-6-6-6-6-|-6-6-6-6-6-6-6-6--|
|-1-1-1-1-1-1-1-1-|-1-1-1-1-1-1-1-1-|-4-4-4-4-4-4-4-4-|------------------|


  Q  +E  Q  +E  E E   +Q   Q   Q   E E   Q  +E  Q  +E  E E   +W
|-------------------|------------------|-------------------|---------------|
|-------------------|------------------|-------------------|---------------|
|-8--(8)-8--(8)-6-8-|-(8)--8---8--10-6-|-8--(8)-8--(8)-6-8-|-(8)-----------|
|-------------------|------------------|-------------------|---------------|
|-6--(6)-6--(6)-4-6-|-(6)--6---6---8-4-|-6--(6)-6--(6)-4-6-|-(6)-----------|
|-------------------|------------------|-------------------|---------------|
|
|        W                   W                  W                  H    H
|-------------------|------------------|-------------------|---------------|
|-------------------|------------------|-------------------|---------------|
|-------------------|------------------|-------------------|---------------|
|-------------------|------------------|-------------------|---------------|
|-------------------|------------------|-------------------|---------------|
|-------------------|------------------|-------------------|-----------12\-|


    E E E E E E E E   E E E E E E E E   E E E E E E E  E    E E E E E E E E
||------------------|-----------------|-------------------|------------------||
||o-----------------|-----------------|-------------------|-----------------o||
||------------------|-----------------|-8-8-8-8-8-8-8--8--|-8-8-8-8-8-8-8-8--||
||--3-3-3-3-3-3-3-3-|-6-6-6-6-6-6-6-6-|-8-8-8-8-8-8-8--8--|-8-8-8-8-8-8-8-8--||
||o-3-3-3-3-3-3-3-3-|-6-6-6-6-6-6-6-6-|-6-6-6-6-6-6-6--6--|-6-6-6-6-6-6-6-6-o||
||--1-1-1-1-1-1-1-1-|-4-4-4-4-4-4-4-4-|-------------------|------------------||
|
|   E E E E E E E E   E E E E E E E E   E E E E E E E  E    E E E E E E E E
||------------------|-----------------|-------------------|------------------||
||o-----------------|-----------------|-------------------|-----------------o||
||------------------|-----------------|-8-8-8-8-8-8-8--8--|-8-8-8-8-8-8-8-8--||
||--3-3-3-3-3-3-3-3-|-6-6-6-6-6-6-6-6-|-8-8-8-8-8-8-8--8--|-8-8-8-8-8-8-8-8--||
||o-3-3-3-3-3-3-3-3-|-6-6-6-6-6-6-6-6-|-6-6-6-6-6-6-6--6--|-6-6-6-6-6-6-6-6-o||
||--1-1-1-1-1-1-1-1-|-4-4-4-4-4-4-4-4-|-------------------|------------------||


    E E E E E E E E   E E E E E E E E   E E E E E E E E   E E E E E E E E
||------------------|-----------------|-----------------|------------------||
||o-----------------|-----------------|-----------------|-----------------o||
||------------------|-----------------|-----------------|-8-8-8-8-8-8-8-8--||
||--3-3-3-3-3-3-3-3-|-3-3-3-3-3-3-3-3-|-6-6-6-6-6-6-6-6-|-8-8-8-8-8-8-8-8--||
||o-3-3-3-3-3-3-3-3-|-3-3-3-3-3-3-3-3-|-6-6-6-6-6-6-6-6-|-6-6-6-6-6-6-6-6-o||
||--1-1-1-1-1-1-1-1-|-1-1-1-1-1-1-1-1-|-4-4-4-4-4-4-4-4-|------------------||
|
|   E E E E E E E E   E E E E E E E E   E E E E E E E E   E E E E E E E E
||------------------|-----------------|-----------------|------------------||
||o-----------------|-----------------|-----------------|-----------------o||
||------------------|-----------------|-----------------|-8-8-8-8-8-8-8-8--||
||--3-3-3-3-3-3-3-3-|-3-3-3-3-3-3-3-3-|-6-6-6-6-6-6-6-6-|-8-8-8-8-8-8-8-8--||
||o-3-3-3-3-3-3-3-3-|-3-3-3-3-3-3-3-3-|-6-6-6-6-6-6-6-6-|-6-6-6-6-6-6-6-6-o||
||--1-1-1-1-1-1-1-1-|-1-1-1-1-1-1-1-1-|-4-4-4-4-4-4-4-4-|------------------||


   E  E  E  E  Q    Q      E  E  E  E  Q    Q
|-----------------------|-----------------------|
|-----------------------|-----------------------|
|-10-10-12-12-13---12---|-10-10-12-12-13---12---|
|-----------------------|-----------------------|
|--8--8-10-10-11---10---|--8--8-10-10-11---10---|
|-----------------------|-----------------------|
|
|  E  E  E  E  E E  E E    E  E  E  E  E E  E E
|-----------------------|-----------------------|
|-----------------------|-----------------------|
|-----------------------|-----------------------|
|--3--3--3--3--3-3--3-3-|--3--3--3--3--3-3--3-3-|
|--3--3--3--3--3-3--3-3-|--3--3--3--3--3-3--3-3-|
|--1--1--1--1--1-1--1-1-|--1--1--1--1--1-1--1-1-|


  E E  E  E  E  E  E  E    E  E  E  E  Q    Q
|-----------------------|------------------------|
|-----------------------|------------------------|
|-8-8-10-10-12-12-13-13-|-15-15-13-13-12---13----|
|-----------------------|------------------------|
|-6-6--8--8-10-10-11-11-|-13-13-11-11-10---11----|
|-----------------------|------------------------|
|
| E E  E  E  E  E  E  E    E  E  E  E  E E  E E
|-----------------------|------------------------|
|-----------------------|------------------------|
|-8-8--8--8--8--8--8--8-|------------------------|
|-8-8--8--8--8--8--8--8-|--8--8--8--8--8-8--8-8--|
|-6-6--6--6--6--6--6--6-|--8--8--8--8--8-8--8-8--|
|-----------------------|--6--6--6--6--6-6--6-6--|


    W                 W                 W                 W
||------------------|-----------------|-----------------|------------------||
||o-----------------|-----------------|-----------------|-----------------o||
||------------------|-----------------|-----------------|------------------||
||------------------|-----------------|-----------------|------------------||
||o-----------------|-----------------|-----------------|-----------------o||
||------------------|-----------------|-----------------|------------------||
|
|   PM------------------------------------------------------------------|
|   E E E E E E E E   E E E E E E E E   E E E E E E E E   E E E E E E E E
||------------------|-----------------|-----------------|------------------||
||o-----------------|-----------------|-----------------|-----------------o||
||------------------|-----------------|-----------------|------------------||
||------------------|-----------------|-8-8-8-8-8-8-8-8-|-8-8-8-8-8-8-8-8--||
||o-3-3-3-3-3-3-3-3-|-6-6-6-6-6-6-6-6-|-6-6-6-6-6-6-6-6-|-6-6-6-6-6-6-6-6-o||
||--1-1-1-1-1-1-1-1-|-4-4-4-4-4-4-4-4-|-----------------|------------------||


   E  E  E E  E  E  E E    E  E  E E  E  E  E E
|--8--8--8----8--8--8---|--9--9--9----9--9--9---|
|--9--9--9----9--9--9---|--9--9--9----9--9--9---|
|-10-10-10---10-10-10---|-10-10-10---10-10-10---|
|-----------------------|-----------------------|
|-----------------------|-----------------------|
|-----------------------|-----------------------|
|
|  PM--------------------------------------------
|  E  E  E E  E  E  E E    E  E  E E  E  E  E E
|-----------------------|-----------------------|
|-----------------------|-----------------------|
|-----------------------|-----------------------|
|-----------------------|-----------------------|
|--3--3--3-3--3--3--3-3-|--3--3--3-3--3--3--3-3-|
|--1--1--1-1--1--1--1-1-|--1--1--1-1--1--1--1-1-|


  W                 W
|-----------------|------------------|
|-----------------|------------------|
|-----------------|------------------|
|-----------------|------------------|
|-----------------|------------------|
|-----------------|------------------|
|
|---------------------------------|
| E E E E E E E E   E E E E E E E E
|-----------------|------------------|
|-----------------|------------------|
|-----------------|------------------|
|-----------------|-8-8-8-8-8-8-8-8--|
|-6-6-6-6-6-6-6-6-|-6-6-6-6-6-6-6-6--|
|-4-4-4-4-4-4-4-4-|------------------|


  W                 W                 Q   E E Q   E E   Q   E E Q   E E
|-----------------|-----------------|-----------------|------------------|
|-----------------|-----------------|-----------------|------------------|
|-----------------|-----------------|-----------------|-8---8-8-8---8-8--|
|-----------------|-----------------|-6---x-x-6---x-x-|-8---8-8-8---8-8--|
|-----------------|-----------------|-6---x-x-6---x-x-|-6---6-6-6---6-6--|
|-----------------|-----------------|-4---x-x-4---x-x-|------------------|
|
| PM------------------------------------------------------------------|
| E E E E E E E E   E E E E E E E E   E E E E E E E E   E E E E E E E E
|-----------------|-----------------|-----------------|------------------|
|-----------------|-----------------|-----------------|------------------|
|-----------------|-----------------|-----------------|------------------|
|-----------------|-----------------|-----------------|-8-8-8-8-8-8-8-8--|
|-3-3-3-3-3-3-3-3-|-3-3-3-3-3-3-3-3-|-6-6-6-6-6-6-6-6-|-6-6-6-6-6-6-6-6--|
|-1-1-1-1-1-1-1-1-|-1-1-1-1-1-1-1-1-|-4-4-4-4-4-4-4-4-|------------------|


  Q  +E  Q  +E  E E   +Q   Q  Q   E E   Q  +E  Q  +E  E E   +W
|-------------------|-----------------|-------------------|---------------|
|-------------------|-----------------|-------------------|---------------|
|-8--(8)-8--(8)-6-8-|-(8)--8--8--10-6-|-8--(8)-8--(8)-6-8-|-(8)-----------|
|-------------------|-----------------|-------------------|---------------|
|-6--(6)-6--(6)-4-6-|-(6)--6--6---8-4-|-6--(6)-6--(6)-4-6-|-(6)-----------|
|-------------------|-----------------|-------------------|---------------|
|
| W                    W                W                    H      H
|-------------------|-----------------|-------------------|---------------|
|-------------------|-----------------|-------------------|---------------|
|-------------------|-----------------|-------------------|---------------|
|-------------------|-----------------|-------------------|---------------|
|-------------------|-----------------|-------------------|---------------|
|-------------------|-----------------|-------------------|--------12\----|


    E E E E E E E E   E E E E E E E E   E E E E E E E E   E E E E E E E E
||------------------|-----------------|-----------------|------------------||
||o-----------------|-----------------|-----------------|-----------------o||
||------------------|-----------------|-8-8-8-8-8-8-8-8-|-8-8-8-8-8-8-8-8--||
||--3-3-3-3-3-3-3-3-|-6-6-6-6-6-6-6-6-|-8-8-8-8-8-8-8-8-|-8-8-8-8-8-8-8-8--||
||o-3-3-3-3-3-3-3-3-|-6-6-6-6-6-6-6-6-|-6-6-6-6-6-6-6-6-|-6-6-6-6-6-6-6-6-o||
||--1-1-1-1-1-1-1-1-|-4-4-4-4-4-4-4-4-|-----------------|------------------||
|
|   E E E E E E E E   E E E E E E E E   E E E E E E E E   E E E E E E E E
||------------------|-----------------|-----------------|------------------||
||o-----------------|-----------------|-----------------|-----------------o||
||------------------|-----------------|-8-8-8-8-8-8-8-8-|-8-8-8-8-8-8-8-8--||
||--3-3-3-3-3-3-3-3-|-6-6-6-6-6-6-6-6-|-8-8-8-8-8-8-8-8-|-8-8-8-8-8-8-8-8--||
||o-3-3-3-3-3-3-3-3-|-6-6-6-6-6-6-6-6-|-6-6-6-6-6-6-6-6-|-6-6-6-6-6-6-6-6-o||
||--1-1-1-1-1-1-1-1-|-4-4-4-4-4-4-4-4-|-----------------|------------------||


    E E E E E E E E   E E E E E E E E   E E E E E E E E   E E E E E E E E
||------------------|-----------------|-----------------|------------------||
||o-----------------|-----------------|-----------------|-----------------o||
||------------------|-----------------|-----------------|-8-8-8-8-8-8-8-8--||
||--3-3-3-3-3-3-3-3-|-3-3-3-3-3-3-3-3-|-6-6-6-6-6-6-6-6-|-8-8-8-8-8-8-8-8--||
||o-3-3-3-3-3-3-3-3-|-3-3-3-3-3-3-3-3-|-6-6-6-6-6-6-6-6-|-6-6-6-6-6-6-6-6-o||
||--1-1-1-1-1-1-1-1-|-1-1-1-1-1-1-1-1-|-4-4-4-4-4-4-4-4-|------------------||
|
|   E E E E E E E E   E E E E E E E E   E E E E E E E E   E E E E E E E E
||------------------|-----------------|-----------------|------------------||
||o-----------------|-----------------|-----------------|-----------------o||
||------------------|-----------------|-----------------|-8-8-8-8-8-8-8-8--||
||--3-3-3-3-3-3-3-3-|-3-3-3-3-3-3-3-3-|-6-6-6-6-6-6-6-6-|-8-8-8-8-8-8-8-8--||
||o-3-3-3-3-3-3-3-3-|-3-3-3-3-3-3-3-3-|-6-6-6-6-6-6-6-6-|-6-6-6-6-6-6-6-6-o||
||--1-1-1-1-1-1-1-1-|-1-1-1-1-1-1-1-1-|-4-4-4-4-4-4-4-4-|------------------||


    E E E E E E E E   E E E E E E E E   E E E E E E E E   E E E E E E E E
||------------------|-----------------|-----------------|------------------||
||o-----------------|-----------------|-----------------|-----------------o||
||--8-8-8-8-8-8-8-8-|-6-6-6-6-6-6-6-6-|-----------------|-6-6-6-6-6-6-6-6--||
||--8-8-8-8-8-8-8-8-|-6-6-6-6-6-6-6-6-|-6-6-6-6-6-6-6-6-|-6-6-6-6-6-6-6-6--||
||o-6-6-6-6-6-6-6-6-|-4-4-4-4-4-4-4-4-|-6-6-6-6-6-6-6-6-|-4-4-4-4-4-4-4-4-o||
||------------------|-----------------|-4-4-4-4-4-4-4-4-|------------------||
|
|   E E E E E E E E   E E E E E E E E   E E E E E E E E   E E E E E E E E
||------------------|-----------------|-----------------|------------------||
||o-----------------|-----------------|-----------------|-----------------o||
||--8-8-8-8-8-8-8-8-|-6-6-6-6-6-6-6-6-|-----------------|-6-6-6-6-6-6-6-6--||
||--8-8-8-8-8-8-8-8-|-6-6-6-6-6-6-6-6-|-6-6-6-6-6-6-6-6-|-6-6-6-6-6-6-6-6--||
||o-6-6-6-6-6-6-6-6-|-4-4-4-4-4-4-4-4-|-6-6-6-6-6-6-6-6-|-4-4-4-4-4-4-4-4-o||
||------------------|-----------------|-4-4-4-4-4-4-4-4-|------------------||


   E  E  E E  E  E  E  E    E  E  E E  E  E  E  E
|--8--8--8----8--8--8----|--8--8--8----8--8--8----|
|--9--9--9----9--9--9----|--9--9--9----9--9--9----|
|-10-10-10---10-10-10----|-10-10-10---10-10-10----|
|------------------------|------------------------|
|------------------------|------------------------|
|------------------------|------------------------|
|
|             W                        W
|------------------------|------------------------|
|------------------------|------------------------|
|------------------------|------------------------|
|------------------------|------------------------|
|------------------------|------------------------|
|------------------------|------------------------|


   E  E  E  E  E  E  E E    E  E  E E  E  E  E  E
|--9--9--9-----9--9--9---|--8--8--8----8--8--8-----|
|--9--9--9-----9--9--9---|--9--9--9----9--9--9-----|
|-10-10-10----10-10-10---|-10-10-10---10-10-10-----|
|------------------------|-------------------------|
|------------------------|-------------------------|
|------------------------|-------------------------|
|
|           W                             W
|------------------------|-------------------------|
|------------------------|-------------------------|
|------------------------|-------------------------|
|------------------------|-------------------------|
|------------------------|-------------------------|
|------------------------|-------------------------|


     E  E  E E  E  E  E E    E  E  E E  E  E  E E
||---8--8--8----8--8--8---|--8--8--8----8--8--8---|
||o--9--9--9----9--9--9---|--9--9--9----9--9--9---|
||--10-10-10---10-10-10---|-10-10-10---10-10-10---|
||------------------------|-----------------------|
||o-----------------------|-----------------------|
||------------------------|-----------------------|
|
||------------------------|-----------------------|
||o-----------------------|-----------------------|
||------------------------|-----------------------|
||------------------------|-----------------------|
||o-----------------------|-----------------------|
||------------------------|-----------------------|


   E  E  E E  E  E  E E    E  E  E E  E  E  E E  5x
|--9--9--9----9--9--9---|--8--8--8----8--8--8----||
|--9--9--9----9--9--9---|--9--9--9----9--9--9---o||
|-10-10-10---10-10-10---|-10-10-10---10-10-10----||
|-----------------------|------------------------||
|-----------------------|-----------------------o||
|-----------------------|------------------------||
|
|                                                5x
|-----------------------|------------------------||
|-----------------------|-----------------------o||
|-----------------------|------------------------||
|-----------------------|------------------------||
|-----------------------|-----------------------o||
|-----------------------|------------------------||


  W          W          W           W
|----------|----------|----------|--------|
|----------|----------|----------|--------|
|----------|----------|----------|--------|
|----------|----------|----------|--------|
|----------|----------|----------|--------|
|----------|----------|----------|-12\----|
|
| W          W          W           W
|----------|----------|----------|--------|
|----------|----------|----------|--------|
|----------|----------|----------|--------|
|----------|----------|----------|--------|
|----------|----------|----------|--------|
|----------|----------|----------|-12\----|


    E E E E E E E E   E E E E E E E E   E E E E E E E E   E E E E E E E E
||------------------|-----------------|-----------------|------------------||
||o-----------------|-----------------|-----------------|-----------------o||
||------------------|-----------------|-8-8-8-8-8-8-8-8-|-8-8-8-8-8-8-8-8--||
||--3-3-3-3-3-3-3-3-|-6-6-6-6-6-6-6-6-|-8-8-8-8-8-8-8-8-|-8-8-8-8-8-8-8-8--||
||o-3-3-3-3-3-3-3-3-|-6-6-6-6-6-6-6-6-|-6-6-6-6-6-6-6-6-|-6-6-6-6-6-6-6-6-o||
||--1-1-1-1-1-1-1-1-|-4-4-4-4-4-4-4-4-|-----------------|------------------||
|
|   E E E E E E E E   E E E E E E E E   E E E E E E E E   E E E E E E E E
||------------------|-----------------|-----------------|------------------||
||o-----------------|-----------------|-----------------|-----------------o||
||------------------|-----------------|-8-8-8-8-8-8-8-8-|-8-8-8-8-8-8-8-8--||
||--3-3-3-3-3-3-3-3-|-6-6-6-6-6-6-6-6-|-8-8-8-8-8-8-8-8-|-8-8-8-8-8-8-8-8--||
||o-3-3-3-3-3-3-3-3-|-6-6-6-6-6-6-6-6-|-6-6-6-6-6-6-6-6-|-6-6-6-6-6-6-6-6-o||
||--1-1-1-1-1-1-1-1-|-4-4-4-4-4-4-4-4-|-----------------|------------------||


    E E E E E E E E   E E E E E E E E   E E E E E E E E   E E E E E E E E
||------------------|-----------------|-----------------|------------------||
||o-----------------|-----------------|-----------------|-----------------o||
||------------------|-----------------|-----------------|-8-8-8-8-8-8-8-8--||
||--3-3-3-3-3-3-3-3-|-3-3-3-3-3-3-3-3-|-6-6-6-6-6-6-6-6-|-8-8-8-8-8-8-8-8--||
||o-3-3-3-3-3-3-3-3-|-3-3-3-3-3-3-3-3-|-6-6-6-6-6-6-6-6-|-6-6-6-6-6-6-6-6-o||
||--1-1-1-1-1-1-1-1-|-1-1-1-1-1-1-1-1-|-4-4-4-4-4-4-4-4-|------------------||
|
|   E E E E E E E E   E E E E E E E E   E E E E E E E E   E E E E E E E E
||------------------|-----------------|-----------------|------------------||
||o-----------------|-----------------|-----------------|-----------------o||
||------------------|-----------------|-----------------|-8-8-8-8-8-8-8-8--||
||--3-3-3-3-3-3-3-3-|-3-3-3-3-3-3-3-3-|-6-6-6-6-6-6-6-6-|-8-8-8-8-8-8-8-8--||
||o-3-3-3-3-3-3-3-3-|-3-3-3-3-3-3-3-3-|-6-6-6-6-6-6-6-6-|-6-6-6-6-6-6-6-6-o||
||--1-1-1-1-1-1-1-1-|-1-1-1-1-1-1-1-1-|-4-4-4-4-4-4-4-4-|------------------||


     E  E  E  E  Q    Q      E  E  E  E  Q    Q
||------------------------|-----------------------|
||o-----------------------|-----------------------|
||--10-10-12-12-13---12---|-10-10-12-12-13---12---|
||------------------------|-----------------------|
||o--8--8-10-10-11---10---|--8--8-10-10-11---10---|
||------------------------|-----------------------|
|
|    E  E  E  E  E E  E E    E  E  E  E  E E  E E
||------------------------|-----------------------|
||o-----------------------|-----------------------|
||------------------------|-----------------------|
||---3--3--3--3--3-3--3-3-|--3--3--3--3--3-3--3-3-|
||o--3--3--3--3--3-3--3-3-|--3--3--3--3--3-3--3-3-|
||---1--1--1--1--1-1--1-1-|--1--1--1--1--1-1--1-1-|


                          1.
  E E  E  E  E  E  E  E    E  E  E  E  Q    Q
|-----------------------|------------------------||
|-----------------------|-----------------------o||
|-8-8-10-10-12-12-13-13-|-15-15-13-13-12---13----||
|-----------------------|------------------------||
|-6-6--8--8-10-10-11-11-|-13-13-11-11-10---11---o||
|-----------------------|------------------------||
|
| E E  E  E  E  E  E  E    E  E  E  E  E E  E E
|-----------------------|------------------------||
|-----------------------|-----------------------o||
|-8-8--8--8--8--8--8--8-|------------------------||
|-8-8--8--8--8--8--8--8-|--8--8--8--8--8-8--8-8--||
|-6-6--6--6--6--6--6--6-|--8--8--8--8--8-8--8-8-o||
|-----------------------|--6--6--6--6--6-6--6-6--||


  2.
                           >
   E  E  E  E  Q    Q      W           +W           +W
|-----------------------|-----------|------------|---------|
|-----------------------|-----------|------------|---------|
|-15-15-13-13-12---13---|-10--------|-(10)-------|-(10)----|
|-----------------------|-----------|------------|---------|
|-13-13-11-11-10---11---|--8--------|--(8)-------|--(8)----|
|-----------------------|-----------|------------|---------|
|
|                          >
|  E  E  E  E  E E  E E    W           +W           +W
|-----------------------|-----------|------------|---------|
|-----------------------|-----------|------------|---------|
|-----------------------|-----------|------------|---------|
|--8--8--8--8--8-8--8-8-|--8--------|--(8)-------|--(8)----|
|--8--8--8--8--8-8--8-8-|--8--------|--(8)-------|--(8)----|
|--6--6--6--6--6-6--6-6-|--6--------|--(6)-------|--(6)----|


--------------------------------------------------------------------------------


Duration Legend
---------------
W - whole; H - half; Q - quarter; E - 8th; S - 16th; T - 32nd; X - 64th; a - acciaccatura
+ - note tied to previous; . - note dotted; .. - note double dotted
Uncapitalized letters represent notes that are staccato (1/2 duration)
Irregular groupings are notated above the duration line
Duration letters will always appear directly above the note/fret number it represents the
duration for.  Duration letters with no fret number below them represent rests.  Multi-
bar rests are notated in the form Wxn, where n is the number of bars to rest for.  Low
melody durations appear below the staff

Tablature Legend
----------------
 h   - hammer-on
 p   - pull-off
 b   - bend
 pb  - pre-bend
 r   - bend release (if no number after the r, then release immediately)
 /\  - slide into or out of (from/to "nowhere")
 s   - legato slide
 S   - shift slide
 - natural harmonic
[n]  - artificial harmonic
n(n) - tapped harmonic
 ~   - vibrato
 tr  - trill
 T   - tap
 TP  - trem. picking
 PM  - palm muting
\n/  - tremolo bar dip; n = amount to dip
 \n  - tremolo bar down
 n/  - tremolo bar up
/n\  - tremolo bar inverted dip
 =   - hold bend; also acts as connecting device for hammers/pulls
 <> - volume swell (louder/softer)
 x   - on rhythm slash represents muted slash
 o   - on rhythm slash represents single note slash

Misc Legend
-----------
 |  - bar
||  - double bar
||o - repeat start
o|| - repeat end
*|  - double bar (ending)
 :  - bar (freetime)
 $  - Segno
 &  - Coda
Tempo markers -  = BPM(8/16=s8/s16), where s8 = swing 8ths, s16 = swing 16ths
comments
print report bad tab
6 comments total. Showing first comments.
-1 reply
12345678910 wrote on May 31 2006, 04:21 pm

Can you just upload the power tab?

0 reply
PjP wrote on June 1 2006, 07:08 am

Hey, I wrote this tab. Sorry, 12345678910, I don't know how to upload the power tab. But email me at joshbutler53@hotmail.com and I can send it to ya! Peace out rockstars!

0 reply
justin43091 wrote on August 7 2006, 10:46 pm

a lot better than version 1 i must say :)

gj pjp i give it 5 stars

I want to post or [tab]
guest
You may want to rate the tab now too:
select rating
Please do not post tabs as comments. Select "correction" instead!