Oops, an error
Loading. Please wait.

Still Waiting Tab

ver5
ver5
More versions @911Tabs.com
5,398 views 3 this week
6 commentsread comments
1 2 3 4 5
accurate
x 14
Autoscroll
+/-
esc
set tempo
stop
NEW! There's an official Ultimate Guitar app which is ideal
for learning songs when you're away from computer. Get the app
WARNING: You are trying to view
                                    content from Ultimate-Guitar.com
                                    in an unauthorized application,
                                    which is prohibited.

                                    Please use an official Ultimate
                                    Guitar Tabs application for iPhone,
                                    iPad or Android to access legitimate
                                    chords, guitar, bass, and drum tabs
                                    from Ultimate-Guitar.com database.

                                    Type "ultimate guitar tabs" in Apple
                                    App Store's or Android Market's
                                    search to find the application.
E A D G B E


Intro/Chorus:

pm
e-----------------------------------------------------------------
b-----------------------------------------------------------------
g-----------------------------------------------------------------
d-9-9-9-9-9-9-9-9-5-5-5-5-5-5-5-5-----------------4-4-4-4-4-4-4-4-
a-7-7-7-7-7-7-7-7-3-3-3-3-3-3-3-3-5-5-5-5-5-5-5-5-2-2-2-2-2-2-2-2-
e---------------------------------3-3-3-3-3-3-3-3-----------------

e-----------------------------------------------------------------
b-----------------------------------------------------------------
g-----------------------------------------------------------------
d-9-9-9-9-9-9-9-9-5-5-5-5-5-5-5-5-----------------7-7-7-7-7-7-7-7-
a-7-7-7-7-7-7-7-7-3-3-3-3-3-3-3-3-5-5-5-5-5-5-5-5-5-5-5-5-5-5-5-5-
e---------------------------------3-3-3-3-3-3-3-3-----------------

e----------------
b----------------
g----------------
d-7--------------
a-5--------------
e------------15\-

Interlude:

gtr. 1 x2

e-----------------------------------------------------------------
b-----------------------------------------------------------------
g-----------------------------------------------------------------
d-----------------5-5---5--5--5-------------------5-5--5--4-4--4--
a-2-2---2--2--2---3-3---3--3--3---2-2---2--2--2---3-3--3--2-2--2--
e-0-0---0--0--0-------------------0-0---0--0--0-------------------

gtr. 2 x2

e-----------------------------------------------------------------
b-----------------------------------------------------------------
g------/1211-12--------/1211-12--------/1211-12--14---12--11---7--
d--------x-x--x----------x-x--x----------x-x--x---x----x---x---x--
a------/10-9-10--------/10-9-10--------/10-9-10--12---10---9---5--
e-----------------------------------------------------------------

Verses 1&2: 

Fig. 1

e------------------------------------------
b------------------------------------------
g------------------------------------------
d------------------------------------------
a-2------------------------8\7---8\7---5/7-
e-0----0--0--0-0-0--0-0-0--6\5-0-6\5-0-3/5-
     pm*  *  * * *  * * *      *     *

e------------------------------------------
b------------------------------------------
g------------------------------------------
d------------------------------------------
a-2------------------------5------5------5-
e-0----0--0--0-0-0--0-0-0--3----0-3----0-3-
     pm*  *  * * *  * * *       *      *

e------------------------------------------
b------------------------------------------
g------------------------------------------
d------------------------------------------
a-2------------------------8\7---8\7---5/7-
e-0----0--0--0-0-0--0-0-0--6\5-0-6\5-0-3/5-
     pm*  *  * * *  * * *      *     *

1st Ending:

e-------------------------------------
b-------------------------------------
g-------------------------------------
d-----------------------4------7---7--
a-5-5-5-5--5-5-5-0--2-2-2-2--2-5-5-5--
e-3-3-3-3--3-3-3----------------------
pm* * * *  * * * *  * *   *  *   *

2nd Ending:

e-------------------------------------------------
b-------------------------------------------------
g-------------------------------------------------
d-----------------4-4-4-4-4-4-4-4-4-4-4-4-4-4-4-4-
a-5-5-5-5-5-5-5-0-2-2-2-2-2-2-2-2-2-2-2-2-2-2-2-2-
e-3-3-3-3-3-3-3-0---------------------------------
pm* * * * * * * * * *  [pick slide]

Chorus:

gtr. 1

e-----------------------------------------------------------------
b-----------------------------------------------------------------
g-----------------------------------------------------------------
d-----------------5-5-5---5---5-5-----------------4-4-4---4---4-4-
a-2-2-2---2---2-2-3-3-3---3---3-3-5-5-5---5---5-5-2-2-2---2---2-2-
e-0-0-0---0---0-0-----------------3-3-3---3---3-3-----------------

gtr. 2

e-----------------------------------------------------------------
b---------------------------------8-8-8-8-8-8-8-8-----------------
g-9-9-9-9-9-9-9-9-5-5-5-5-5-5-5-5-x-x-x-x-x-x-x-x-7-7-7-7-7-7-7-7-
d-x-x-x-x-x-x-x-x-x-x-x-x-x-x-x-x-5-5-5-5-5-5-5-5-x-x-x-x-x-x-x-x-
a-7-7-7-7-7-7-7-7-3-3-3-3-3-3-3-3-----------------5-5-5-5-5-5-5-5-
e-----------------------------------------------------------------

gtr. 1

e-----------------------------------------------------------------
b-----------------------------------------------------------------
g-----------------------------------------------------------------
d-----------------5-5-5---5---5-5-----------------4-4-4---4---4-4-
a-2-2-2---2---2-2-3-3-3---3---3-3-5-5-5---5---5-5-2-2-2---2---2-2-
e-0-0-0---0---0-0-----------------3-3-3---3---3-3-----------------

gtr. 2

e-----------------------------------------------------------------
b---------------------------------8-8-8-8-8-8-8-8-7-7-7-7-7-7-7-7-
g-9-9-9-9-9-9-9-9-5-5-5-5-5-5-5-5-x-x-x-x-x-x-x-x-x-x-x-x-x-x-x-x-
d-x-x-x-x-x-x-x-x-x-x-x-x-x-x-x-x-5-5-5-5-5-5-5-5-4-4-4-4-4-4-4-4-
a-7-7-7-7-7-7-7-7-3-3-3-3-3-3-3-3---------------------------------
e-----------------------------------------------------------------

Interlude: (after 1st Chorus)

gtr. 1 

e-----------------------------------------------------------------
b-----------------------------------------------------------------
g-----------------------------------------------------------------
d-----------------5-5---5-------------------------5-5-5-5-4-4-----
a-2-2---2---------3-3---3---------2-2---2--2--2---3-3-3-3-2-2-----
e-0-0---0-------------------------0-0---0--0--0---------------15\-

gtr. 2 

e-----------------------------------------------------------------
b-----------------------------------------------------------------
g------/1211-12--------/1211-12--------/1211-12--14---12--11---7--
d--------x-x--x----------x-x--x----------x-x--x---x----x---x---x--
a------/10-9-10--------/10-9-10--------/10-9-10--12---10---9---5--
e-----------------------------------------------------------------

Bridge: (after 2nd Chorus)

gtr. 1

e-----------------------------------------------------------------
b-----------------------------------------------------------------
g-----------------------------------------------------------------
d-----------------5-5-5---5---5-5-----------------4-4-4---4---4-4-
a-2-2-2---2---2-2-3-3-3---3---3-3-5-5-5---5---5-5-2-2-2---2---2-2-
e-0-0-0---0---0-0-----------------3-3-3---3---3-3-----------------

gtr. 2

e-----------------------------------------------------------------
b---------------------------------8-8-8-8-7-7-7-7-----------------
g---------------------------------x-x-x-x-x-x-x-x-9-9-9-9-7-7-7-7-
d---------------------------------5-5-5-5-4-4-4-4-x-x-x-x-x-x-x-x-
a-------------------------------------------------7-7-7-7-5-5-5-5-
e-----------------------------------------------------------------

gtr. 1

e-----------------------------------------------------------------
b-----------------------------------------------------------------
g-----------------------------------------------------------------
d-----------------5-5-5---5---5-5-----------------4-4-4---4---4-4-
a-2-2-2---2---2-2-3-3-3---3---3-3-5-5-5---5---5-5-2-2-2---2---2-2-
e-0-0-0---0---0-0-----------------3-3-3---3---3-3-----------------

gtr. 2

e-----------------------------------------------------------------
b---------------------------------8-8-8-8-7-7-7-7-8-8-8-810101010-
g---------------------------------x-x-x-x-x-x-x-x-x-x-x-x-x-x-x-x-
d---------------------------------5-5-5-5-4-4-4-4-5-5-5-5-7-7-7-7-
a-----------------------------------------------------------------
e-----------------------------------------------------------------

...i feel so alone, can’t help myself...

gtr. 1 x2

e-----------------------------------------------------------------
b-----------------------------------------------------------------
g-----------------------------------------------------------------
d-9---9---9---9---5---5---7---7---9---9---9---9---5---5---7---7---
a-7---7---7---7---3---3---5---5---7---7---7---7---3---3---5---5---
e-----------------------------------------------------------------

gtr. 2 x2

e-----------------------------------------------------------------
b-8-8-8-8-8-8-8-8-8-8-8-810101010-8-8-8-8-8-8-8-8-8-8-8-810101010-
g-x-x-x-x-x-x-x-x-x-x-x-x-x-x-x-x-x-x-x-x-x-x-x-x-x-x-x-x-x-x-x-x-
d-5-5-5-5-5-5-5-5-5-5-5-5-7-7-7-7-5-5-5-5-5-5-5-5-5-5-5-5-7-7-7-7-
a-----------------------------------------------------------------
e-----------------------------------------------------------------

gtr. 3 x2

e-----------------------------------------------------------------
b-----------------8-8-8-8-------------------------8-8-8-8---------
g-9-9-9-9-9-9-9-9-x-x-x-x-7-7-7-7-9-9-9-9-9-9-9-9-x-x-x-x-7-7-7-7-
d-x-x-x-x-x-x-x-x-5-5-5-5-x-x-x-x-x-x-x-x-x-x-x-x-5-5-5-5-x-x-x-x-
a-7-7-7-7-7-7-7-7---------5-5-5-5-7-7-7-7-7-7-7-7---------5-5-5-5-
e-----------------------------------------------------------------

then,

gtr. 1

e-----------------------------------------------------------------
b-----------------------------------------------------------------
g-----------------------------------------------------------------
d-----------------5-5-5---------------------------4-4-4-----------
a-2-2-2-----------3-3-3-----------5-5-5-----------2-2-2-----------
e-0-0-0---------------------------3-3-3---------------------------

gtr. 2

e-----------------------------------------------------------------
b---------------------------------8-8-8-8-8-8-8-8-7-7-7-7-7-7-7-7-
g-9-9-9-9-9-9-9-9-9-9-9-9-9-9-9-9-x-x-x-x-x-x-x-x-x-x-x-x-x-x-x-x-
d-x-x-x-x-x-x-x-x-x-x-x-x-x-x-x-x-5-5-5-5-5-5-5-5-4-4-4-4-4-4-4-4-
a-7-7-7-7-7-7-7-7-7-7-7-7-7-7-7-7---------------------------------
e-----------------------------------------------------------------

Solo:

gtr. 1

e-----------------------------------------------------------------
b-----------------------------------------------------------------
g-----------------------------------------------------------------
d-----------------5-5-5---------------------------4-4-4---x-0-----
a-2-2-2-----------3-3-3-----------5-5-5-----------2-2-2---x-0-----
e-0-0-0---------------------------3-3-3---------------------------

gtr. 2

e-----------------------------------------------------------------
b---------------------------------8-8-8-8-8-8-8-8-7-7-7-7-7-7-7-7-
g-9-9-9-9-9-9-9-9-9-9-9-9-9-9-9-9-x-x-x-x-x-x-x-x-x-x-x-x-x-x-x-x-
d-x-x-x-x-x-x-x-x-x-x-x-x-x-x-x-x-5-5-5-5-5-5-5-5-4-4-4-4-4-4-4-4-
a-7-7-7-7-7-7-7-7-7-7-7-7-7-7-7-7---------------------------------
e-----------------------------------------------------------------

gtr. 3

e-----------------------------------------------------------------
b-----------------------------------------------------------------
g-----4---------------4---------------4-------------------2-0-----
d-2-------5p4-0-4-2-------5p4-0-4-5-------5p4-0-4-----4-5-----4-5-
a-------------------------------------------------2---------------
e-----------------------------------------------------------------

gtr. 1

e-----------------------------------------------------------------
b-----------------------------------------------------------------
g-----------------------------------------------------------------
d-----------------5-5-5---------------------------4-4-4-----------
a-2-2-2-----------3-3-3-----------5-5-5-----------2-2-2-----------
e-0-0-0---------------------------3-3-3-------------------/12\----

gtr. 2

e-----------------------------------------------------------------
b---------------------------------8-8-8-8-8-8-8-81010101010101010-
g-9-9-9-9-9-9-9-9-9-9-9-9-9-9-9-9-x-x-x-x-x-x-x-x-x-x-x-x-x-x-x-x-
d-x-x-x-x-x-x-x-x-x-x-x-x-x-x-x-x-5-5-5-5-5-5-5-5-7-7-7-7-7-7-7-7-
a-7-7-7-7-7-7-7-7-7-7-7-7-7-7-7-7---------------------------------
e-----------------------------------------------------------------

gtr. 3

e-----------------------------------------------------------------
b-----------------------------------------------------------------
g-----4---------------4---------------4-------------------2-0-----
d-2-------5p4-0-4-2-------5p4-0-4-5-------5p4-0-4-----4-5-----4-5-
a-------------------------------------------------2---------------
e-----------------------------------------------------------------

gtr. 1

e-----------------------------------------------------------------
b-----------------------------------------------------------------
g-----------------------------------------------------------------
d-----------------5-5-5---5---5-5-----------------4-4-4---4---4-4-
a-2-2-2---2---2-2-3-3-3---3---3-3-5-5-5---5---5-5-2-2-2---2---2-2-
e-0-0-0---0---0-0-----------------3-3-3---3---3-3-----------------

gtr. 2

e-----------------------------------------------------------------
b---------------------------------8-8-8-8-8-8-8-8-7-7-7-7-7-7-7-7-
g-9-9-9-9-9-9-9-9-9-9-9-9-9-9-9-9-x-x-x-x-x-x-x-x-x-x-x-x-x-x-x-x-
d-x-x-x-x-x-x-x-x-x-x-x-x-x-x-x-x-5-5-5-5-5-5-5-5-4-4-4-4-4-4-4-4-
a-7-7-7-7-7-7-7-7-7-7-7-7-7-7-7-7---------------------------------
e-----------------------------------------------------------------

gtr. 3

e-----------------------------------------------------------------
b-----------------------------------------------------------------
g-----4---------------4---------------4-------------------2-0-----
d-2-------5p4-0-4-2-------5p4-0-4-5-------5p4-0-4-----4-5-----4-5-
a-------------------------------------------------2---------------
e-----------------------------------------------------------------

gtr. 1

e-----------------------------------------------------------------
b-----------------------------------------------------------------
g-----------------------------------------------------------------
d-----------------5-5-5---5---5-5-----------------4-4-4-4-4-4-4-4-
a-2-2-2---2---2-2-3-3-3---3---3-3-5-5-5---5---5-5-2-2-2-2-2-2-2-2-
e-0-0-0---0---0-0-----------------3-3-3---3---3-3-----------------
                                                pm* * * * * * * *

gtr. 2

e-----------------------------------------------------------------
b---------------------------------8-8-8-8-8-8-8-8-----------------
g-9-9-9-9-9-9-9-9-9-9-9-9-9-9-9-9-x-x-x-x-x-x-x-x-----------------
d-x-x-x-x-x-x-x-x-x-x-x-x-x-x-x-x-5-5-5-5-5-5-5-5-----------------
a-7-7-7-7-7-7-7-7-7-7-7-7-7-7-7-7---------------------------------
e-----------------------------------------------------------------

gtr. 3

e-----------------------------------------------------------------
b-----------------------------------------------------------------
g-----4---------------4---------------4-------------------2-0-----
d-2-------5p4-0-4-2-------5p4-0-4-5-------5p4-0-4-----4-5-----4-5-
a-------------------------------------------------2---------------
e-----------------------------------------------------------------

gtr. 3

e-----------------
b-----------------
g---------2-0-----
d-----4-5-----4-5- [pick slide over top]
a-2---------------
e-----------------

Chorus: then,

last bar

e-----------------------------------------------------------------
b-----------------------------------------------------------------
g-9-9-9-9-9-9-9-9-9\----------------------------------------------
d-9-9-9-9-9-9-9-9-9\----------------------------------------------
a-7-7-7-7-7-7-7-7-7\----------------------------------------------
e-----------------------------------------------------------------
comments
print report bad tab
6 comments total. Showing first comments.
0 reply
tza wrote on June 3 2003, 12:00 am

you douche bag ... this is my tab and you took my name off of it

0 reply
mohawk1 wrote on April 11 2004, 12:00 am

is this really tabbed by sum 41?

0 reply
sephiroth5789 wrote on July 7 2004, 12:00 am

if i change my name to george w bush does that make me him?

I want to post or [tab]
guest
You may want to rate the tab now too:
select rating
Please do not post tabs as comments. Select "correction" instead!